  0
SECTION
  2
HEADER
  9
$ACADVER
  1
AC1009
  9
$INSBASE
 10
0.0
 20
0.0
 30
0.0
  9
$EXTMIN
 10
-90.977346677361254
 20
-90.977346677361254
 30
0.0
  9
$EXTMAX
 10
143.99611986995899
 20
103.60637964239049
 30
0.0
  9
$LIMMIN
 10
0.0
 20
0.0
  9
$LIMMAX
 10
12.0
 20
9.0
  9
$ORTHOMODE
 70
     0
  9
$REGENMODE
 70
     1
  9
$FILLMODE
 70
     1
  9
$QTEXTMODE
 70
     0
  9
$MIRRTEXT
 70
     1
  9
$DRAGMODE
 70
     2
  9
$LTSCALE
 40
1.0
  9
$OSMODE
 70
    37
  9
$ATTMODE
 70
     1
  9
$TEXTSIZE
 40
0.2
  9
$TRACEWID
 40
0.05
  9
$TEXTSTYLE
  7
STANDARD
  9
$CLAYER
  8
0
  9
$CELTYPE
  6
BYLAYER
  9
$CECOLOR
 62
   256
  9
$DIMSCALE
 40
1.0
  9
$DIMASZ
 40
0.18
  9
$DIMEXO
 40
0.0625
  9
$DIMDLI
 40
0.38
  9
$DIMRND
 40
0.0
  9
$DIMDLE
 40
0.0
  9
$DIMEXE
 40
0.18
  9
$DIMTP
 40
0.0
  9
$DIMTM
 40
0.0
  9
$DIMTXT
 40
0.18
  9
$DIMCEN
 40
0.09
  9
$DIMTSZ
 40
0.0
  9
$DIMTOL
 70
     0
  9
$DIMLIM
 70
     0
  9
$DIMTIH
 70
     1
  9
$DIMTOH
 70
     1
  9
$DIMSE1
 70
     0
  9
$DIMSE2
 70
     0
  9
$DIMTAD
 70
     0
  9
$DIMZIN
 70
     0
  9
$DIMBLK
  1

  9
$DIMASO
 70
     1
  9
$DIMSHO
 70
     1
  9
$DIMPOST
  1

  9
$DIMAPOST
  1

  9
$DIMALT
 70
     0
  9
$DIMALTD
 70
     2
  9
$DIMALTF
 40
25.399999999999999
  9
$DIMLFAC
 40
1.0
  9
$DIMTOFL
 70
     0
  9
$DIMTVP
 40
0.0
  9
$DIMTIX
 70
     0
  9
$DIMSOXD
 70
     0
  9
$DIMSAH
 70
     0
  9
$DIMBLK1
  1

  9
$DIMBLK2
  1

  9
$DIMSTYLE
  2
STANDARD
  9
$DIMCLRD
 70
     0
  9
$DIMCLRE
 70
     0
  9
$DIMCLRT
 70
     0
  9
$DIMTFAC
 40
1.0
  9
$DIMGAP
 40
0.09
  9
$LUNITS
 70
     2
  9
$LUPREC
 70
     4
  9
$SKETCHINC
 40
0.1
  9
$FILLETRAD
 40
0.5
  9
$AUNITS
 70
     0
  9
$AUPREC
 70
     0
  9
$MENU
  1
.
  9
$ELEVATION
 40
0.0
  9
$PELEVATION
 40
0.0
  9
$THICKNESS
 40
0.0
  9
$LIMCHECK
 70
     0
  9
$BLIPMODE
 70
     0
  9
$CHAMFERA
 40
0.5
  9
$CHAMFERB
 40
0.5
  9
$SKPOLY
 70
     0
  9
$TDCREATE
 40
2451955.1727028699
  9
$TDUPDATE
 40
2454727.561353981
  9
$TDINDWG
 40
0.0144110069
  9
$TDUSRTIMER
 40
0.0144108333
  9
$USRTIMER
 70
     1
  9
$ANGBASE
 50
0.0
  9
$ANGDIR
 70
     0
  9
$PDMODE
 70
     0
  9
$PDSIZE
 40
0.0
  9
$PLINEWID
 40
0.0
  9
$COORDS
 70
     1
  9
$SPLFRAME
 70
     0
  9
$SPLINETYPE
 70
     6
  9
$SPLINESEGS
 70
     8
  9
$ATTDIA
 70
     0
  9
$ATTREQ
 70
     1
  9
$HANDLING
 70
 22529
  9
$HANDSEED
  5
880
  9
$SURFTAB1
 70
     6
  9
$SURFTAB2
 70
     6
  9
$SURFTYPE
 70
     6
  9
$SURFU
 70
     6
  9
$SURFV
 70
     6
  9
$UCSNAME
  2

  9
$UCSORG
 10
0.0
 20
0.0
 30
0.0
  9
$UCSXDIR
 10
1.0
 20
0.0
 30
0.0
  9
$UCSYDIR
 10
0.0
 20
1.0
 30
0.0
  9
$PUCSNAME
  2

  9
$PUCSORG
 10
0.0
 20
0.0
 30
0.0
  9
$PUCSXDIR
 10
1.0
 20
0.0
 30
0.0
  9
$PUCSYDIR
 10
0.0
 20
1.0
 30
0.0
  9
$USERI1
 70
     0
  9
$USERI2
 70
     0
  9
$USERI3
 70
     0
  9
$USERI4
 70
     0
  9
$USERI5
 70
     0
  9
$USERR1
 40
0.0
  9
$USERR2
 40
0.0
  9
$USERR3
 40
0.0
  9
$USERR4
 40
0.0
  9
$USERR5
 40
0.0
  9
$WORLDVIEW
 70
     1
  9
$SHADEDGE
 70
     3
  9
$SHADEDIF
 70
    70
  9
$TILEMODE
 70
     1
  9
$MAXACTVP
 70
    48
  9
$PLIMCHECK
 70
     0
  9
$PEXTMIN
 10
1.049636599258096
 20
0.7996597240971113
 30
-0.0015258207003583
  9
$PEXTMAX
 10
9.4503627310769716
 20
7.2003400826974584
 30
0.0000000349246037
  9
$PLIMMIN
 10
-0.2500002402958907
 20
-0.2499999962453767
  9
$PLIMMAX
 10
10.74999951940821
 20
8.2499997634587316
  9
$UNITMODE
 70
     0
  9
$VISRETAIN
 70
     1
  9
$PLINEGEN
 70
     0
  9
$PSLTSCALE
 70
     1
  0
ENDSEC
  0
SECTION
  2
TABLES
  0
TABLE
  2
VPORT
 70
     2
  0
VPORT
  2
*ACTIVE
 70
     0
 10
0.0
 20
0.0
 11
1.0
 21
1.0
 12
26.509387143388999
 22
6.314516935565222
 13
0.0
 23
0.0
 14
0.5
 24
0.5
 15
0.5
 25
0.5
 16
0.0
 26
0.0
 36
1.0
 17
0.0
 27
0.0
 37
0.0
 40
196.0694578012523
 41
1.5031210986267161
 42
50.0
 43
0.0
 44
0.0
 50
0.0
 51
0.0
 71
     0
 72
   100
 73
     1
 74
     3
 75
     0
 76
     0
 77
     0
 78
     0
  0
ENDTAB
  0
TABLE
  2
LTYPE
 70
     2
  0
LTYPE
  2
CONTINUOUS
 70
     0
  3
Solid line
 72
    65
 73
     0
 40
0.0
  0
LTYPE
  2
CENTER
 70
     0
  3
__ . __
 72
    65
 73
     4
 40
7.0
 49
4.0
 49
-1.0
 49
1.0
 49
-1.0
  0
ENDTAB
  0
TABLE
  2
LAYER
 70
     1
  0
LAYER
  2
0
 70
     0
 62
     7
  6
CONTINUOUS
  0
ENDTAB
  0
TABLE
  2
STYLE
 70
     1
  0
STYLE
  2
STANDARD
 70
     0
 40
0.0
 41
1.0
 50
0.0
 71
     0
 42
0.2
  3
txt
  4

  0
ENDTAB
  0
TABLE
  2
VIEW
 70
     0
  0
ENDTAB
  0
TABLE
  2
UCS
 70
     0
  0
ENDTAB
  0
TABLE
  2
APPID
 70
    19
  0
APPID
  2
ACAD
 70
     0
  0
APPID
  2
GENIUS_GENODEF_13
 70
     0
  0
APPID
  2
ACAD_DSTYLE_DIMARC_LENGTH_
 70
     0
  0
APPID
  2
ACAD_DSTYLE_DIMJOGGED_JOGA
 70
     0
  0
APPID
  2
GENIUS_GENOBJ-N-FIL_13
 70
     0
  0
APPID
  2
ACAD_MLEADERVER
 70
     0
  0
APPID
  2
MCAD_NO_VIS
 70
     0
  0
APPID
  2
ACAD_TEMP_GRAPHIC
 70
     0
  0
APPID
  2
AD_DRAW
 70
     0
  0
APPID
  2
ACATTRIBSERVICES
 70
     0
  0
APPID
  2
DESIGNERASSEMBLIES
 70
     0
  0
APPID
  2
ACADM_DIM_EDIT
 70
     0
  0
APPID
  2
AMDT_DM_ADJ
 70
     0
  0
APPID
  2
GENIUS_GENSCREG_15
 70
     0
  0
APPID
  2
GENIUS_GENOBJ-N-SDF_13
 70
     0
  0
APPID
  2
ACAD_EXEMPT_FROM_CAD_STANDARDS
 70
     0
  0
APPID
  2
ACAD_DSTYLE_DIM_LINETYPE
 70
     0
  0
APPID
  2
ACAD_DSTYLE_DIM_EXT1_LINETYPE
 70
     0
  0
APPID
  2
ACAD_DSTYLE_DIM_EXT2_LINETYPE
 70
     0
  0
ENDTAB
  0
TABLE
  2
DIMSTYLE
 70
     1
  0
DIMSTYLE
  2
STANDARD
 70
     0
  3

  4

  5

  6

  7

 40
1.0
 41
0.18
 42
0.0625
 43
0.38
 44
0.18
 45
0.0
 46
0.0
 47
0.0
 48
0.0
140
0.18
141
0.09
142
0.0
143
25.399999999999999
144
1.0
145
0.0
146
1.0
147
0.09
 71
     0
 72
     0
 73
     1
 74
     1
 75
     0
 76
     0
 77
     0
 78
     0
170
     0
171
     2
172
     0
173
     0
174
     0
175
     0
176
     0
177
     0
178
     0
  0
ENDTAB
  0
ENDSEC
  0
SECTION
  2
BLOCKS
  0
BLOCK
  8
0
  2
$MODEL_SPACE
 70
     0
 10
0.0
 20
0.0
 30
0.0
  3
$MODEL_SPACE
  1

  0
ENDBLK
  5
21
  8
0
  0
BLOCK
 67
     1
  8
0
  2
$PAPER_SPACE
 70
     0
 10
0.0
 20
0.0
 30
0.0
  3
$PAPER_SPACE
  1

  0
ENDBLK
  5
60
 67
     1
  8
0
  0
ENDSEC
  0
SECTION
  2
ENTITIES
  0
TEXT
  5
10C
  8
0
 10
0.7892459962328058
 20
98.60637964239055
 30
0.0
 40
5.0
  1
13MVHM-LW 4.5S
  0
LINE
  5
76D
  8
0
 10
2.9999999999999849
 20
-87.500000000000014
 30
0.0
 11
2.9999999999999849
 21
-61.927375999999981
 31
0.0
  0
LINE
  5
76E
  8
0
 10
14.99999999999998
 20
-87.499999999999986
 30
0.0
 11
14.99999999999998
 21
-71.442283999999972
 31
0.0
  0
LINE
  5
76F
  8
0
 10
-15.000000000000011
 20
-87.500000000000014
 30
0.0
 11
-15.000000000000011
 21
-71.442283999999972
 31
0.0
  0
LINE
  5
770
  8
0
 10
-3.0000000000000142
 20
-87.499999999999986
 30
0.0
 11
-3.0000000000000142
 21
-61.927375999999981
 31
0.0
  0
LINE
  5
771
  8
0
 10
-3.0000000000000142
 20
-84.500000000000014
 30
0.0
 11
2.9999999999999849
 21
-84.500000000000014
 31
0.0
  0
LINE
  5
772
  8
0
 10
-3.0000000000000142
 20
-76.5
 30
0.0
 11
2.9999999999999849
 21
-76.5
 31
0.0
  0
LINE
  5
773
  8
0
 10
15.000000000000011
 20
87.5
 30
0.0
 11
15.000000000000011
 21
71.442284000000001
 31
0.0
  0
LINE
  5
774
  8
0
 10
15.000000000000011
 20
87.5
 30
0.0
 11
3.0000000000000142
 21
87.5
 31
0.0
  0
LINE
  5
775
  8
0
 10
3.0000000000000142
 20
87.5
 30
0.0
 11
3.0000000000000142
 21
61.927376000000002
 31
0.0
  0
LINE
  5
776
  8
0
 10
-14.99999999999998
 20
87.5
 30
0.0
 11
-2.9999999999999849
 21
87.5
 31
0.0
  0
LINE
  5
777
  8
0
 10
-2.9999999999999849
 20
87.5
 30
0.0
 11
-2.9999999999999849
 21
61.927376000000002
 31
0.0
  0
LINE
  5
778
  8
0
 10
-2.9999999999999849
 20
84.500000000000014
 30
0.0
 11
3.0000000000000142
 21
84.500000000000014
 31
0.0
  0
LINE
  5
779
  8
0
 10
-2.9999999999999849
 20
76.5
 30
0.0
 11
3.0000000000000142
 21
76.5
 31
0.0
  0
LINE
  5
77A
  8
0
 10
-14.99999999999998
 20
87.5
 30
0.0
 11
-14.99999999999998
 21
71.442284000000001
 31
0.0
  0
LINE
  5
77B
  8
0
 10
-28.999999999999979
 20
76.5
 30
0.0
 11
-23.499999999999979
 21
76.5
 31
0.0
  0
LINE
  5
77C
  8
0
 10
-23.499999999999979
 20
75.5
 30
0.0
 11
-23.499999999999979
 21
85.5
 31
0.0
  0
LINE
  5
77D
  8
0
 10
-28.999999999999979
 20
76.5
 30
0.0
 11
-28.999999999999979
 21
84.500000000000014
 31
0.0
  0
LINE
  5
77E
  8
0
 10
-22.499999999999979
 20
74.5
 30
0.0
 11
-21.499999999999979
 21
74.5
 31
0.0
  0
LINE
  5
77F
  8
0
 10
-22.499999999999979
 20
86.5
 30
0.0
 11
-21.499999999999979
 21
86.5
 31
0.0
  0
LINE
  5
780
  8
0
 10
-20.775105999999969
 20
80.5
 30
0.0
 11
-15.72489399999999
 21
80.5
 31
0.0
  0
LINE
  5
781
  8
0
 10
-21.499999999999979
 20
87.0
 30
0.0
 11
-21.499999999999979
 21
74.0
 31
0.0
  0
LINE
  5
782
  8
0
 10
-21.499999999999979
 20
87.0
 30
0.0
 11
-14.99999999999998
 21
87.0
 31
0.0
  0
LINE
  5
783
  8
0
 10
-21.499999999999979
 20
74.0
 30
0.0
 11
-14.99999999999998
 21
74.0
 31
0.0
  0
LINE
  5
784
  8
0
 10
-28.999999999999979
 20
84.500000000000014
 30
0.0
 11
-23.499999999999979
 21
84.500000000000014
 31
0.0
  0
LINE
  5
785
  8
0
  6
CENTER
 10
-30.651334999999971
 20
80.5
 30
0.0
 11
26.079699000000019
 21
80.5
 31
0.0
  0
LINE
  5
786
  8
0
 10
19.775106000000001
 20
80.5
 30
0.0
 11
15.000000000000011
 21
80.5
 31
0.0
  0
LINE
  5
787
  8
0
 10
20.500000000000011
 20
77.25
 30
0.0
 11
20.500000000000011
 21
83.75
 31
0.0
  0
LINE
  5
788
  8
0
 10
19.775106000000001
 20
74.0
 30
0.0
 11
15.000000000000011
 21
74.0
 31
0.0
  0
LINE
  5
789
  8
0
 10
19.775106000000001
 20
87.0
 30
0.0
 11
15.000000000000011
 21
87.0
 31
0.0
  0
LINE
  5
78A
  8
0
 10
19.775105999999969
 20
-80.5
 30
0.0
 11
14.99999999999998
 21
-80.5
 31
0.0
  0
LINE
  5
78B
  8
0
 10
20.499999999999979
 20
-77.25
 30
0.0
 11
20.499999999999979
 21
-83.75
 31
0.0
  0
LINE
  5
78C
  8
0
 10
19.775105999999969
 20
-74.0
 30
0.0
 11
14.99999999999998
 21
-74.0
 31
0.0
  0
LINE
  5
78D
  8
0
 10
19.775105999999969
 20
-87.0
 30
0.0
 11
14.99999999999998
 21
-87.0
 31
0.0
  0
LINE
  5
78E
  8
0
 10
-29.000000000000011
 20
-76.5
 30
0.0
 11
-23.500000000000011
 21
-76.5
 31
0.0
  0
LINE
  5
78F
  8
0
 10
-23.500000000000011
 20
-75.5
 30
0.0
 11
-23.500000000000011
 21
-85.5
 31
0.0
  0
LINE
  5
790
  8
0
 10
-29.000000000000011
 20
-76.5
 30
0.0
 11
-29.000000000000011
 21
-84.500000000000014
 31
0.0
  0
LINE
  5
791
  8
0
 10
-22.500000000000011
 20
-74.5
 30
0.0
 11
-21.500000000000011
 21
-74.5
 31
0.0
  0
LINE
  5
792
  8
0
 10
-22.500000000000011
 20
-86.5
 30
0.0
 11
-21.500000000000011
 21
-86.5
 31
0.0
  0
LINE
  5
793
  8
0
 10
-20.775106000000001
 20
-80.5
 30
0.0
 11
-15.72489400000002
 21
-80.5
 31
0.0
  0
LINE
  5
794
  8
0
 10
-21.500000000000011
 20
-87.0
 30
0.0
 11
-21.500000000000011
 21
-74.0
 31
0.0
  0
LINE
  5
795
  8
0
 10
-21.500000000000011
 20
-87.0
 30
0.0
 11
-15.000000000000011
 21
-87.0
 31
0.0
  0
LINE
  5
796
  8
0
 10
-21.500000000000011
 20
-74.0
 30
0.0
 11
-15.000000000000011
 21
-74.0
 31
0.0
  0
LINE
  5
797
  8
0
 10
-29.000000000000011
 20
-84.500000000000014
 30
0.0
 11
-23.500000000000011
 21
-84.500000000000014
 31
0.0
  0
LINE
  5
798
  8
0
  6
CENTER
 10
-30.651335
 20
-80.5
 30
0.0
 11
24.25168199999997
 21
-80.5
 31
0.0
  0
ARC
  5
799
  8
0
 10
-22.499999999999979
 20
75.5
 30
0.0
 40
1.0
 50
179.99998999999889
 51
269.99999599999921
  0
ARC
  5
79A
  8
0
 10
-22.499999999999979
 20
85.5
 30
0.0
 40
1.0
 50
90.0
 51
180.0000050089553
  0
ARC
  5
79B
  8
0
 10
-13.85200499999997
 20
83.75
 30
0.0
 40
7.647994999999999
 50
154.85262999999949
 51
205.14737500000061
  0
ARC
  5
79C
  8
0
 10
-13.85200499999997
 20
77.25
 30
0.0
 40
7.647994999999999
 50
154.85262999999949
 51
205.1473680000002
  0
ARC
  5
79D
  8
0
 10
-22.647994999999991
 20
83.75
 30
0.0
 40
7.647994999999999
 50
334.85262999999958
 51
25.147370000000411
  0
ARC
  5
79E
  8
0
 10
-22.647994999999991
 20
77.25
 30
0.0
 40
7.647994999999999
 50
334.85262999999958
 51
25.147370000000411
  0
ARC
  5
79F
  8
0
 10
12.852005
 20
77.25
 30
0.0
 40
7.6479945000000011
 50
334.85262999999958
 51
25.147370000000411
  0
ARC
  5
7A0
  8
0
 10
12.852005
 20
83.75
 30
0.0
 40
7.6479945000000011
 50
334.85262999999958
 51
25.147370000000411
  0
ARC
  5
7A1
  8
0
 10
12.85200499999997
 20
-77.25
 30
0.0
 40
7.6479945000000011
 50
334.85262999999958
 51
25.147370000000411
  0
ARC
  5
7A2
  8
0
 10
12.85200499999997
 20
-83.75
 30
0.0
 40
7.6479945000000011
 50
334.85262999999958
 51
25.147370000000411
  0
ARC
  5
7A3
  8
0
 10
-22.500000000000011
 20
-75.5
 30
0.0
 40
1.0
 50
90.0
 51
180.0000050089553
  0
ARC
  5
7A4
  8
0
 10
-22.500000000000011
 20
-85.5
 30
0.0
 40
1.0
 50
179.99998999999889
 51
269.99999599999921
  0
ARC
  5
7A5
  8
0
 10
-13.852005
 20
-83.75
 30
0.0
 40
7.647994999999999
 50
154.85262000000051
 51
205.1473720000003
  0
ARC
  5
7A6
  8
0
 10
-13.852005
 20
-77.25
 30
0.0
 40
7.647994999999999
 50
154.85262999999949
 51
205.1473720000003
  0
ARC
  5
7A7
  8
0
 10
-22.647995000000019
 20
-83.75
 30
0.0
 40
7.647994999999999
 50
334.85262999999958
 51
25.147370000000411
  0
ARC
  5
7A8
  8
0
 10
-22.647995000000019
 20
-77.25
 30
0.0
 40
7.647994999999999
 50
334.85262999999958
 51
25.147370000000411
  0
ARC
  5
7A9
  8
0
 10
0.0
 20
0.0
 30
0.0
 40
62.0
 50
272.77346599999959
 51
87.226540000000327
  0
ARC
  5
7AA
  8
0
 10
0.0
 20
0.0
 30
0.0
 40
64.0
 50
272.77346599999959
 51
87.313275814308426
  0
ARC
  5
7AB
  8
0
 10
0.0
 20
0.0
 30
0.0
 40
73.0
 50
272.35529399999967
 51
87.644715644225656
  0
ARC
  5
7AC
  8
0
 10
0.0
 20
0.0
 30
0.0
 40
62.0
 50
92.773459999999673
 51
267.22654299999948
  0
ARC
  5
7AD
  8
0
 10
0.0
 20
0.0
 30
0.0
 40
64.0
 50
92.773459999999673
 51
267.22654299999948
  0
ARC
  5
7AE
  8
0
 10
0.0
 20
0.0
 30
0.0
 40
73.0
 50
92.355290000000451
 51
267.64471400000042
  0
LINE
  5
7AF
  8
0
  6
CENTER
 10
0.0
 20
-90.977346677361254
 30
0.0
 11
0.0
 21
90.977346677361254
 31
0.0
  0
LINE
  5
7B0
  8
0
  6
CENTER
 10
-90.977346677361254
 20
0.0
 30
0.0
 11
90.977346677361254
 21
0.0
 31
0.0
  0
LINE
  5
7B1
  8
0
 10
128.49722389999999
 20
87.0
 30
0.0
 11
136.0027781
 21
87.0
 31
0.0
  0
LINE
  5
7B2
  8
0
 10
136.00277729999991
 20
86.999998000000005
 30
0.0
 11
139.75555449999999
 21
80.499996999999993
 31
0.0
  0
LINE
  5
7B3
  8
0
 10
139.75555289999991
 20
80.499998000000005
 30
0.0
 11
136.0027757
 21
73.999997000000008
 31
0.0
  0
LINE
  5
7B4
  8
0
 10
136.0027781
 20
74.0
 30
0.0
 11
128.49722389999999
 21
74.0
 31
0.0
  0
LINE
  5
7B5
  8
0
 10
124.7444471
 20
80.499998000000005
 30
0.0
 11
128.4972243
 21
73.999997000000008
 31
0.0
  0
LINE
  5
7B6
  8
0
 10
128.49722270000001
 20
86.999998000000005
 30
0.0
 11
124.7444455
 21
80.499996999999993
 31
0.0
  0
LINE
  5
7B7
  8
0
 10
128.49722270000001
 20
-86.999998000000005
 30
0.0
 11
124.7444454999999
 21
-80.499996999999993
 31
0.0
  0
LINE
  5
7B8
  8
0
 10
136.00277610000001
 20
-87.0
 30
0.0
 11
128.49722189999989
 21
-87.0
 31
0.0
  0
LINE
  5
7B9
  8
0
 10
136.00277729999991
 20
-86.999998000000005
 30
0.0
 11
139.7555544999999
 21
-80.499996999999993
 31
0.0
  0
LINE
  5
7BA
  8
0
 10
139.75555289999991
 20
-80.499998000000005
 30
0.0
 11
136.0027757
 21
-73.999997000000008
 31
0.0
  0
LINE
  5
7BB
  8
0
 10
128.49722189999989
 20
-74.0
 30
0.0
 11
136.00277610000001
 21
-74.0
 31
0.0
  0
LINE
  5
7BC
  8
0
 10
124.7444471
 20
-80.499998000000005
 30
0.0
 11
128.4972243
 21
-73.999997000000008
 31
0.0
  0
LINE
  5
7BD
  8
0
  6
CENTER
 10
132.25
 20
-89.052306999999985
 30
0.0
 11
132.25
 21
-71.440933000000001
 31
0.0
  0
LINE
  5
7BE
  8
0
 10
123.0
 20
-64.0
 30
0.0
 11
123.0
 21
63.929648833698423
 31
0.0
  0
LINE
  5
7BF
  8
0
 10
141.5
 20
-64.0
 30
0.0
 11
141.5
 21
63.929648833698451
 31
0.0
  0
LINE
  5
7C0
  8
0
  6
CENTER
 10
122.7551708
 20
-80.5
 30
0.0
 11
142.20425610000001
 21
-80.5
 31
0.0
  0
LINE
  5
7C1
  8
0
  6
CENTER
 10
132.25
 20
89.052306999999985
 30
0.0
 11
132.25
 21
71.440933000000001
 31
0.0
  0
LINE
  5
7C2
  8
0
  6
CENTER
 10
122.7551708
 20
80.5
 30
0.0
 11
142.20425610000001
 21
80.5
 31
0.0
  0
LINE
  5
7C3
  8
0
  6
CENTER
 10
120.5038862935066
 20
0.0
 30
0.0
 11
143.99611986995899
 21
0.0
 31
0.0
  0
LINE
  5
7C4
  8
0
 10
126.2757321083957
 20
-76.851969961835962
 30
0.0
 11
126.2757321083957
 21
76.851969961835948
 31
0.0
  0
ARC
  5
7C5
  8
0
 10
132.25
 20
80.5
 30
0.0
 40
7.0
 50
328.59076856258952
 51
351.78677832064398
  0
ARC
  5
7C6
  8
0
 10
132.25
 20
80.5
 30
0.0
 40
7.0
 50
8.2131971042172172
 51
51.786801215480587
  0
ARC
  5
7C7
  8
0
 10
132.25
 20
80.5
 30
0.0
 40
7.0
 50
68.213210701738234
 51
111.7867892982617
  0
ARC
  5
7C8
  8
0
 10
132.25
 20
80.5
 30
0.0
 40
7.0
 50
128.21319878451999
 51
171.7868028957819
  0
ARC
  5
7C9
  8
0
 10
132.25
 20
80.5
 30
0.0
 40
7.0
 50
188.21322167935591
 51
211.40923143740989
  0
LINE
  5
7CA
  8
0
 10
14.99999999999998
 20
-87.499999999999986
 30
0.0
 11
2.9999999999999849
 21
-87.500000000000014
 31
0.0
  0
LINE
  5
7CB
  8
0
 10
-15.000000000000011
 20
-87.500000000000014
 30
0.0
 11
-3.0000000000000142
 21
-87.499999999999986
 31
0.0
  0
LINE
  5
7CC
  8
0
 10
123.0
 20
63.929648833698423
 30
0.0
 11
126.2757321083957
 21
72.938330115241854
 31
0.0
  0
LINE
  5
7CD
  8
0
 10
141.5
 20
63.929648833698451
 30
0.0
 11
138.2242678916042
 21
72.938330115241854
 31
0.0
  0
ARC
  5
7CE
  8
0
 10
132.25
 20
-80.5
 30
0.0
 40
7.0
 50
148.5907685625896
 51
171.786778320644
  0
ARC
  5
7CF
  8
0
 10
132.25
 20
-80.5
 30
0.0
 40
7.0
 50
188.21319710421801
 51
231.78680121548049
  0
ARC
  5
7D0
  8
0
 10
132.25
 20
-80.5
 30
0.0
 40
7.0
 50
248.21321070173821
 51
291.78678929826168
  0
ARC
  5
7D1
  8
0
 10
132.25
 20
-80.5
 30
0.0
 40
7.0
 50
308.21319878451942
 51
351.78680289578199
  0
ARC
  5
7D2
  8
0
 10
132.25
 20
-80.5
 30
0.0
 40
7.0
 50
8.2132216793559571
 51
31.409231437409272
  0
LINE
  5
7D3
  8
0
 10
123.0
 20
-63.929648833698437
 30
0.0
 11
126.2757321083957
 21
-72.938330115241868
 31
0.0
  0
LINE
  5
7D4
  8
0
 10
138.2242678916042
 20
76.851969961835948
 30
0.0
 11
138.2242678916042
 21
-76.851969961835962
 31
0.0
  0
LINE
  5
7D5
  8
0
 10
141.5
 20
-63.929648833698451
 30
0.0
 11
138.2242678916042
 21
-72.938330115241868
 31
0.0
  0
LINE
  5
7D6
  8
0
 10
126.2757321083957
 20
71.442284397967001
 30
0.0
 11
138.2242678916042
 21
71.442284397967001
 31
0.0
  0
LINE
  5
7D7
  8
0
 10
126.2757321083957
 20
-71.442284397967015
 30
0.0
 11
138.2242678916042
 21
-71.442284397967015
 31
0.0
  0
VIEWPORT
  5
79
 67
     1
  8
0
 10
5.2499996395561617
 20
3.9999998836066761
 30
0.0
 40
15.015580297613511
 41
8.5939224089826052
 68
     1
 69
     1
1001
ACAD
1000
MVIEW
1002
{
1070
    16
1010
0.0
1020
0.0
1030
0.0
1010
0.0
1020
0.0
1030
1.0
1040
0.0
1040
8.5939224089826052
1040
5.2499996395561617
1040
3.9999998836066761
1040
50.0
1040
0.0
1040
0.0
1070
     0
1070
   100
1070
     1
1070
     1
1070
     0
1070
     0
1070
     0
1070
     0
1040
0.0
1040
0.0
1040
0.0
1040
10.0
1040
10.0
1040
10.0
1040
10.0
1070
     0
1002
{
1002
}
1002
}
1001
GENIUS_GENSCREG_15
1000
PF
1040
1.0
1000
DF
1040
1.0
1000
MIN
1011
-2.2577905092505972
1021
0.0000000037252903
1031
0.0
1021
-0.2969613208846251
1031
0.0
1000
MAX
1011
12.757789788362921
1021
0.0000000037252903
1031
0.0
1021
8.2969610880979801
1031
0.0
1000
FLAGS
1070
     4
1001
GENIUS_GENODEF_13
1002
{
1000
HIER
1070
     0
1002
}
1002
{
1000
MANEDIT
1070
     0
1002
}
1002
{
1000
NOSEL
1070
     0
1002
}
1002
{
1000
BEHIND
1070
     0
1002
}
1002
{
1000
OTHER
1070
     0
1002
}
1002
{
1000
REACTOR
1002
}
1001
GENIUS_GENOBJ-N-SDF_13
1002
{
1000
OWNER
1000
GEN
1002
}
  0
VIEWPORT
  5
7B
 67
     1
  8
0
 10
5.24999976158142
 20
3.99999976158142
 30
0.0
 40
8.3999996185302717
 41
6.3999996185302717
 68
     2
 69
     2
1001
ACAD
1000
MVIEW
1002
{
1070
    16
1010
0.0
1020
0.0
1030
0.0
1010
0.0
1020
0.0
1030
1.0
1040
0.0
1040
9.2590797717467002
1040
6.0
1040
4.5
1040
50.0
1040
0.0
1040
0.0
1070
     0
1070
   100
1070
     1
1070
     3
1070
     0
1070
     0
1070
     0
1070
     0
1040
0.0
1040
0.0
1040
0.0
1040
0.5
1040
0.5
1040
0.5
1040
0.5
1070
     0
1002
{
1002
}
1002
}
1001
GENIUS_GENSCREG_15
1000
PF
1040
0.0
1000
DF
1040
0.0
1000
MIN
1011
1.049999952316284
1021
0.0000000037252903
1031
0.0
1021
0.7999999523162842
1031
0.0
1000
MAX
1011
9.4499995708465558
1021
0.0000000037252903
1031
0.0
1021
7.1999995708465558
1031
0.0
1000
FLAGS
1070
     4
1001
GENIUS_GENODEF_13
1002
{
1000
HIER
1070
     0
1002
}
1002
{
1000
MANEDIT
1070
     0
1002
}
1002
{
1000
NOSEL
1070
     0
1002
}
1002
{
1000
BEHIND
1070
     0
1002
}
1002
{
1000
OTHER
1070
     0
1002
}
1002
{
1000
REACTOR
1002
}
1001
GENIUS_GENOBJ-N-SDF_13
1002
{
1000
OWNER
1000
GEN
1002
}
  0
ENDSEC
  0
EOF
