  0
SECTION
  2
HEADER
  9
$ACADVER
  1
AC1009
  9
$INSBASE
 10
0.0
 20
0.0
 30
0.0
  9
$EXTMIN
 10
-55.759478892277258
 20
-57.999999999999993
 30
0.0
  9
$EXTMAX
 10
105.25000023841891
 20
68.388511857306597
 30
0.0
  9
$LIMMIN
 10
0.0
 20
0.0
  9
$LIMMAX
 10
12.0
 20
9.0
  9
$ORTHOMODE
 70
     0
  9
$REGENMODE
 70
     1
  9
$FILLMODE
 70
     1
  9
$QTEXTMODE
 70
     0
  9
$MIRRTEXT
 70
     1
  9
$DRAGMODE
 70
     2
  9
$LTSCALE
 40
1.0
  9
$OSMODE
 70
    37
  9
$ATTMODE
 70
     1
  9
$TEXTSIZE
 40
0.2
  9
$TRACEWID
 40
0.05
  9
$TEXTSTYLE
  7
STANDARD
  9
$CLAYER
  8
0
  9
$CELTYPE
  6
BYLAYER
  9
$CECOLOR
 62
   256
  9
$DIMSCALE
 40
1.0
  9
$DIMASZ
 40
0.18
  9
$DIMEXO
 40
0.0625
  9
$DIMDLI
 40
0.38
  9
$DIMRND
 40
0.0
  9
$DIMDLE
 40
0.0
  9
$DIMEXE
 40
0.18
  9
$DIMTP
 40
0.0
  9
$DIMTM
 40
0.0
  9
$DIMTXT
 40
0.18
  9
$DIMCEN
 40
0.09
  9
$DIMTSZ
 40
0.0
  9
$DIMTOL
 70
     0
  9
$DIMLIM
 70
     0
  9
$DIMTIH
 70
     1
  9
$DIMTOH
 70
     1
  9
$DIMSE1
 70
     0
  9
$DIMSE2
 70
     0
  9
$DIMTAD
 70
     0
  9
$DIMZIN
 70
     0
  9
$DIMBLK
  1

  9
$DIMASO
 70
     1
  9
$DIMSHO
 70
     1
  9
$DIMPOST
  1

  9
$DIMAPOST
  1

  9
$DIMALT
 70
     0
  9
$DIMALTD
 70
     2
  9
$DIMALTF
 40
25.399999999999999
  9
$DIMLFAC
 40
1.0
  9
$DIMTOFL
 70
     0
  9
$DIMTVP
 40
0.0
  9
$DIMTIX
 70
     0
  9
$DIMSOXD
 70
     0
  9
$DIMSAH
 70
     0
  9
$DIMBLK1
  1

  9
$DIMBLK2
  1

  9
$DIMSTYLE
  2
STANDARD
  9
$DIMCLRD
 70
     0
  9
$DIMCLRE
 70
     0
  9
$DIMCLRT
 70
     0
  9
$DIMTFAC
 40
1.0
  9
$DIMGAP
 40
0.09
  9
$LUNITS
 70
     2
  9
$LUPREC
 70
     4
  9
$SKETCHINC
 40
0.1
  9
$FILLETRAD
 40
0.5
  9
$AUNITS
 70
     0
  9
$AUPREC
 70
     0
  9
$MENU
  1
.
  9
$ELEVATION
 40
0.0
  9
$PELEVATION
 40
0.0
  9
$THICKNESS
 40
0.0
  9
$LIMCHECK
 70
     0
  9
$BLIPMODE
 70
     0
  9
$CHAMFERA
 40
0.5
  9
$CHAMFERB
 40
0.5
  9
$SKPOLY
 70
     0
  9
$TDCREATE
 40
2451955.1727028699
  9
$TDUPDATE
 40
2454727.5614172802
  9
$TDINDWG
 40
0.0126135764
  9
$TDUSRTIMER
 40
0.0126134028
  9
$USRTIMER
 70
     1
  9
$ANGBASE
 50
0.0
  9
$ANGDIR
 70
     0
  9
$PDMODE
 70
     0
  9
$PDSIZE
 40
0.0
  9
$PLINEWID
 40
0.0
  9
$COORDS
 70
     1
  9
$SPLFRAME
 70
     0
  9
$SPLINETYPE
 70
     6
  9
$SPLINESEGS
 70
     8
  9
$ATTDIA
 70
     0
  9
$ATTREQ
 70
     1
  9
$HANDLING
 70
 22529
  9
$HANDSEED
  5
8F4
  9
$SURFTAB1
 70
     6
  9
$SURFTAB2
 70
     6
  9
$SURFTYPE
 70
     6
  9
$SURFU
 70
     6
  9
$SURFV
 70
     6
  9
$UCSNAME
  2

  9
$UCSORG
 10
0.0
 20
0.0
 30
0.0
  9
$UCSXDIR
 10
1.0
 20
0.0
 30
0.0
  9
$UCSYDIR
 10
0.0
 20
1.0
 30
0.0
  9
$PUCSNAME
  2

  9
$PUCSORG
 10
0.0
 20
0.0
 30
0.0
  9
$PUCSXDIR
 10
1.0
 20
0.0
 30
0.0
  9
$PUCSYDIR
 10
0.0
 20
1.0
 30
0.0
  9
$USERI1
 70
     0
  9
$USERI2
 70
     0
  9
$USERI3
 70
     0
  9
$USERI4
 70
     0
  9
$USERI5
 70
     0
  9
$USERR1
 40
0.0
  9
$USERR2
 40
0.0
  9
$USERR3
 40
0.0
  9
$USERR4
 40
0.0
  9
$USERR5
 40
0.0
  9
$WORLDVIEW
 70
     1
  9
$SHADEDGE
 70
     3
  9
$SHADEDIF
 70
    70
  9
$TILEMODE
 70
     1
  9
$MAXACTVP
 70
    48
  9
$PLIMCHECK
 70
     0
  9
$PEXTMIN
 10
1.049636599258096
 20
0.7996597240971113
 30
-0.0015258207003583
  9
$PEXTMAX
 10
9.4503627310769716
 20
7.2003400826974584
 30
0.0000000349246037
  9
$PLIMMIN
 10
-0.2500002402958907
 20
-0.2499999962453767
  9
$PLIMMAX
 10
10.74999951940821
 20
8.2499997634587316
  9
$UNITMODE
 70
     0
  9
$VISRETAIN
 70
     1
  9
$PLINEGEN
 70
     0
  9
$PSLTSCALE
 70
     1
  0
ENDSEC
  0
SECTION
  2
TABLES
  0
TABLE
  2
VPORT
 70
     2
  0
VPORT
  2
*ACTIVE
 70
     0
 10
0.0
 20
0.0
 11
1.0
 21
1.0
 12
24.745261047950208
 22
5.1942562229244942
 13
0.0
 23
0.0
 14
0.5
 24
0.5
 15
0.5
 25
0.5
 16
0.0
 26
0.0
 36
1.0
 17
0.0
 27
0.0
 37
0.0
 40
127.385131419117
 41
1.5031210986267161
 42
50.0
 43
0.0
 44
0.0
 50
0.0
 51
0.0
 71
     0
 72
   100
 73
     1
 74
     3
 75
     0
 76
     0
 77
     0
 78
     0
  0
ENDTAB
  0
TABLE
  2
LTYPE
 70
     2
  0
LTYPE
  2
CONTINUOUS
 70
     0
  3
Solid line
 72
    65
 73
     0
 40
0.0
  0
LTYPE
  2
CENTER
 70
     0
  3
__ . __
 72
    65
 73
     4
 40
7.0
 49
4.0
 49
-1.0
 49
1.0
 49
-1.0
  0
ENDTAB
  0
TABLE
  2
LAYER
 70
     1
  0
LAYER
  2
0
 70
     0
 62
     7
  6
CONTINUOUS
  0
ENDTAB
  0
TABLE
  2
STYLE
 70
     1
  0
STYLE
  2
STANDARD
 70
     0
 40
0.0
 41
1.0
 50
0.0
 71
     0
 42
0.2
  3
txt
  4

  0
ENDTAB
  0
TABLE
  2
VIEW
 70
     0
  0
ENDTAB
  0
TABLE
  2
UCS
 70
     0
  0
ENDTAB
  0
TABLE
  2
APPID
 70
    19
  0
APPID
  2
ACAD
 70
     0
  0
APPID
  2
GENIUS_GENODEF_13
 70
     0
  0
APPID
  2
ACAD_DSTYLE_DIMARC_LENGTH_
 70
     0
  0
APPID
  2
ACAD_DSTYLE_DIMJOGGED_JOGA
 70
     0
  0
APPID
  2
GENIUS_GENOBJ-N-FIL_13
 70
     0
  0
APPID
  2
ACAD_MLEADERVER
 70
     0
  0
APPID
  2
MCAD_NO_VIS
 70
     0
  0
APPID
  2
ACAD_TEMP_GRAPHIC
 70
     0
  0
APPID
  2
AD_DRAW
 70
     0
  0
APPID
  2
ACATTRIBSERVICES
 70
     0
  0
APPID
  2
DESIGNERASSEMBLIES
 70
     0
  0
APPID
  2
ACADM_DIM_EDIT
 70
     0
  0
APPID
  2
AMDT_DM_ADJ
 70
     0
  0
APPID
  2
GENIUS_GENSCREG_15
 70
     0
  0
APPID
  2
GENIUS_GENOBJ-N-SDF_13
 70
     0
  0
APPID
  2
ACAD_EXEMPT_FROM_CAD_STANDARDS
 70
     0
  0
APPID
  2
ACAD_DSTYLE_DIM_LINETYPE
 70
     0
  0
APPID
  2
ACAD_DSTYLE_DIM_EXT1_LINETYPE
 70
     0
  0
APPID
  2
ACAD_DSTYLE_DIM_EXT2_LINETYPE
 70
     0
  0
ENDTAB
  0
TABLE
  2
DIMSTYLE
 70
     1
  0
DIMSTYLE
  2
STANDARD
 70
     0
  3

  4

  5

  6

  7

 40
1.0
 41
0.18
 42
0.0625
 43
0.38
 44
0.18
 45
0.0
 46
0.0
 47
0.0
 48
0.0
140
0.18
141
0.09
142
0.0
143
25.399999999999999
144
1.0
145
0.0
146
1.0
147
0.09
 71
     0
 72
     0
 73
     1
 74
     1
 75
     0
 76
     0
 77
     0
 78
     0
170
     0
171
     2
172
     0
173
     0
174
     0
175
     0
176
     0
177
     0
178
     0
  0
ENDTAB
  0
ENDSEC
  0
SECTION
  2
BLOCKS
  0
BLOCK
  8
0
  2
$MODEL_SPACE
 70
     0
 10
0.0
 20
0.0
 30
0.0
  3
$MODEL_SPACE
  1

  0
ENDBLK
  5
21
  8
0
  0
BLOCK
 67
     1
  8
0
  2
$PAPER_SPACE
 70
     0
 10
0.0
 20
0.0
 30
0.0
  3
$PAPER_SPACE
  1

  0
ENDBLK
  5
60
 67
     1
  8
0
  0
ENDSEC
  0
SECTION
  2
ENTITIES
  0
TEXT
  5
10C
  8
0
 10
0.7892459962327987
 20
63.388511857306547
 30
0.0
 40
5.0
  1
13MVHM-LW 2S
  0
LINE
  5
7E7
  8
0
 10
2.999999999999992
 20
-55.0
 30
0.0
 11
3.0
 21
-28.844409999999979
 31
0.0
  0
LINE
  5
7E8
  8
0
 10
12.99999999999997
 20
-55.0
 30
0.0
 11
12.99999999999997
 21
-35.707141999999997
 31
0.0
  0
LINE
  5
7E9
  8
0
 10
-3.0000000000000071
 20
-55.0
 30
0.0
 11
-3.0
 21
-28.844409999999979
 31
0.0
  0
LINE
  5
7EA
  8
0
 10
-13.0
 20
-55.0
 30
0.0
 11
-13.0
 21
-35.707141999999997
 31
0.0
  0
LINE
  5
7EB
  8
0
 10
12.99999999999997
 20
55.0
 30
0.0
 11
12.99999999999997
 21
35.707141999999997
 31
0.0
  0
LINE
  5
7EC
  8
0
 10
3.0000000000000071
 20
55.0
 30
0.0
 11
3.0
 21
28.844409999999979
 31
0.0
  0
LINE
  5
7ED
  8
0
 10
-2.999999999999992
 20
55.0
 30
0.0
 11
-3.0
 21
28.844409999999979
 31
0.0
  0
LINE
  5
7EE
  8
0
 10
-12.999999999999989
 20
55.0
 30
0.0
 11
-13.0
 21
35.707141999999997
 31
0.0
  0
LINE
  5
7EF
  8
0
 10
12.99999999999997
 20
-55.0
 30
0.0
 11
2.999999999999992
 21
-55.0
 31
0.0
  0
LINE
  5
7F0
  8
0
 10
-13.0
 20
-55.0
 30
0.0
 11
-3.0000000000000071
 21
-55.0
 31
0.0
  0
LINE
  5
7F1
  8
0
 10
12.99999999999997
 20
55.0
 30
0.0
 11
3.0000000000000071
 21
55.0
 31
0.0
  0
LINE
  5
7F2
  8
0
 10
-12.999999999999989
 20
55.0
 30
0.0
 11
-2.999999999999992
 21
55.0
 31
0.0
  0
LINE
  5
7F3
  8
0
 10
-2.999999999999992
 20
52.0
 30
0.0
 11
3.0000000000000071
 21
52.0
 31
0.0
  0
LINE
  5
7F4
  8
0
 10
-2.999999999999992
 20
44.0
 30
0.0
 11
3.0000000000000071
 21
44.0
 31
0.0
  0
LINE
  5
7F5
  8
0
 10
-3.0000000000000071
 20
-52.0
 30
0.0
 11
2.999999999999992
 21
-52.0
 31
0.0
  0
LINE
  5
7F6
  8
0
 10
-3.0000000000000071
 20
-44.0
 30
0.0
 11
2.999999999999992
 21
-44.0
 31
0.0
  0
LINE
  5
7F7
  8
0
 10
-3.0000000000000071
 20
-48.0
 30
0.0
 11
2.999999999999992
 21
-48.0
 31
0.0
  0
LINE
  5
7F8
  8
0
 10
-26.999999999999989
 20
44.0
 30
0.0
 11
-21.499999999999989
 21
44.0
 31
0.0
  0
LINE
  5
7F9
  8
0
 10
-21.499999999999989
 20
43.0
 30
0.0
 11
-21.499999999999989
 21
53.0
 31
0.0
  0
LINE
  5
7FA
  8
0
 10
-26.999999999999989
 20
44.0
 30
0.0
 11
-26.999999999999989
 21
52.0
 31
0.0
  0
LINE
  5
7FB
  8
0
 10
-20.5
 20
42.0
 30
0.0
 11
-19.5
 21
42.0
 31
0.0
  0
LINE
  5
7FC
  8
0
 10
-20.499999999999989
 20
54.0
 30
0.0
 11
-19.499999999999989
 21
54.0
 31
0.0
  0
LINE
  5
7FD
  8
0
 10
-18.77510599999998
 20
48.0
 30
0.0
 11
-13.724894000000001
 21
48.0
 31
0.0
  0
LINE
  5
7FE
  8
0
 10
-19.499999999999989
 20
54.5
 30
0.0
 11
-19.5
 21
41.5
 31
0.0
  0
LINE
  5
7FF
  8
0
 10
-19.499999999999989
 20
54.5
 30
0.0
 11
-12.999999999999989
 21
54.5
 31
0.0
  0
LINE
  5
800
  8
0
 10
-19.5
 20
41.5
 30
0.0
 11
-12.999999999999989
 21
41.5
 31
0.0
  0
LINE
  5
801
  8
0
 10
-26.999999999999989
 20
52.0
 30
0.0
 11
-21.499999999999989
 21
52.0
 31
0.0
  0
LINE
  5
802
  8
0
  6
CENTER
 10
-28.651334999999978
 20
48.0
 30
0.0
 11
22.389212000000011
 21
48.0
 31
0.0
  0
LINE
  5
803
  8
0
 10
-27.000000000000011
 20
-44.0
 30
0.0
 11
-21.5
 21
-44.0
 31
0.0
  0
LINE
  5
804
  8
0
 10
-21.499999999999989
 20
-43.0
 30
0.0
 11
-21.5
 21
-53.0
 31
0.0
  0
LINE
  5
805
  8
0
 10
-27.000000000000011
 20
-44.0
 30
0.0
 11
-27.000000000000011
 21
-52.0
 31
0.0
  0
LINE
  5
806
  8
0
 10
-20.5
 20
-42.0
 30
0.0
 11
-19.5
 21
-42.0
 31
0.0
  0
LINE
  5
807
  8
0
 10
-20.5
 20
-54.0
 30
0.0
 11
-19.5
 21
-54.0
 31
0.0
  0
LINE
  5
808
  8
0
 10
-18.775106000000001
 20
-48.0
 30
0.0
 11
-13.72489400000001
 21
-48.0
 31
0.0
  0
LINE
  5
809
  8
0
 10
-19.5
 20
-54.5
 30
0.0
 11
-19.5
 21
-41.5
 31
0.0
  0
LINE
  5
80A
  8
0
 10
-19.5
 20
-54.5
 30
0.0
 11
-13.0
 21
-54.5
 31
0.0
  0
LINE
  5
80B
  8
0
 10
-19.5
 20
-41.5
 30
0.0
 11
-13.0
 21
-41.5
 31
0.0
  0
LINE
  5
80C
  8
0
 10
-27.000000000000011
 20
-52.0
 30
0.0
 11
-21.5
 21
-52.0
 31
0.0
  0
LINE
  5
80D
  8
0
  6
CENTER
 10
-28.651334999999989
 20
-48.0
 30
0.0
 11
21.827726000000009
 21
-48.0
 31
0.0
  0
LINE
  5
80E
  8
0
 10
17.775106000000019
 20
-48.0
 30
0.0
 11
12.99999999999997
 21
-48.0
 31
0.0
  0
LINE
  5
80F
  8
0
 10
18.499999999999972
 20
-44.75
 30
0.0
 11
18.499999999999972
 21
-51.25
 31
0.0
  0
LINE
  5
810
  8
0
 10
17.775106000000019
 20
-41.5
 30
0.0
 11
12.99999999999997
 21
-41.5
 31
0.0
  0
LINE
  5
811
  8
0
 10
17.775106000000019
 20
-54.5
 30
0.0
 11
12.99999999999997
 21
-54.5
 31
0.0
  0
LINE
  5
812
  8
0
 10
17.775106000000019
 20
48.0
 30
0.0
 11
12.99999999999997
 21
48.0
 31
0.0
  0
LINE
  5
813
  8
0
 10
18.499999999999972
 20
44.75
 30
0.0
 11
18.499999999999972
 21
51.25
 31
0.0
  0
LINE
  5
814
  8
0
 10
17.775106000000019
 20
41.5
 30
0.0
 11
12.99999999999997
 21
41.5
 31
0.0
  0
LINE
  5
815
  8
0
 10
17.775106000000019
 20
54.5
 30
0.0
 11
12.99999999999997
 21
54.5
 31
0.0
  0
ARC
  5
816
  8
0
 10
0.0
 20
0.0
 30
0.0
 40
38.0
 50
94.52806000000011
 51
265.47193500000031
  0
ARC
  5
817
  8
0
 10
0.0
 20
0.0
 30
0.0
 40
29.0
 50
95.937770000000285
 51
264.06222500000041
  0
ARC
  5
818
  8
0
 10
0.0
 20
0.0
 30
0.0
 40
31.0
 50
95.937770000000285
 51
264.06222500000041
  0
ARC
  5
819
  8
0
 10
0.0
 20
0.0
 30
0.0
 40
38.0
 50
274.52806299999952
 51
85.471936986191324
  0
ARC
  5
81A
  8
0
 10
0.0
 20
0.0
 30
0.0
 40
29.0
 50
275.93777299999948
 51
84.062219999999328
  0
ARC
  5
81B
  8
0
 10
0.0
 20
0.0
 30
0.0
 40
31.0
 50
275.93777299999948
 51
84.446555804341628
  0
ARC
  5
81C
  8
0
 10
-20.5
 20
43.0
 30
0.0
 40
1.0
 50
179.99999000000059
 51
269.99999599999921
  0
ARC
  5
81D
  8
0
 10
-20.499999999999989
 20
53.0
 30
0.0
 40
1.0
 50
90.0
 51
180.0000050089553
  0
ARC
  5
81E
  8
0
 10
-11.852004999999981
 20
51.25
 30
0.0
 40
7.647994999999999
 50
154.8526299999991
 51
205.14737500000061
  0
ARC
  5
81F
  8
0
 10
-11.852004999999981
 20
44.75
 30
0.0
 40
7.647994999999999
 50
154.8526299999991
 51
205.1473680000002
  0
ARC
  5
820
  8
0
 10
-20.647995000000002
 20
51.25
 30
0.0
 40
7.647994999999999
 50
334.85262999999969
 51
25.147370000000251
  0
ARC
  5
821
  8
0
 10
-20.647995000000002
 20
44.75
 30
0.0
 40
7.647994999999999
 50
334.85262999999969
 51
25.147370000000251
  0
ARC
  5
822
  8
0
 10
-20.5
 20
-43.0
 30
0.0
 40
1.0
 50
90.0
 51
180.00000500895689
  0
ARC
  5
823
  8
0
 10
-20.5
 20
-53.0
 30
0.0
 40
1.0
 50
179.99999000000059
 51
269.99999599999921
  0
ARC
  5
824
  8
0
 10
-11.852004999999989
 20
-51.25
 30
0.0
 40
7.647994999999999
 50
154.85262000000051
 51
205.14737200000079
  0
ARC
  5
825
  8
0
 10
-11.852004999999989
 20
-44.75
 30
0.0
 40
7.647994999999999
 50
154.8526299999991
 51
205.14737200000079
  0
ARC
  5
826
  8
0
 10
-20.647995000000009
 20
-51.25
 30
0.0
 40
7.647994999999999
 50
334.85262999999969
 51
25.147370000000251
  0
ARC
  5
827
  8
0
 10
-20.647995000000009
 20
-44.75
 30
0.0
 40
7.647994999999999
 50
334.85262999999969
 51
25.147370000000251
  0
ARC
  5
828
  8
0
 10
10.852004999999989
 20
-44.75
 30
0.0
 40
7.6479945000000011
 50
334.85262999999969
 51
25.147370000000251
  0
ARC
  5
829
  8
0
 10
10.852004999999989
 20
-51.25
 30
0.0
 40
7.6479945000000011
 50
334.85262999999969
 51
25.147370000000251
  0
ARC
  5
82A
  8
0
 10
10.852004999999989
 20
44.75
 30
0.0
 40
7.6479945000000011
 50
334.85262999999969
 51
25.147370000000251
  0
ARC
  5
82B
  8
0
 10
10.852004999999989
 20
51.25
 30
0.0
 40
7.6479945000000011
 50
334.85262999999969
 51
25.147370000000251
  0
LINE
  5
82C
  8
0
  6
CENTER
 10
0.0
 20
-55.759478892277258
 30
0.0
 11
0.0
 21
55.759478892277258
 31
0.0
  0
LINE
  5
82D
  8
0
  6
CENTER
 10
-55.759478892277258
 20
0.0
 30
0.0
 11
55.759478892277258
 21
0.0
 31
0.0
  0
LINE
  5
82E
  8
0
 10
91.497223838418904
 20
54.49999600000001
 30
0.0
 11
99.00277803841891
 21
54.49999600000001
 31
0.0
  0
LINE
  5
82F
  8
0
 10
99.002777238418929
 20
54.499999000000003
 30
0.0
 11
102.7555544384189
 21
47.999998000000012
 31
0.0
  0
LINE
  5
830
  8
0
 10
102.7555550384189
 20
47.999998000000012
 30
0.0
 11
99.002777938418916
 21
41.499997000000008
 31
0.0
  0
LINE
  5
831
  8
0
 10
99.00277803841891
 20
41.5
 30
0.0
 11
91.497223838418904
 21
41.5
 31
0.0
  0
LINE
  5
832
  8
0
 10
87.744445438418936
 20
47.999998000000012
 30
0.0
 11
91.497222538418924
 21
41.499997000000008
 31
0.0
  0
LINE
  5
833
  8
0
 10
91.49722323841894
 20
54.499999000000003
 30
0.0
 11
87.744446038418914
 21
47.999998000000012
 31
0.0
  0
LINE
  5
834
  8
0
 10
99.002776638418936
 20
-54.499995999999989
 30
0.0
 11
91.49722243841893
 21
-54.499995999999989
 31
0.0
  0
LINE
  5
835
  8
0
 10
91.497223238418897
 20
-54.499998999999988
 30
0.0
 11
87.744446038418914
 21
-47.999997999999998
 31
0.0
  0
LINE
  5
836
  8
0
 10
87.744445438418936
 20
-47.999997999999998
 30
0.0
 11
91.497222538418924
 21
-41.499997
 31
0.0
  0
LINE
  5
837
  8
0
 10
102.7555550384189
 20
-47.999997999999998
 30
0.0
 11
99.002777938418916
 21
-41.499997
 31
0.0
  0
LINE
  5
838
  8
0
 10
99.002777238418901
 20
-54.499998999999988
 30
0.0
 11
102.7555544384189
 21
-47.999997999999998
 31
0.0
  0
LINE
  5
839
  8
0
 10
91.49722243841893
 20
-41.499999999999993
 30
0.0
 11
99.002776638418936
 21
-41.499999999999993
 31
0.0
  0
LINE
  5
83A
  8
0
  6
CENTER
 10
85.25000023841892
 20
-47.999999999999993
 30
0.0
 11
105.25000023841891
 21
-47.999999999999993
 31
0.0
  0
LINE
  5
83B
  8
0
  6
CENTER
 10
95.250000476837499
 20
-57.999999999999993
 30
0.0
 11
95.250000476837499
 21
-37.999999999999993
 31
0.0
  0
LINE
  5
83C
  8
0
  6
CENTER
 10
85.25000023841892
 20
48.0
 30
0.0
 11
105.25000023841891
 21
48.0
 31
0.0
  0
LINE
  5
83D
  8
0
  6
CENTER
 10
85.25000023841892
 20
0.0000000000000071
 30
0.0
 11
105.25000023841891
 21
0.0000000000000071
 31
0.0
  0
LINE
  5
83E
  8
0
  6
CENTER
 10
95.25
 20
38.0
 30
0.0
 11
95.25
 21
58.0
 31
0.0
  0
LINE
  5
83F
  8
0
 10
88.0
 20
-30.854497241082949
 30
0.0
 11
88.0
 21
30.854497241082989
 31
0.0
  0
LINE
  5
840
  8
0
 10
102.4999999999999
 20
-30.854495955648918
 30
0.0
 11
102.5
 21
30.854495955648812
 31
0.0
  0
LINE
  5
841
  8
0
 10
90.547397427712497
 20
42.814874465865273
 30
0.0
 11
90.554407742264658
 21
-42.808525150782309
 31
0.0
  0
ARC
  5
842
  8
0
 10
95.25000023841892
 20
48.0
 30
0.0
 40
7.0
 50
312.20616791845208
 51
351.78674173944262
  0
ARC
  5
843
  8
0
 10
95.25000023841892
 20
48.0
 30
0.0
 40
7.0
 50
8.2132024012154314
 51
51.786795918482277
  0
ARC
  5
844
  8
0
 10
95.25000023841892
 20
48.0
 30
0.0
 40
7.0
 50
68.213122489284771
 51
111.7868775107152
  0
ARC
  5
845
  8
0
 10
95.25000023841892
 20
48.0
 30
0.0
 40
7.0
 50
128.21320408151681
 51
171.78679759878489
  0
ARC
  5
846
  8
0
 10
95.25000023841892
 20
48.0
 30
0.0
 40
7.0
 50
188.2132582605569
 51
227.793826812086
  0
LINE
  5
847
  8
0
 10
99.952602572252147
 20
42.814874033369478
 30
0.0
 11
99.945592257770514
 21
-42.808524719523191
 31
0.0
  0
LINE
  5
848
  8
0
 10
90.547801350601674
 20
37.881393849751618
 30
0.0
 11
88.0
 21
30.854497241082989
 31
0.0
  0
LINE
  5
849
  8
0
 10
99.952198643742719
 20
37.881393625533001
 30
0.0
 11
102.5
 21
30.854495955648812
 31
0.0
  0
LINE
  5
84A
  8
0
 10
90.547979364888079
 20
35.707142142714268
 30
0.0
 11
99.952020635111978
 21
35.707142142714268
 31
0.0
  0
ARC
  5
84B
  8
0
 10
95.25000023841892
 20
-47.999999999999993
 30
0.0
 40
7.0
 50
132.1287564307969
 51
171.78674173944299
  0
ARC
  5
84C
  8
0
 10
95.25000023841892
 20
-47.999999999999993
 30
0.0
 40
7.0
 50
188.213202401215
 51
231.78679591848291
  0
ARC
  5
84D
  8
0
 10
95.25000023841892
 20
-47.999999999999993
 30
0.0
 40
7.0
 50
248.2131224892847
 51
291.78687751071521
  0
ARC
  5
84E
  8
0
 10
95.25000023841892
 20
-47.999999999999993
 30
0.0
 40
7.0
 50
308.21320408151712
 51
351.78679759878491
  0
ARC
  5
84F
  8
0
 10
95.25000023841892
 20
-47.999999999999993
 30
0.0
 40
7.0
 50
8.2132582605573337
 51
47.871248831441733
  0
LINE
  5
850
  8
0
 10
90.547801350601674
 20
-37.881393849751611
 30
0.0
 11
88.0
 21
-30.854497241082949
 31
0.0
  0
LINE
  5
851
  8
0
 10
99.952198643742719
 20
-37.881393625532979
 30
0.0
 11
102.4999999999999
 21
-30.854495955648918
 31
0.0
  0
LINE
  5
852
  8
0
 10
90.547979364888079
 20
-35.707142142714247
 30
0.0
 11
99.952020635111978
 21
-35.707142142714247
 31
0.0
  0
VIEWPORT
  5
79
 67
     1
  8
0
 10
5.2499996395561617
 20
3.9999998836066761
 30
0.0
 40
15.015580297613511
 41
8.5939224089826052
 68
     1
 69
     1
1001
ACAD
1000
MVIEW
1002
{
1070
    16
1010
0.0
1020
0.0
1030
0.0
1010
0.0
1020
0.0
1030
1.0
1040
0.0
1040
8.5939224089826052
1040
5.2499996395561617
1040
3.9999998836066761
1040
50.0
1040
0.0
1040
0.0
1070
     0
1070
   100
1070
     1
1070
     1
1070
     0
1070
     0
1070
     0
1070
     0
1040
0.0
1040
0.0
1040
0.0
1040
10.0
1040
10.0
1040
10.0
1040
10.0
1070
     0
1002
{
1002
}
1002
}
1001
GENIUS_GENSCREG_15
1000
PF
1040
1.0
1000
DF
1040
1.0
1000
MIN
1011
-2.2577905092505972
1021
0.0
1031
0.0
1021
-0.2969613208846251
1031
0.0
1000
MAX
1011
12.757789788362921
1021
0.0
1031
0.0
1021
8.2969610880979801
1031
0.0
1000
FLAGS
1070
     4
1001
GENIUS_GENOBJ-N-SDF_13
1002
{
1000
OWNER
1000
GEN
1002
}
1001
GENIUS_GENODEF_13
1002
{
1000
HIER
1070
     0
1002
}
1002
{
1000
MANEDIT
1070
     0
1002
}
1002
{
1000
NOSEL
1070
     0
1002
}
1002
{
1000
BEHIND
1070
     0
1002
}
1002
{
1000
OTHER
1070
     0
1002
}
1002
{
1000
REACTOR
1002
}
  0
VIEWPORT
  5
7B
 67
     1
  8
0
 10
5.24999976158142
 20
3.99999976158142
 30
0.0
 40
8.3999996185302717
 41
6.3999996185302717
 68
     2
 69
     2
1001
ACAD
1000
MVIEW
1002
{
1070
    16
1010
0.0
1020
0.0
1030
0.0
1010
0.0
1020
0.0
1030
1.0
1040
0.0
1040
9.2590797717467002
1040
6.0
1040
4.5
1040
50.0
1040
0.0
1040
0.0
1070
     0
1070
   100
1070
     1
1070
     3
1070
     0
1070
     0
1070
     0
1070
     0
1040
0.0
1040
0.0
1040
0.0
1040
0.5
1040
0.5
1040
0.5
1040
0.5
1070
     0
1002
{
1002
}
1002
}
1001
GENIUS_GENSCREG_15
1000
PF
1040
0.0
1000
DF
1040
0.0
1000
MIN
1011
1.049999952316284
1021
0.0
1031
0.0
1021
0.7999999523162842
1031
0.0
1000
MAX
1011
9.4499995708465558
1021
0.0
1031
0.0
1021
7.1999995708465558
1031
0.0
1000
FLAGS
1070
     4
1001
GENIUS_GENODEF_13
1002
{
1000
HIER
1070
     0
1002
}
1002
{
1000
MANEDIT
1070
     0
1002
}
1002
{
1000
NOSEL
1070
     0
1002
}
1002
{
1000
BEHIND
1070
     0
1002
}
1002
{
1000
OTHER
1070
     0
1002
}
1002
{
1000
REACTOR
1002
}
1001
GENIUS_GENOBJ-N-SDF_13
1002
{
1000
OWNER
1000
GEN
1002
}
  0
ENDSEC
  0
EOF
