  0
SECTION
  2
HEADER
  9
$ACADVER
  1
AC1009
  9
$INSBASE
 10
0.0
 20
0.0
 30
0.0
  9
$EXTMIN
 10
-28.808715500000002
 20
-34.965958000000001
 30
0.0
  9
$EXTMAX
 10
102.4654399999999
 20
61.37215987448598
 30
0.0
  9
$LIMMIN
 10
0.0
 20
0.0
  9
$LIMMAX
 10
12.0
 20
9.0
  9
$ORTHOMODE
 70
     0
  9
$REGENMODE
 70
     1
  9
$FILLMODE
 70
     1
  9
$QTEXTMODE
 70
     0
  9
$MIRRTEXT
 70
     1
  9
$DRAGMODE
 70
     2
  9
$LTSCALE
 40
1.0
  9
$OSMODE
 70
    37
  9
$ATTMODE
 70
     1
  9
$TEXTSIZE
 40
0.2
  9
$TRACEWID
 40
0.05
  9
$TEXTSTYLE
  7
STANDARD
  9
$CLAYER
  8
0
  9
$CELTYPE
  6
BYLAYER
  9
$CECOLOR
 62
   256
  9
$DIMSCALE
 40
1.0
  9
$DIMASZ
 40
0.18
  9
$DIMEXO
 40
0.0625
  9
$DIMDLI
 40
0.38
  9
$DIMRND
 40
0.0
  9
$DIMDLE
 40
0.0
  9
$DIMEXE
 40
0.18
  9
$DIMTP
 40
0.0
  9
$DIMTM
 40
0.0
  9
$DIMTXT
 40
0.18
  9
$DIMCEN
 40
0.09
  9
$DIMTSZ
 40
0.0
  9
$DIMTOL
 70
     0
  9
$DIMLIM
 70
     0
  9
$DIMTIH
 70
     1
  9
$DIMTOH
 70
     1
  9
$DIMSE1
 70
     0
  9
$DIMSE2
 70
     0
  9
$DIMTAD
 70
     0
  9
$DIMZIN
 70
     0
  9
$DIMBLK
  1

  9
$DIMASO
 70
     1
  9
$DIMSHO
 70
     1
  9
$DIMPOST
  1

  9
$DIMAPOST
  1

  9
$DIMALT
 70
     0
  9
$DIMALTD
 70
     2
  9
$DIMALTF
 40
25.399999999999999
  9
$DIMLFAC
 40
1.0
  9
$DIMTOFL
 70
     0
  9
$DIMTVP
 40
0.0
  9
$DIMTIX
 70
     0
  9
$DIMSOXD
 70
     0
  9
$DIMSAH
 70
     0
  9
$DIMBLK1
  1

  9
$DIMBLK2
  1

  9
$DIMSTYLE
  2
STANDARD
  9
$DIMCLRD
 70
     0
  9
$DIMCLRE
 70
     0
  9
$DIMCLRT
 70
     0
  9
$DIMTFAC
 40
1.0
  9
$DIMGAP
 40
0.09
  9
$LUNITS
 70
     2
  9
$LUPREC
 70
     4
  9
$SKETCHINC
 40
0.1
  9
$FILLETRAD
 40
0.5
  9
$AUNITS
 70
     0
  9
$AUPREC
 70
     0
  9
$MENU
  1
.
  9
$ELEVATION
 40
0.0
  9
$PELEVATION
 40
0.0
  9
$THICKNESS
 40
0.0
  9
$LIMCHECK
 70
     0
  9
$BLIPMODE
 70
     0
  9
$CHAMFERA
 40
0.5
  9
$CHAMFERB
 40
0.5
  9
$SKPOLY
 70
     0
  9
$TDCREATE
 40
2451955.1727028699
  9
$TDUPDATE
 40
2454733.5714085991
  9
$TDINDWG
 40
0.0155900926
  9
$TDUSRTIMER
 40
0.015589919
  9
$USRTIMER
 70
     1
  9
$ANGBASE
 50
0.0
  9
$ANGDIR
 70
     0
  9
$PDMODE
 70
     0
  9
$PDSIZE
 40
0.0
  9
$PLINEWID
 40
0.0
  9
$COORDS
 70
     1
  9
$SPLFRAME
 70
     0
  9
$SPLINETYPE
 70
     6
  9
$SPLINESEGS
 70
     8
  9
$ATTDIA
 70
     0
  9
$ATTREQ
 70
     1
  9
$HANDLING
 70
 22529
  9
$HANDSEED
  5
B18
  9
$SURFTAB1
 70
     6
  9
$SURFTAB2
 70
     6
  9
$SURFTYPE
 70
     6
  9
$SURFU
 70
     6
  9
$SURFV
 70
     6
  9
$UCSNAME
  2

  9
$UCSORG
 10
0.0
 20
0.0
 30
0.0
  9
$UCSXDIR
 10
1.0
 20
0.0
 30
0.0
  9
$UCSYDIR
 10
0.0
 20
1.0
 30
0.0
  9
$PUCSNAME
  2

  9
$PUCSORG
 10
0.0
 20
0.0
 30
0.0
  9
$PUCSXDIR
 10
1.0
 20
0.0
 30
0.0
  9
$PUCSYDIR
 10
0.0
 20
1.0
 30
0.0
  9
$USERI1
 70
     0
  9
$USERI2
 70
     0
  9
$USERI3
 70
     0
  9
$USERI4
 70
     0
  9
$USERI5
 70
     0
  9
$USERR1
 40
0.0
  9
$USERR2
 40
0.0
  9
$USERR3
 40
0.0
  9
$USERR4
 40
0.0
  9
$USERR5
 40
0.0
  9
$WORLDVIEW
 70
     1
  9
$SHADEDGE
 70
     3
  9
$SHADEDIF
 70
    70
  9
$TILEMODE
 70
     1
  9
$MAXACTVP
 70
    48
  9
$PLIMCHECK
 70
     0
  9
$PEXTMIN
 10
1.049636599258096
 20
0.7996597240971113
 30
-0.0015258207003583
  9
$PEXTMAX
 10
9.4503627310769716
 20
7.2003400826974584
 30
0.0000000349246037
  9
$PLIMMIN
 10
-0.2500002402958907
 20
-0.2499999962453767
  9
$PLIMMAX
 10
10.74999951940821
 20
8.2499997634587316
  9
$UNITMODE
 70
     0
  9
$VISRETAIN
 70
     1
  9
$PLINEGEN
 70
     0
  9
$PSLTSCALE
 70
     1
  0
ENDSEC
  0
SECTION
  2
TABLES
  0
TABLE
  2
VPORT
 70
     2
  0
VPORT
  2
*ACTIVE
 70
     0
 10
0.0
 20
0.0
 11
1.0
 21
1.0
 12
36.82836255564645
 22
13.203101161547661
 13
0.0
 23
0.0
 14
0.5
 24
0.5
 15
0.5
 25
0.5
 16
0.0
 26
0.0
 36
1.0
 17
0.0
 27
0.0
 37
0.0
 40
97.078513753557985
 41
1.531806615776081
 42
50.0
 43
0.0
 44
0.0
 50
0.0
 51
0.0
 71
     0
 72
   100
 73
     1
 74
     3
 75
     0
 76
     0
 77
     0
 78
     0
  0
ENDTAB
  0
TABLE
  2
LTYPE
 70
     1
  0
LTYPE
  2
CONTINUOUS
 70
     0
  3
Solid line
 72
    65
 73
     0
 40
0.0
  0
ENDTAB
  0
TABLE
  2
LAYER
 70
     1
  0
LAYER
  2
0
 70
     0
 62
     7
  6
CONTINUOUS
  0
ENDTAB
  0
TABLE
  2
STYLE
 70
     1
  0
STYLE
  2
STANDARD
 70
     0
 40
0.0
 41
1.0
 50
0.0
 71
     0
 42
0.2
  3
txt
  4

  0
ENDTAB
  0
TABLE
  2
VIEW
 70
     0
  0
ENDTAB
  0
TABLE
  2
UCS
 70
     0
  0
ENDTAB
  0
TABLE
  2
APPID
 70
    19
  0
APPID
  2
ACAD
 70
     0
  0
APPID
  2
GENIUS_GENODEF_13
 70
     0
  0
APPID
  2
ACAD_DSTYLE_DIMARC_LENGTH_
 70
     0
  0
APPID
  2
ACAD_DSTYLE_DIMJOGGED_JOGA
 70
     0
  0
APPID
  2
GENIUS_GENOBJ-N-FIL_13
 70
     0
  0
APPID
  2
ACAD_MLEADERVER
 70
     0
  0
APPID
  2
MCAD_NO_VIS
 70
     0
  0
APPID
  2
ACAD_TEMP_GRAPHIC
 70
     0
  0
APPID
  2
AD_DRAW
 70
     0
  0
APPID
  2
ACATTRIBSERVICES
 70
     0
  0
APPID
  2
DESIGNERASSEMBLIES
 70
     0
  0
APPID
  2
ACADM_DIM_EDIT
 70
     0
  0
APPID
  2
AMDT_DM_ADJ
 70
     0
  0
APPID
  2
GENIUS_GENSCREG_15
 70
     0
  0
APPID
  2
GENIUS_GENOBJ-N-SDF_13
 70
     0
  0
APPID
  2
ACAD_EXEMPT_FROM_CAD_STANDARDS
 70
     0
  0
APPID
  2
ACAD_DSTYLE_DIM_LINETYPE
 70
     0
  0
APPID
  2
ACAD_DSTYLE_DIM_EXT1_LINETYPE
 70
     0
  0
APPID
  2
ACAD_DSTYLE_DIM_EXT2_LINETYPE
 70
     0
  0
ENDTAB
  0
TABLE
  2
DIMSTYLE
 70
     1
  0
DIMSTYLE
  2
STANDARD
 70
     0
  3

  4

  5

  6

  7

 40
1.0
 41
0.18
 42
0.0625
 43
0.38
 44
0.18
 45
0.0
 46
0.0
 47
0.0
 48
0.0
140
0.18
141
0.09
142
0.0
143
25.399999999999999
144
1.0
145
0.0
146
1.0
147
0.09
 71
     0
 72
     0
 73
     1
 74
     1
 75
     0
 76
     0
 77
     0
 78
     0
170
     0
171
     2
172
     0
173
     0
174
     0
175
     0
176
     0
177
     0
178
     0
  0
ENDTAB
  0
ENDSEC
  0
SECTION
  2
BLOCKS
  0
BLOCK
  8
0
  2
$MODEL_SPACE
 70
     0
 10
0.0
 20
0.0
 30
0.0
  3
$MODEL_SPACE
  1

  0
ENDBLK
  5
21
  8
0
  0
BLOCK
 67
     1
  8
0
  2
$PAPER_SPACE
 70
     0
 10
0.0
 20
0.0
 30
0.0
  3
$PAPER_SPACE
  1

  0
ENDBLK
  5
60
 67
     1
  8
0
  0
ENDSEC
  0
SECTION
  2
ENTITIES
  0
TEXT
  5
10C
  8
0
 10
0.7892459962327987
 20
56.37215987448598
 30
0.0
 40
5.0
  1
13MVHM-LW 8A-15A
  0
LINE
  5
983
  8
0
 10
0.0
 20
33.665570500000001
 30
0.0
 11
0.0
 21
-33.66557049999998
 31
0.0
  0
LINE
  5
984
  8
0
 10
28.808715500000002
 20
0.0000000000000142
 30
0.0
 11
-28.808715500000002
 21
0.0000000000000142
 31
0.0
  0
LINE
  5
985
  8
0
 10
12.49999999999997
 20
-15.896064999999989
 30
0.0
 11
12.49999999999997
 21
-32.273502800000003
 31
0.0
  0
LINE
  5
986
  8
0
 10
11.49999999999997
 20
-31.999999999999979
 30
0.0
 11
10.12667999999999
 21
-31.999999999999979
 31
0.0
  0
LINE
  5
987
  8
0
 10
9.2606499999999699
 20
-31.499999999999979
 30
0.0
 11
2.4999999999999711
 21
-19.790199999999999
 31
0.0
  0
LINE
  5
988
  8
0
 10
2.4999999999999711
 20
-19.790199999999999
 30
0.0
 11
2.4999999999999711
 21
-15.612496
 31
0.0
  0
LINE
  5
989
  8
0
 10
-2.5
 20
-19.790199999999999
 30
0.0
 11
-2.5
 21
-15.612496
 31
0.0
  0
LINE
  5
98A
  8
0
 10
-9.2606600000000014
 20
-31.500003
 30
0.0
 11
-2.5
 21
-19.790205999999991
 31
0.0
  0
LINE
  5
98B
  8
0
 10
-11.5
 20
-31.999999999999979
 30
0.0
 11
-10.126689999999989
 21
-31.999999999999979
 31
0.0
  0
LINE
  5
98C
  8
0
 10
-12.5
 20
-15.896064999999989
 30
0.0
 11
-12.5
 21
-32.273502800000003
 31
0.0
  0
LINE
  5
98D
  8
0
 10
20.475429999999982
 20
-26.5
 30
0.0
 11
-26.779280000000039
 21
-26.5
 31
0.0
  0
LINE
  5
98E
  8
0
 10
-22.5
 20
-29.499999999999979
 30
0.0
 11
-22.5
 21
-23.5
 31
0.0
  0
LINE
  5
98F
  8
0
 10
-20.5
 20
-23.5
 30
0.0
 11
-22.5
 21
-23.5
 31
0.0
  0
LINE
  5
990
  8
0
 10
-20.5
 20
-29.499999999999979
 30
0.0
 11
-22.5
 21
-29.499999999999979
 31
0.0
  0
LINE
  5
991
  8
0
 10
102.4654399999999
 20
0.0
 30
0.0
 11
71.896839999999969
 21
0.0
 31
0.0
  0
LINE
  5
992
  8
0
 10
84.333439999999953
 20
-19.306733000000001
 30
0.0
 11
82.333439999999968
 21
-15.612493999999989
 31
0.0
  0
LINE
  5
993
  8
0
 10
93.333439999999953
 20
-19.790196999999999
 30
0.0
 11
95.333439999999968
 21
-14.790198999999999
 31
0.0
  0
LINE
  5
994
  8
0
 10
91.333439999999968
 20
-19.30673199999999
 30
0.0
 11
93.333439999999953
 21
-15.612492
 31
0.0
  0
LINE
  5
995
  8
0
 10
95.873429999999956
 20
-26.5
 30
0.0
 11
79.793439999999975
 21
-26.5
 31
0.0
  0
LINE
  5
996
  8
0
 10
84.333439999999953
 20
-19.306733000000001
 30
0.0
 11
84.333439999999953
 21
19.306733000000001
 31
0.0
  0
LINE
  5
997
  8
0
 10
91.333439999999968
 20
-19.306733000000001
 30
0.0
 11
84.333439999999953
 21
-19.306733000000001
 31
0.0
  0
LINE
  5
998
  8
0
 10
82.333429999999964
 20
-19.790202999999991
 30
0.0
 11
80.333429999999964
 21
-14.790203999999999
 31
0.0
  0
LINE
  5
999
  8
0
 10
91.333439999999968
 20
-19.306733000000001
 30
0.0
 11
91.333439999999968
 21
19.306733000000001
 31
0.0
  0
LINE
  5
99A
  8
0
 10
93.333439999999953
 20
-26.5
 30
0.0
 11
93.333439999999953
 21
-15.612496
 31
0.0
  0
LINE
  5
99B
  8
0
 10
80.333439999999968
 20
-14.7902
 30
0.0
 11
80.333439999999968
 21
14.7902
 31
0.0
  0
LINE
  5
99C
  8
0
 10
82.333439999999968
 20
-26.5
 30
0.0
 11
82.333439999999968
 21
-15.612496
 31
0.0
  0
LINE
  5
99D
  8
0
 10
95.333439999999968
 20
-14.7902
 30
0.0
 11
95.333439999999968
 21
14.7902
 31
0.0
  0
LINE
  5
99E
  8
0
 10
87.833439999999968
 20
-34.965958000000001
 30
0.0
 11
87.833439999999968
 21
34.965958000000001
 31
0.0
  0
LINE
  5
99F
  8
0
 10
4.6418499999999758
 20
-23.5
 30
0.0
 11
-4.6418500000000327
 21
-23.5
 31
0.0
  0
LINE
  5
9A0
  8
0
 10
8.1059599999999818
 20
-29.499999999999979
 30
0.0
 11
-8.1059599999999818
 21
-29.499999999999979
 31
0.0
  0
ARC
  5
9A1
  8
0
 10
11.49999999999997
 20
-30.999999999999979
 30
0.0
 40
0.9999999999999998
 50
270.0
 51
0.0000100000001922
  0
ARC
  5
9A2
  8
0
 10
0.0
 20
0.0
 30
0.0
 40
19.999999999999989
 50
277.1807599999982
 51
308.68218000000041
  0
ARC
  5
9A3
  8
0
 10
10.12667999999999
 20
-30.999999999999979
 30
0.0
 40
0.9999999999999998
 50
210.0
 51
270.0
  0
ARC
  5
9A4
  8
0
 10
3.4999999999999711
 20
-15.612496
 30
0.0
 40
0.9999999999999998
 50
102.63562199999851
 51
180.0
  0
ARC
  5
9A5
  8
0
 10
-3.5
 20
-15.612496
 30
0.0
 40
0.9999999999999998
 50
359.9999899999998
 51
77.364369999999724
  0
ARC
  5
9A6
  8
0
 10
-10.126689999999989
 20
-30.999999999999979
 30
0.0
 40
0.9999999999999998
 50
270.0
 51
329.99999999999989
  0
ARC
  5
9A7
  8
0
 10
0.0
 20
0.0
 30
0.0
 40
19.999999999999989
 50
231.3178100000016
 51
262.81924999999973
  0
ARC
  5
9A8
  8
0
 10
-11.5
 20
-30.999999999999979
 30
0.0
 40
0.9999999999999998
 50
180.0
 51
270.0
  0
ARC
  5
9A9
  8
0
 10
87.833439999999968
 20
-26.5
 30
0.0
 40
5.4999999999999991
 50
335.38003000000077
 51
0.0000100000001922
  0
ARC
  5
9AA
  8
0
 10
87.833439999999968
 20
-26.5
 30
0.0
 40
5.4999999999999991
 50
275.38003000000123
 51
324.61997999999898
  0
ARC
  5
9AB
  8
0
 10
87.833439999999968
 20
-26.5
 30
0.0
 40
5.4999999999999991
 50
215.38002000000051
 51
264.61997999999988
  0
ARC
  5
9AC
  8
0
 10
87.833439999999968
 20
-26.5
 30
0.0
 40
5.4999999999999991
 50
180.0
 51
204.61997999999929
  0
LINE
  5
9B0
  8
0
 10
84.333439999999953
 20
19.306733000000001
 30
0.0
 11
82.333439999999968
 21
15.612493999999989
 31
0.0
  0
LINE
  5
9B1
  8
0
 10
93.333439999999953
 20
19.790196999999999
 30
0.0
 11
95.333439999999968
 21
14.790198999999999
 31
0.0
  0
LINE
  5
9B2
  8
0
 10
91.333439999999968
 20
19.30673199999999
 30
0.0
 11
93.333439999999953
 21
15.612492
 31
0.0
  0
LINE
  5
9B3
  8
0
 10
95.873429999999956
 20
26.5
 30
0.0
 11
79.793439999999975
 21
26.5
 31
0.0
  0
LINE
  5
9B4
  8
0
 10
91.333439999999968
 20
19.306733000000001
 30
0.0
 11
84.333439999999953
 21
19.306733000000001
 31
0.0
  0
LINE
  5
9B5
  8
0
 10
82.333429999999964
 20
19.790202999999991
 30
0.0
 11
80.333429999999964
 21
14.790203999999999
 31
0.0
  0
LINE
  5
9B6
  8
0
 10
93.333439999999953
 20
26.5
 30
0.0
 11
93.333439999999953
 21
15.612496
 31
0.0
  0
LINE
  5
9B7
  8
0
 10
82.333439999999968
 20
26.5
 30
0.0
 11
82.333439999999968
 21
15.612496
 31
0.0
  0
ARC
  5
9B8
  8
0
 10
87.833439999999968
 20
26.5
 30
0.0
 40
5.4999999999999991
 50
359.99999000000059
 51
24.619970000000599
  0
ARC
  5
9B9
  8
0
 10
87.833439999999968
 20
26.5
 30
0.0
 40
5.4999999999999991
 50
35.380020000000577
 51
84.619969999998716
  0
ARC
  5
9BA
  8
0
 10
87.833439999999968
 20
26.5
 30
0.0
 40
5.4999999999999991
 50
95.380020000000073
 51
144.6199799999994
  0
ARC
  5
9BB
  8
0
 10
87.833439999999968
 20
26.5
 30
0.0
 40
5.4999999999999991
 50
155.38001999999909
 51
180.0
  0
LINE
  5
9BD
  8
0
 10
12.49999999999997
 20
15.896065
 30
0.0
 11
12.49999999999997
 21
32.27350280000001
 31
0.0
  0
LINE
  5
9BE
  8
0
 10
11.49999999999997
 20
32.0
 30
0.0
 11
10.12667999999999
 21
32.0
 31
0.0
  0
LINE
  5
9BF
  8
0
 10
9.2606499999999699
 20
31.5
 30
0.0
 11
2.4999999999999711
 21
19.790200000000009
 31
0.0
  0
LINE
  5
9C0
  8
0
 10
2.4999999999999711
 20
19.790200000000009
 30
0.0
 11
2.4999999999999711
 21
15.61249600000002
 31
0.0
  0
LINE
  5
9C1
  8
0
 10
-2.5
 20
19.790200000000009
 30
0.0
 11
-2.5
 21
15.61249600000002
 31
0.0
  0
LINE
  5
9C2
  8
0
 10
-9.2606600000000014
 20
31.500003
 30
0.0
 11
-2.5
 21
19.790206000000008
 31
0.0
  0
LINE
  5
9C3
  8
0
 10
-11.5
 20
32.0
 30
0.0
 11
-10.126689999999989
 21
32.0
 31
0.0
  0
LINE
  5
9C4
  8
0
 10
-12.5
 20
15.896065
 30
0.0
 11
-12.5
 21
32.27350280000001
 31
0.0
  0
LINE
  5
9C5
  8
0
 10
20.475429999999982
 20
26.500000000000011
 30
0.0
 11
-26.779280000000039
 21
26.500000000000011
 31
0.0
  0
LINE
  5
9C6
  8
0
 10
-22.5
 20
29.5
 30
0.0
 11
-22.5
 21
23.500000000000011
 31
0.0
  0
LINE
  5
9C7
  8
0
 10
-20.5
 20
23.500000000000011
 30
0.0
 11
-22.5
 21
23.500000000000011
 31
0.0
  0
LINE
  5
9C8
  8
0
 10
-20.5
 20
29.5
 30
0.0
 11
-22.5
 21
29.5
 31
0.0
  0
LINE
  5
9C9
  8
0
 10
4.6418499999999758
 20
23.500000000000011
 30
0.0
 11
-4.6418500000000327
 21
23.500000000000011
 31
0.0
  0
LINE
  5
9CA
  8
0
 10
8.1059599999999818
 20
29.5
 30
0.0
 11
-8.1059599999999818
 21
29.5
 31
0.0
  0
ARC
  5
9CB
  8
0
 10
11.49999999999997
 20
31.0
 30
0.0
 40
0.9999999999999998
 50
359.99999000000059
 51
90.0
  0
ARC
  5
9CC
  8
0
 10
0.0
 20
0.0000000000000142
 30
0.0
 40
19.999999999999989
 50
51.317819999999557
 51
82.819240000001784
  0
ARC
  5
9CD
  8
0
 10
10.12667999999999
 20
31.0
 30
0.0
 40
0.9999999999999998
 50
90.0
 51
149.99999999999989
  0
ARC
  5
9CE
  8
0
 10
0.0
 20
0.0000000000000142
 30
0.0
 40
15.0
 50
282.63563000000022
 51
77.364369999999724
  0
ARC
  5
9CF
  8
0
 10
3.4999999999999711
 20
15.61249600000002
 30
0.0
 40
0.9999999999999998
 50
180.0
 51
257.36437800000152
  0
ARC
  5
9D0
  8
0
 10
0.0
 20
0.0000000000000142
 30
0.0
 40
22.999999999999989
 50
302.92072999999988
 51
57.07927000000015
  0
ARC
  5
9D1
  8
0
 10
0.0
 20
0.0000000000000142
 30
0.0
 40
22.999999999999989
 50
122.92072999999981
 51
237.07927000000009
  0
ARC
  5
9D2
  8
0
 10
-3.5
 20
15.61249600000002
 30
0.0
 40
0.9999999999999998
 50
282.63563000000022
 51
0.000009999999378
  0
ARC
  5
9D3
  8
0
 10
0.0
 20
0.0000000000000142
 30
0.0
 40
15.0
 50
102.6356199999972
 51
257.36438000000271
  0
ARC
  5
9D4
  8
0
 10
-10.126689999999989
 20
31.0
 30
0.0
 40
0.9999999999999998
 50
30.000000000000082
 51
90.0
  0
ARC
  5
9D5
  8
0
 10
0.0
 20
0.0000000000000142
 30
0.0
 40
19.999999999999989
 50
97.180750000000273
 51
128.68218999999829
  0
ARC
  5
9D6
  8
0
 10
-11.5
 20
31.0
 30
0.0
 40
0.9999999999999998
 50
90.0
 51
180.0
  0
ARC
  5
9D7
  8
0
 10
0.0
 20
0.0000000000000142
 30
0.0
 40
16.999999999999989
 50
278.45652000000018
 51
81.543479999999718
  0
ARC
  5
9D8
  8
0
 10
0.0
 20
0.0000000000000142
 30
0.0
 40
16.999999999999989
 50
98.456520000000296
 51
261.54347999999959
  0
LINE
  5
9E7
  8
0
 10
-20.5
 20
23.169872800000011
 30
0.0
 11
-20.5
 21
29.83012720000001
 31
0.0
  0
LINE
  5
9E8
  8
0
 10
-18.495683199999991
 20
29.386751400000009
 30
0.0
 11
-12.5
 21
29.386751400000009
 31
0.0
  0
LINE
  5
9E9
  8
0
 10
-18.495683199999998
 20
23.613248600000009
 30
0.0
 11
-12.5
 21
23.613248600000009
 31
0.0
  0
LINE
  5
9EA
  8
0
 10
-18.495683199999991
 20
32.27350280000001
 30
0.0
 11
-12.5
 21
32.27350280000001
 31
0.0
  0
LINE
  5
9EB
  8
0
 10
-18.524474600000001
 20
20.726497200000011
 30
0.0
 11
-12.5
 21
20.726497200000011
 31
0.0
  0
LINE
  5
9EC
  8
0
 10
-19.0
 20
22.169872800000011
 30
0.0
 11
-19.0
 21
30.83012720000001
 31
0.0
  0
LINE
  5
9ED
  8
0
 10
-19.0
 20
22.169872800000011
 30
0.0
 11
-19.5
 21
22.169872800000011
 31
0.0
  0
LINE
  5
9EE
  8
0
 10
-19.0
 20
30.83012720000001
 30
0.0
 11
-19.5
 21
30.83012720000001
 31
0.0
  0
ARC
  5
9F0
  8
0
 10
-16.571678200000001
 20
22.169872800000011
 30
0.0
 40
2.428322099999999
 50
143.53068599999989
 51
216.46932000000001
  0
ARC
  5
9F1
  8
0
 10
-16.571678200000001
 20
30.83012720000001
 30
0.0
 40
2.428322099999999
 50
143.53068599999989
 51
216.46932000000001
  0
ARC
  5
9F2
  8
0
 10
-10.0
 20
26.500000000000011
 30
0.0
 40
9.0
 50
161.29169999999991
 51
198.70830000000001
  0
ARC
  5
9F3
  8
0
 10
-19.5
 20
23.169872800000011
 30
0.0
 40
1.0
 50
180.0
 51
270.0
  0
ARC
  5
9F4
  8
0
 10
-19.5
 20
29.83012720000001
 30
0.0
 40
1.0
 50
89.999996999999965
 51
180.0
  0
LINE
  5
9F5
  8
0
 10
16.499999999999972
 20
30.83012720000001
 30
0.0
 11
16.499999999999972
 21
22.169872800000011
 31
0.0
  0
LINE
  5
9F6
  8
0
 10
15.99568319999997
 20
32.27350280000001
 30
0.0
 11
12.49999999999997
 21
32.27350280000001
 31
0.0
  0
LINE
  5
9F7
  8
0
 10
15.99568319999997
 20
20.726497200000011
 30
0.0
 11
12.49999999999997
 21
20.726497200000011
 31
0.0
  0
LINE
  5
9F8
  8
0
 10
15.99568319999997
 20
29.386751400000009
 30
0.0
 11
12.49999999999997
 21
29.386751400000009
 31
0.0
  0
LINE
  5
9F9
  8
0
 10
15.99568319999997
 20
23.613248600000009
 30
0.0
 11
12.49999999999997
 21
23.613248600000009
 31
0.0
  0
ARC
  5
9FB
  8
0
 10
14.182342099999969
 20
22.169872800000011
 30
0.0
 40
2.317657899999999
 50
321.48106000000001
 51
38.518947999999931
  0
ARC
  5
9FC
  8
0
 10
7.9858440999999711
 20
26.500000000000011
 30
0.0
 40
8.5141563000000016
 50
340.18079999999998
 51
19.81919800000006
  0
ARC
  5
9FD
  8
0
 10
14.182342099999969
 20
30.83012720000001
 30
0.0
 40
2.317657899999999
 50
321.48106000000001
 51
38.518947999999931
  0
LINE
  5
9FE
  8
0
 10
87.833439986502853
 20
20.726497299999991
 30
0.0
 11
92.833440099999962
 21
23.6132487
 31
0.0
  0
LINE
  5
9FF
  8
0
 10
92.833439999999968
 20
23.613248599999991
 30
0.0
 11
92.833439999999968
 21
29.386751399999991
 31
0.0
  0
LINE
  5
A00
  8
0
 10
87.833439986502853
 20
32.273502700000002
 30
0.0
 11
92.833440099999962
 21
29.3867513
 31
0.0
  0
LINE
  5
A01
  8
0
 10
82.833439899999959
 20
29.3867513
 30
0.0
 11
87.833440013497096
 21
32.273502700000002
 31
0.0
  0
LINE
  5
A02
  8
0
 10
82.833439999999968
 20
23.613248599999999
 30
0.0
 11
82.833439999999968
 21
29.386751400000001
 31
0.0
  0
LINE
  5
A03
  8
0
 10
87.833440013497096
 20
20.726497299999991
 30
0.0
 11
82.833439899999959
 21
23.6132487
 31
0.0
  0
LINE
  5
A05
  8
0
 10
87.833439986502853
 20
-20.726497299999991
 30
0.0
 11
92.833440099999962
 21
-23.6132487
 31
0.0
  0
LINE
  5
A06
  8
0
 10
92.833439999999968
 20
-23.613248599999991
 30
0.0
 11
92.833439999999968
 21
-29.386751400000001
 31
0.0
  0
LINE
  5
A07
  8
0
 10
87.833439986502853
 20
-32.273502700000002
 30
0.0
 11
92.833440099999962
 21
-29.3867513
 31
0.0
  0
LINE
  5
A08
  8
0
 10
82.833439899999959
 20
-29.3867513
 30
0.0
 11
87.833440013497096
 21
-32.273502700000002
 31
0.0
  0
LINE
  5
A09
  8
0
 10
82.833439999999968
 20
-23.613248599999991
 30
0.0
 11
82.833439999999968
 21
-29.386751400000001
 31
0.0
  0
LINE
  5
A0A
  8
0
 10
87.833440013497096
 20
-20.726497299999991
 30
0.0
 11
82.833439899999959
 21
-23.6132487
 31
0.0
  0
LINE
  5
A0C
  8
0
 10
16.499999999999972
 20
-30.8301272
 30
0.0
 11
16.499999999999972
 21
-22.1698728
 31
0.0
  0
LINE
  5
A0D
  8
0
 10
15.99568319999997
 20
-32.273502800000003
 30
0.0
 11
12.49999999999997
 21
-32.273502800000003
 31
0.0
  0
LINE
  5
A0E
  8
0
 10
15.99568319999997
 20
-20.726497200000001
 30
0.0
 11
12.49999999999997
 21
-20.726497200000001
 31
0.0
  0
LINE
  5
A0F
  8
0
 10
15.99568319999997
 20
-29.386751400000001
 30
0.0
 11
12.49999999999997
 21
-29.386751400000001
 31
0.0
  0
LINE
  5
A10
  8
0
 10
15.99568319999997
 20
-23.613248599999999
 30
0.0
 11
12.49999999999997
 21
-23.613248599999991
 31
0.0
  0
ARC
  5
A12
  8
0
 10
14.182342099999969
 20
-22.1698728
 30
0.0
 40
2.317657899999999
 50
321.48105199999981
 51
38.518939999999951
  0
ARC
  5
A13
  8
0
 10
7.9858440999999711
 20
-26.5
 30
0.0
 40
8.5141563000000016
 50
340.18080199999991
 51
19.81919999999997
  0
ARC
  5
A14
  8
0
 10
14.182342099999969
 20
-30.8301272
 30
0.0
 40
2.317657899999999
 50
321.48105199999981
 51
38.518939999999951
  0
LINE
  5
A20
  8
0
 10
-20.5
 20
-23.1698728
 30
0.0
 11
-20.5
 21
-29.830127199999989
 31
0.0
  0
LINE
  5
A21
  8
0
 10
-18.495683199999998
 20
-29.386751400000001
 30
0.0
 11
-12.5
 21
-29.386751400000001
 31
0.0
  0
LINE
  5
A22
  8
0
 10
-18.495683199999998
 20
-23.613248599999991
 30
0.0
 11
-12.5
 21
-23.613248599999991
 31
0.0
  0
LINE
  5
A23
  8
0
 10
-18.495683199999998
 20
-32.273502800000003
 30
0.0
 11
-12.5
 21
-32.273502800000003
 31
0.0
  0
LINE
  5
A24
  8
0
 10
-18.524474599999991
 20
-20.726497200000001
 30
0.0
 11
-12.5
 21
-20.726497200000001
 31
0.0
  0
LINE
  5
A25
  8
0
 10
-19.0
 20
-22.1698728
 30
0.0
 11
-19.0
 21
-30.8301272
 31
0.0
  0
LINE
  5
A26
  8
0
 10
-19.0
 20
-22.1698728
 30
0.0
 11
-19.5
 21
-22.1698728
 31
0.0
  0
LINE
  5
A27
  8
0
 10
-19.0
 20
-30.8301272
 30
0.0
 11
-19.5
 21
-30.8301272
 31
0.0
  0
ARC
  5
A29
  8
0
 10
-16.571678200000001
 20
-22.1698728
 30
0.0
 40
2.428322099999999
 50
143.5306799999999
 51
216.469314
  0
ARC
  5
A2A
  8
0
 10
-16.571678200000001
 20
-30.8301272
 30
0.0
 40
2.428322099999999
 50
143.5306799999999
 51
216.469314
  0
ARC
  5
A2B
  8
0
 10
-10.0
 20
-26.5
 30
0.0
 40
9.0
 50
161.29169999999991
 51
198.70830000000001
  0
ARC
  5
A2C
  8
0
 10
-19.5
 20
-23.1698728
 30
0.0
 40
1.0
 50
90.0
 51
180.0
  0
ARC
  5
A2D
  8
0
 10
-19.5
 20
-29.830127199999989
 30
0.0
 40
1.0
 50
180.0
 51
270.00000299999999
  0
CIRCLE
  5
A2E
  8
0
 10
87.833439999999968
 20
-26.5
 30
0.0
 40
5.0
  0
CIRCLE
  5
A2F
  8
0
 10
87.833439999999968
 20
26.5
 30
0.0
 40
5.0
  0
VIEWPORT
  5
79
 67
     1
  8
0
 10
5.2499996395561617
 20
3.9999998836066761
 30
0.0
 40
15.015580297613511
 41
8.5939224089826052
 68
     1
 69
     1
1001
ACAD
1000
MVIEW
1002
{
1070
    16
1010
0.0
1020
0.0
1030
0.0
1010
0.0
1020
0.0
1030
1.0
1040
0.0
1040
8.5939224089826052
1040
5.2499996395561617
1040
3.9999998836066761
1040
50.0
1040
0.0
1040
0.0
1070
     0
1070
   100
1070
     1
1070
     1
1070
     0
1070
     0
1070
     0
1070
     0
1040
0.0
1040
0.0
1040
0.0
1040
10.0
1040
10.0
1040
10.0
1040
10.0
1070
     0
1002
{
1002
}
1002
}
1001
GENIUS_GENODEF_13
1002
{
1000
HIER
1070
     0
1002
}
1002
{
1000
MANEDIT
1070
     0
1002
}
1002
{
1000
NOSEL
1070
     0
1002
}
1002
{
1000
BEHIND
1070
     0
1002
}
1002
{
1000
OTHER
1070
     0
1002
}
1002
{
1000
REACTOR
1002
}
1001
GENIUS_GENOBJ-N-SDF_13
1002
{
1000
OWNER
1000
GEN
1002
}
1001
GENIUS_GENSCREG_15
1000
PF
1040
1.0
1000
DF
1040
1.0
1000
MIN
1011
-2.2577905092505972
1021
0.0
1031
0.0
1021
-0.2969613208846251
1031
0.0
1000
MAX
1011
12.757789788362921
1021
0.0
1031
0.0
1021
8.2969610880979801
1031
0.0
1000
FLAGS
1070
     4
  0
VIEWPORT
  5
7B
 67
     1
  8
0
 10
5.24999976158142
 20
3.99999976158142
 30
0.0
 40
8.3999996185302717
 41
6.3999996185302717
 68
     2
 69
     2
1001
ACAD
1000
MVIEW
1002
{
1070
    16
1010
0.0
1020
0.0
1030
0.0
1010
0.0
1020
0.0
1030
1.0
1040
0.0
1040
9.2590797717467002
1040
6.0
1040
4.5
1040
50.0
1040
0.0
1040
0.0
1070
     0
1070
   100
1070
     1
1070
     3
1070
     0
1070
     0
1070
     0
1070
     0
1040
0.0
1040
0.0
1040
0.0
1040
0.5
1040
0.5
1040
0.5
1040
0.5
1070
     0
1002
{
1002
}
1002
}
1001
GENIUS_GENODEF_13
1002
{
1000
HIER
1070
     0
1002
}
1002
{
1000
MANEDIT
1070
     0
1002
}
1002
{
1000
NOSEL
1070
     0
1002
}
1002
{
1000
BEHIND
1070
     0
1002
}
1002
{
1000
OTHER
1070
     0
1002
}
1002
{
1000
REACTOR
1002
}
1001
GENIUS_GENOBJ-N-SDF_13
1002
{
1000
OWNER
1000
GEN
1002
}
1001
GENIUS_GENSCREG_15
1000
PF
1040
0.0
1000
DF
1040
0.0
1000
MIN
1011
1.049999952316284
1021
0.0
1031
0.0
1021
0.7999999523162842
1031
0.0
1000
MAX
1011
9.4499995708465558
1021
0.0
1031
0.0
1021
7.1999995708465558
1031
0.0
1000
FLAGS
1070
     4
  0
ENDSEC
  0
EOF
