  0
SECTION
  2
HEADER
  9
$ACADVER
  1
AC1009
  9
$INSBASE
 10
0.0
 20
0.0
 30
0.0
  9
$EXTMIN
 10
-59.598495000000007
 20
-53.613056499999999
 30
0.0
  9
$EXTMAX
 10
151.6182891688224
 20
82.344016916450059
 30
0.0
  9
$LIMMIN
 10
0.0
 20
0.0
  9
$LIMMAX
 10
12.0
 20
9.0
  9
$ORTHOMODE
 70
     0
  9
$REGENMODE
 70
     1
  9
$FILLMODE
 70
     1
  9
$QTEXTMODE
 70
     0
  9
$MIRRTEXT
 70
     1
  9
$DRAGMODE
 70
     2
  9
$LTSCALE
 40
1.0
  9
$OSMODE
 70
    37
  9
$ATTMODE
 70
     1
  9
$TEXTSIZE
 40
0.2
  9
$TRACEWID
 40
0.05
  9
$TEXTSTYLE
  7
STANDARD
  9
$CLAYER
  8
0
  9
$CELTYPE
  6
BYLAYER
  9
$CECOLOR
 62
   256
  9
$DIMSCALE
 40
1.0
  9
$DIMASZ
 40
0.18
  9
$DIMEXO
 40
0.0625
  9
$DIMDLI
 40
0.38
  9
$DIMRND
 40
0.0
  9
$DIMDLE
 40
0.0
  9
$DIMEXE
 40
0.18
  9
$DIMTP
 40
0.0
  9
$DIMTM
 40
0.0
  9
$DIMTXT
 40
0.18
  9
$DIMCEN
 40
0.09
  9
$DIMTSZ
 40
0.0
  9
$DIMTOL
 70
     0
  9
$DIMLIM
 70
     0
  9
$DIMTIH
 70
     1
  9
$DIMTOH
 70
     1
  9
$DIMSE1
 70
     0
  9
$DIMSE2
 70
     0
  9
$DIMTAD
 70
     0
  9
$DIMZIN
 70
     0
  9
$DIMBLK
  1

  9
$DIMASO
 70
     1
  9
$DIMSHO
 70
     1
  9
$DIMPOST
  1

  9
$DIMAPOST
  1

  9
$DIMALT
 70
     0
  9
$DIMALTD
 70
     2
  9
$DIMALTF
 40
25.399999999999999
  9
$DIMLFAC
 40
1.0
  9
$DIMTOFL
 70
     0
  9
$DIMTVP
 40
0.0
  9
$DIMTIX
 70
     0
  9
$DIMSOXD
 70
     0
  9
$DIMSAH
 70
     0
  9
$DIMBLK1
  1

  9
$DIMBLK2
  1

  9
$DIMSTYLE
  2
STANDARD
  9
$DIMCLRD
 70
     0
  9
$DIMCLRE
 70
     0
  9
$DIMCLRT
 70
     0
  9
$DIMTFAC
 40
1.0
  9
$DIMGAP
 40
0.09
  9
$LUNITS
 70
     2
  9
$LUPREC
 70
     4
  9
$SKETCHINC
 40
0.1
  9
$FILLETRAD
 40
0.0
  9
$AUNITS
 70
     0
  9
$AUPREC
 70
     0
  9
$MENU
  1
.
  9
$ELEVATION
 40
0.0
  9
$PELEVATION
 40
0.0
  9
$THICKNESS
 40
0.0
  9
$LIMCHECK
 70
     0
  9
$BLIPMODE
 70
     0
  9
$CHAMFERA
 40
0.5
  9
$CHAMFERB
 40
0.5
  9
$SKPOLY
 70
     0
  9
$TDCREATE
 40
2451955.1727028699
  9
$TDUPDATE
 40
2454737.3996440968
  9
$TDINDWG
 40
0.1619999421
  9
$TDUSRTIMER
 40
0.1619997685
  9
$USRTIMER
 70
     1
  9
$ANGBASE
 50
0.0
  9
$ANGDIR
 70
     0
  9
$PDMODE
 70
     0
  9
$PDSIZE
 40
0.0
  9
$PLINEWID
 40
0.0
  9
$COORDS
 70
     1
  9
$SPLFRAME
 70
     0
  9
$SPLINETYPE
 70
     6
  9
$SPLINESEGS
 70
     8
  9
$ATTDIA
 70
     0
  9
$ATTREQ
 70
     1
  9
$HANDLING
 70
 22529
  9
$HANDSEED
  5
3AAA
  9
$SURFTAB1
 70
     6
  9
$SURFTAB2
 70
     6
  9
$SURFTYPE
 70
     6
  9
$SURFU
 70
     6
  9
$SURFV
 70
     6
  9
$UCSNAME
  2

  9
$UCSORG
 10
0.0
 20
0.0
 30
0.0
  9
$UCSXDIR
 10
1.0
 20
0.0
 30
0.0
  9
$UCSYDIR
 10
0.0
 20
1.0
 30
0.0
  9
$PUCSNAME
  2

  9
$PUCSORG
 10
0.0
 20
0.0
 30
0.0
  9
$PUCSXDIR
 10
1.0
 20
0.0
 30
0.0
  9
$PUCSYDIR
 10
0.0
 20
1.0
 30
0.0
  9
$USERI1
 70
     0
  9
$USERI2
 70
     0
  9
$USERI3
 70
     0
  9
$USERI4
 70
     0
  9
$USERI5
 70
     0
  9
$USERR1
 40
0.0
  9
$USERR2
 40
0.0
  9
$USERR3
 40
0.0
  9
$USERR4
 40
0.0
  9
$USERR5
 40
0.0
  9
$WORLDVIEW
 70
     1
  9
$SHADEDGE
 70
     3
  9
$SHADEDIF
 70
    70
  9
$TILEMODE
 70
     1
  9
$MAXACTVP
 70
    48
  9
$PLIMCHECK
 70
     0
  9
$PEXTMIN
 10
1.049636599258096
 20
0.7996597240971113
 30
-0.0015258207003583
  9
$PEXTMAX
 10
9.4503627310769716
 20
7.2003400826974584
 30
0.0000000349246037
  9
$PLIMMIN
 10
-0.2500002402958907
 20
-0.2499999962453767
  9
$PLIMMAX
 10
10.74999951940821
 20
8.2499997634587316
  9
$UNITMODE
 70
     0
  9
$VISRETAIN
 70
     1
  9
$PLINEGEN
 70
     0
  9
$PSLTSCALE
 70
     1
  0
ENDSEC
  0
SECTION
  2
TABLES
  0
TABLE
  2
VPORT
 70
     2
  0
VPORT
  2
*ACTIVE
 70
     0
 10
0.0
 20
0.0
 11
1.0
 21
1.0
 12
46.006907549653789
 22
14.3614896934805
 13
0.0
 23
0.0
 14
0.5
 24
0.5
 15
0.5
 25
0.5
 16
0.0
 26
0.0
 36
1.0
 17
0.0
 27
0.0
 37
0.0
 40
138.67014356926529
 41
1.531806615776081
 42
50.0
 43
0.0
 44
0.0
 50
0.0
 51
0.0
 71
     0
 72
   100
 73
     1
 74
     3
 75
     0
 76
     0
 77
     0
 78
     0
  0
ENDTAB
  0
TABLE
  2
LTYPE
 70
     2
  0
LTYPE
  2
CONTINUOUS
 70
     0
  3
Solid line
 72
    65
 73
     0
 40
0.0
  0
LTYPE
  2
CENTER
 70
     0
  3
__ . __
 72
    65
 73
     4
 40
7.0
 49
4.0
 49
-1.0
 49
1.0
 49
-1.0
  0
ENDTAB
  0
TABLE
  2
LAYER
 70
     1
  0
LAYER
  2
0
 70
     0
 62
     7
  6
CONTINUOUS
  0
ENDTAB
  0
TABLE
  2
STYLE
 70
     1
  0
STYLE
  2
STANDARD
 70
     0
 40
0.0
 41
1.0
 50
0.0
 71
     0
 42
0.2
  3
txt
  4

  0
ENDTAB
  0
TABLE
  2
VIEW
 70
     0
  0
ENDTAB
  0
TABLE
  2
UCS
 70
     0
  0
ENDTAB
  0
TABLE
  2
APPID
 70
    20
  0
APPID
  2
ACAD
 70
     0
  0
APPID
  2
GENIUS_GENODEF_13
 70
     0
  0
APPID
  2
ACAD_DSTYLE_DIMARC_LENGTH_
 70
     0
  0
APPID
  2
ACAD_DSTYLE_DIMJOGGED_JOGA
 70
     0
  0
APPID
  2
GENIUS_GENOBJ-N-FIL_13
 70
     0
  0
APPID
  2
ACAD_MLEADERVER
 70
     0
  0
APPID
  2
MCAD_NO_VIS
 70
     0
  0
APPID
  2
ACAD_TEMP_GRAPHIC
 70
     0
  0
APPID
  2
AD_DRAW
 70
     0
  0
APPID
  2
ACATTRIBSERVICES
 70
     0
  0
APPID
  2
DESIGNERASSEMBLIES
 70
     0
  0
APPID
  2
ACADM_DIM_EDIT
 70
     0
  0
APPID
  2
AMDT_DM_ADJ
 70
     0
  0
APPID
  2
GENIUS_GENSCREG_15
 70
     0
  0
APPID
  2
GENIUS_GENOBJ-N-SDF_13
 70
     0
  0
APPID
  2
ACAD_DSTYLE_DIM_LINETYPE
 70
     0
  0
APPID
  2
ACAD_DSTYLE_DIM_EXT1_LINETYPE
 70
     0
  0
APPID
  2
ACAD_DSTYLE_DIM_EXT2_LINETYPE
 70
     0
  0
APPID
  2
ACAD_EXEMPT_FROM_CAD_STANDARDS
 70
     0
  0
APPID
  2
ACAD_DSTYLE_DIMRADIAL_EXTENSION
 70
     0
  0
ENDTAB
  0
TABLE
  2
DIMSTYLE
 70
     1
  0
DIMSTYLE
  2
STANDARD
 70
     0
  3

  4

  5

  6

  7

 40
1.0
 41
0.18
 42
0.0625
 43
0.38
 44
0.18
 45
0.0
 46
0.0
 47
0.0
 48
0.0
140
0.18
141
0.09
142
0.0
143
25.399999999999999
144
1.0
145
0.0
146
1.0
147
0.09
 71
     0
 72
     0
 73
     1
 74
     1
 75
     0
 76
     0
 77
     0
 78
     0
170
     0
171
     2
172
     0
173
     0
174
     0
175
     0
176
     0
177
     0
178
     0
  0
ENDTAB
  0
ENDSEC
  0
SECTION
  2
BLOCKS
  0
BLOCK
  8
0
  2
$MODEL_SPACE
 70
     0
 10
0.0
 20
0.0
 30
0.0
  3
$MODEL_SPACE
  1

  0
ENDBLK
  5
21
  8
0
  0
BLOCK
 67
     1
  8
0
  2
$PAPER_SPACE
 70
     0
 10
0.0
 20
0.0
 30
0.0
  3
$PAPER_SPACE
  1

  0
ENDBLK
  5
60
 67
     1
  8
0
  0
ENDSEC
  0
SECTION
  2
ENTITIES
  0
TEXT
  5
2C9C
  8
0
 10
39.206886209773977
 20
77.344016916450016
 30
0.0
 40
5.0
  1
13MHHM-LW 2.5S
  0
LINE
  5
2F9B
  8
0
  6
CENTER
 62
     7
 10
-59.598495000000007
 20
0.0
 30
0.0
 11
59.598494999999978
 21
0.0
 31
0.0
  0
LINE
  5
2F9C
  8
0
  6
CENTER
 62
     7
 10
-0.0000000000000568
 20
53.61305650000002
 30
0.0
 11
-0.0000000000000568
 21
-53.613056499999999
 31
0.0
  0
LINE
  5
2F9E
  8
0
  6
CONTINUOUS
 62
     7
 10
38.112489999999923
 20
-4.0
 30
0.0
 11
59.499999999999972
 21
-4.0
 31
0.0
  0
LINE
  5
2F9F
  8
0
  6
CONTINUOUS
 62
     7
 10
46.379549999999973
 20
-15.0
 30
0.0
 11
59.499999999999972
 21
-15.0
 31
0.0
  0
LINE
  5
2FA0
  8
0
  6
CENTER
 62
     7
 10
-47.00000000000005
 20
-15.738329999999991
 30
0.0
 11
-47.00000000000005
 21
15.738329999999991
 31
0.0
  0
LINE
  5
2FA1
  8
0
  6
CONTINUOUS
 62
     7
 10
38.560670000000009
 20
51.999999999999943
 30
0.0
 11
66.439329999999956
 21
51.999999999999943
 31
0.0
  0
LINE
  5
2FA2
  8
0
  6
CONTINUOUS
 62
     7
 10
59.499999999999972
 20
14.99999999999997
 30
0.0
 11
59.499999999999972
 21
4.0
 31
0.0
  0
LINE
  5
2FA3
  8
0
  6
CONTINUOUS
 62
     7
 10
59.499999999999972
 20
-4.0
 30
0.0
 11
59.499999999999972
 21
-15.0
 31
0.0
  0
LINE
  5
2FA4
  8
0
  6
CONTINUOUS
 62
     7
 10
147.29156916882241
 20
27.199999999999982
 30
0.0
 11
147.29156916882241
 21
17.899989999999999
 31
0.0
  0
LINE
  5
2FA5
  8
0
  6
CENTER
 62
     7
 10
42.355099999999958
 20
-9.5
 30
0.0
 11
63.693270000000012
 21
-9.5
 31
0.0
  0
LINE
  5
2FA7
  8
0
  6
CONTINUOUS
 62
     7
 10
143.54156916882241
 20
39.42821
 30
0.0
 11
143.54156916882241
 21
29.389600000000002
 31
0.0
  0
LINE
  5
2FA8
  8
0
  6
CONTINUOUS
 62
     7
 10
143.54156916882241
 20
12.0
 30
0.0
 11
143.54156916882241
 21
-14.428190000000001
 31
0.0
  0
LINE
  5
2FAD
  8
0
  6
CENTER
 62
     7
 10
-53.77689000000003
 20
-8.5
 30
0.0
 11
-40.680239999999962
 21
-8.5
 31
0.0
  0
LINE
  5
2FAE
  8
0
  6
CONTINUOUS
 62
     7
 10
-44.636149999999986
 20
-3.4568700000000092
 30
0.0
 11
-39.199009999999987
 21
-1.9999899999999959
 31
0.0
  0
LINE
  5
2FB4
  8
0
  6
CENTER
 62
     7
 10
127.4648491688224
 20
0.0
 30
0.0
 11
151.6182891688224
 21
0.0
 31
0.0
  0
LINE
  5
2FB5
  8
0
  6
CONTINUOUS
 62
     7
 10
149.04156916882241
 20
15.0
 30
0.0
 11
149.04156916882241
 21
4.0
 31
0.0
  0
LINE
  5
2FB6
  8
0
  6
CONTINUOUS
 62
     7
 10
44.749999999999957
 20
22.03006000000002
 30
0.0
 11
44.749999999999957
 21
17.899989999999999
 31
0.0
  0
LINE
  5
2FB8
  8
0
  6
CONTINUOUS
 62
     7
 10
60.249999999999972
 20
22.03006000000002
 30
0.0
 11
60.249999999999972
 21
17.899989999999999
 31
0.0
  0
LINE
  5
2FB9
  8
0
  6
CENTER
 62
     7
 10
52.499999999999972
 20
58.275050000000022
 30
0.0
 11
52.499999999999972
 21
-25.40791999999999
 31
0.0
  0
LINE
  5
2FBA
  8
0
  6
CONTINUOUS
 62
     7
 10
47.499999999999972
 20
42.999999999999943
 30
0.0
 11
47.499999999999972
 21
31.199999999999989
 31
0.0
  0
LINE
  5
2FBB
  8
0
  6
CONTINUOUS
 62
     7
 10
57.499999999999972
 20
42.999999999999943
 30
0.0
 11
57.499999999999972
 21
31.199999999999989
 31
0.0
  0
LINE
  5
2FBC
  8
0
  6
CONTINUOUS
 62
     7
 10
49.499999999999972
 20
29.199999999999989
 30
0.0
 11
55.499999999999972
 21
29.199999999999989
 31
0.0
  0
LINE
  5
2FBD
  8
0
  6
CONTINUOUS
 62
     7
 10
56.499999999999972
 20
39.42821
 30
0.0
 11
56.499999999999972
 21
29.467960000000001
 31
0.0
  0
LINE
  5
2FBE
  8
0
  6
CONTINUOUS
 62
     7
 10
48.499999999999972
 20
39.42821
 30
0.0
 11
48.499999999999972
 21
29.467960000000001
 31
0.0
  0
LINE
  5
2FC3
  8
0
  6
CONTINUOUS
 62
     7
 10
56.499999999999972
 20
4.0000000000000284
 30
0.0
 11
56.499999999999972
 21
-4.0
 31
0.0
  0
LINE
  5
2FC5
  8
0
  6
CONTINUOUS
 62
     7
 10
48.499999999999972
 20
4.0000000000000284
 30
0.0
 11
48.499999999999972
 21
-4.0
 31
0.0
  0
LINE
  5
2FC9
  8
0
  6
CONTINUOUS
 62
     7
 10
149.04156916882241
 20
-4.0
 30
0.0
 11
149.04156916882241
 21
-15.0
 31
0.0
  0
LINE
  5
2FCA
  8
0
  6
CONTINUOUS
 62
     7
 10
143.79156916882241
 20
10.62368999999998
 30
0.0
 11
143.79156916882241
 21
4.0
 31
0.0
  0
LINE
  5
2FCB
  8
0
  6
CONTINUOUS
 62
     7
 10
143.79156916882241
 20
-15.0
 30
0.0
 11
149.04156916882241
 21
-15.0
 31
0.0
  0
LINE
  5
2FCC
  8
0
  6
CONTINUOUS
 62
     7
 10
143.79156916882241
 20
-4.0
 30
0.0
 11
149.04156916882241
 21
-4.0
 31
0.0
  0
LINE
  5
2FCD
  8
0
  6
CONTINUOUS
 62
     7
 10
143.79156916882241
 20
-4.0
 30
0.0
 11
143.79156916882241
 21
-15.0
 31
0.0
  0
LINE
  5
2FCE
  8
0
  6
CONTINUOUS
 62
     7
 10
143.79156916882241
 20
4.0
 30
0.0
 11
149.04156916882241
 21
4.0
 31
0.0
  0
LINE
  5
2FCF
  8
0
  6
CONTINUOUS
 62
     7
 10
147.7681891688224
 20
15.0
 30
0.0
 11
149.04156916882241
 21
15.0
 31
0.0
  0
LINE
  5
2FD0
  8
0
  6
CONTINUOUS
 62
     7
 10
142.39157916882249
 20
50.999999999999943
 30
0.0
 11
142.39157916882249
 21
31.199999999999989
 31
0.0
  0
LINE
  5
2FD1
  8
0
  6
CONTINUOUS
 62
     7
 10
148.04156916882241
 20
-38.75
 30
0.0
 11
146.49376916882241
 21
-44.526449999999983
 31
0.0
  0
LINE
  5
2FD2
  8
0
  6
CONTINUOUS
 62
     7
 10
135.48715916882239
 20
-46.749999999999993
 30
0.0
 11
143.5959991688224
 21
-46.749999999999993
 31
0.0
  0
LINE
  5
2FD3
  8
0
  6
CONTINUOUS
 62
     7
 10
131.04156916882241
 20
-38.75
 30
0.0
 11
132.5893691688224
 21
-44.526460000000007
 31
0.0
  0
LINE
  5
2FD4
  8
0
  6
CONTINUOUS
 62
     7
 10
148.04156916882241
 20
-15.0
 30
0.0
 11
148.04156916882241
 21
-38.75
 31
0.0
  0
LINE
  5
2FD5
  8
0
  6
CONTINUOUS
 62
     7
 10
129.04156916882241
 20
-13.0
 30
0.0
 11
130.04156916882241
 21
-13.0
 31
0.0
  0
LINE
  5
2FD6
  8
0
  6
CONTINUOUS
 62
     7
 10
129.04156916882241
 20
13.0
 30
0.0
 11
130.04156916882241
 21
13.0
 31
0.0
  0
LINE
  5
2FD7
  8
0
  6
CONTINUOUS
 62
     7
 10
129.04156916882241
 20
13.0
 30
0.0
 11
129.04156916882241
 21
-13.0
 31
0.0
  0
LINE
  5
2FD9
  8
0
  6
CONTINUOUS
 62
     7
 10
149.04156916882241
 20
-6.3999900000000016
 30
0.0
 11
149.54156916882241
 21
-6.3999900000000016
 31
0.0
  0
LINE
  5
2FDA
  8
0
  6
CONTINUOUS
 62
     7
 10
149.04156916882241
 20
-12.60000999999999
 30
0.0
 11
149.54156916882241
 21
-12.60000999999999
 31
0.0
  0
LINE
  5
2FDB
  8
0
  6
CONTINUOUS
 62
     7
 10
144.5667591688225
 20
12.0
 30
0.0
 11
134.5163891688224
 21
12.0
 31
0.0
  0
LINE
  5
2FDC
  8
0
  6
CONTINUOUS
 62
     7
 10
145.29156916882241
 20
29.199999999999989
 30
0.0
 11
133.79156916882241
 21
29.199999999999989
 31
0.0
  0
LINE
  5
2FDD
  8
0
  6
CONTINUOUS
 62
     7
 10
131.79156916882241
 20
27.199999999999982
 30
0.0
 11
131.79156916882241
 21
17.899989999999999
 31
0.0
  0
LINE
  5
2FDF
  8
0
  6
CONTINUOUS
 62
     7
 10
135.54156916882241
 20
39.42821
 30
0.0
 11
135.54156916882241
 21
29.389600000000002
 31
0.0
  0
LINE
  5
2FE0
  8
0
  6
CONTINUOUS
 62
     7
 10
135.54156916882241
 20
12.0
 30
0.0
 11
135.54156916882241
 21
-14.428190000000001
 31
0.0
  0
LINE
  5
2FE5
  8
0
  6
CONTINUOUS
 62
     7
 10
130.04156916882241
 20
15.0
 30
0.0
 11
130.04156916882241
 21
4.0
 31
0.0
  0
LINE
  5
2FE6
  8
0
  6
CONTINUOUS
 62
     7
 10
130.04156916882241
 20
-4.0
 30
0.0
 11
130.04156916882241
 21
-15.0
 31
0.0
  0
LINE
  5
2FE7
  8
0
  6
CONTINUOUS
 62
     7
 10
135.29156916882241
 20
10.62368999999998
 30
0.0
 11
135.29156916882241
 21
4.0
 31
0.0
  0
LINE
  5
2FE8
  8
0
  6
CONTINUOUS
 62
     7
 10
135.29156916882241
 20
-15.0
 30
0.0
 11
130.04156916882241
 21
-15.0
 31
0.0
  0
LINE
  5
2FE9
  8
0
  6
CONTINUOUS
 62
     7
 10
135.29156916882241
 20
-4.0
 30
0.0
 11
130.04156916882241
 21
-4.0
 31
0.0
  0
LINE
  5
2FEA
  8
0
  6
CONTINUOUS
 62
     7
 10
135.29156916882241
 20
-4.0
 30
0.0
 11
135.29156916882241
 21
-15.0
 31
0.0
  0
LINE
  5
2FEB
  8
0
  6
CONTINUOUS
 62
     7
 10
135.29156916882241
 20
4.0
 30
0.0
 11
130.04156916882241
 21
4.0
 31
0.0
  0
LINE
  5
2FEC
  8
0
  6
CONTINUOUS
 62
     7
 10
131.31494916882241
 20
15.0
 30
0.0
 11
130.04156916882241
 21
15.0
 31
0.0
  0
LINE
  5
2FED
  8
0
  6
CENTER
 62
     7
 10
151.49160916882241
 20
-9.5
 30
0.0
 11
127.59153916882239
 21
-9.5
 31
0.0
  0
LINE
  5
2FEE
  8
0
  6
CONTINUOUS
 62
     7
 10
136.69157916882239
 20
50.999999999999943
 30
0.0
 11
136.69157916882239
 21
31.199999999999989
 31
0.0
  0
LINE
  5
2FEF
  8
0
  6
CONTINUOUS
 62
     7
 10
141.39157916882249
 20
51.999999999999943
 30
0.0
 11
137.69157916882239
 21
51.999999999999943
 31
0.0
  0
LINE
  5
2FF0
  8
0
  6
CONTINUOUS
 62
     7
 10
130.04156916882241
 20
-6.3999900000000016
 30
0.0
 11
129.54156916882241
 21
-6.3999900000000016
 31
0.0
  0
LINE
  5
2FF1
  8
0
  6
CONTINUOUS
 62
     7
 10
130.04156916882241
 20
-12.60000999999999
 30
0.0
 11
129.54156916882241
 21
-12.60000999999999
 31
0.0
  0
LINE
  5
2FF2
  8
0
  6
CONTINUOUS
 62
     7
 10
131.04156916882241
 20
-15.0
 30
0.0
 11
131.04156916882241
 21
-38.75
 31
0.0
  0
LINE
  5
2FF3
  8
0
  6
CONTINUOUS
 62
     7
 10
150.04156916882241
 20
-13.0
 30
0.0
 11
149.04156916882241
 21
-13.0
 31
0.0
  0
LINE
  5
2FF4
  8
0
  6
CONTINUOUS
 62
     7
 10
150.04156916882241
 20
13.0
 30
0.0
 11
150.04156916882241
 21
-13.0
 31
0.0
  0
LINE
  5
2FF5
  8
0
  6
CONTINUOUS
 62
     7
 10
150.04156916882241
 20
13.0
 30
0.0
 11
149.04156916882241
 21
13.0
 31
0.0
  0
LINE
  5
2FF6
  8
0
  6
CONTINUOUS
 62
     7
 10
144.0414491688224
 20
11.285009999999991
 30
0.0
 11
147.0180791688224
 21
14.661329999999991
 31
0.0
  0
LINE
  5
2FF7
  8
0
  6
CONTINUOUS
 62
     7
 10
135.04167916882241
 20
11.28498999999999
 30
0.0
 11
132.06504916882241
 21
14.661319999999989
 31
0.0
  0
LINE
  5
2FF8
  8
0
  6
CONTINUOUS
 62
     7
 10
145.89797916882239
 20
-15.0
 30
0.0
 11
145.89797916882239
 21
-44.395739999999989
 31
0.0
  0
LINE
  5
2FF9
  8
0
  6
CONTINUOUS
 62
     7
 10
133.1851691688224
 20
-15.0
 30
0.0
 11
133.1851691688224
 21
-43.970580000000012
 31
0.0
  0
LINE
  5
2FFA
  8
0
  6
CONTINUOUS
 62
     7
 10
131.04156916882241
 20
38.75
 30
0.0
 11
131.04156916882241
 21
15.0
 31
0.0
  0
LINE
  5
2FFB
  8
0
  6
CONTINUOUS
 62
     7
 10
131.0415591688224
 20
38.750010000000003
 30
0.0
 11
132.5893591688224
 21
44.526450000000011
 31
0.0
  0
LINE
  5
2FFC
  8
0
  6
CONTINUOUS
 62
     7
 10
135.48715916882239
 20
46.749999999999943
 30
0.0
 11
136.69157916882239
 21
46.749999999999943
 31
0.0
  0
LINE
  5
2FFD
  8
0
  6
CONTINUOUS
 62
     7
 10
142.39157916882249
 20
46.749999999999943
 30
0.0
 11
143.5959991688224
 21
46.749999999999943
 31
0.0
  0
LINE
  5
2FFE
  8
0
  6
CONTINUOUS
 62
     7
 10
148.04156916882241
 20
38.75
 30
0.0
 11
146.49377916882241
 21
44.526459999999979
 31
0.0
  0
LINE
  5
2FFF
  8
0
  6
CONTINUOUS
 62
     7
 10
148.04156916882241
 20
38.75
 30
0.0
 11
148.04156916882241
 21
15.0
 31
0.0
  0
LINE
  5
3000
  8
0
  6
CONTINUOUS
 62
     7
 10
145.89797916882239
 20
30.007550000000009
 30
0.0
 11
145.89797916882239
 21
44.395739999999989
 31
0.0
  0
LINE
  5
3001
  8
0
  6
CONTINUOUS
 62
     7
 10
133.1851691688224
 20
30.007550000000009
 30
0.0
 11
133.1851691688224
 21
43.970579999999977
 31
0.0
  0
LINE
  5
3002
  8
0
  6
CENTER
 62
     7
 10
139.54156916882241
 20
58.275050000000022
 30
0.0
 11
139.54156916882241
 21
-51.035332000000011
 31
0.0
  0
LINE
  5
3003
  8
0
  6
CONTINUOUS
 62
     7
 10
129.04156916882241
 20
6.0
 30
0.0
 11
128.54156916882241
 21
6.0
 31
0.0
  0
LINE
  5
3004
  8
0
  6
CONTINUOUS
 62
     7
 10
129.04156916882241
 20
11.0
 30
0.0
 11
128.54156916882241
 21
11.0
 31
0.0
  0
LINE
  5
3005
  8
0
  6
CONTINUOUS
 62
     7
 10
129.04156916882241
 20
-11.0
 30
0.0
 11
128.54156916882241
 21
-11.0
 31
0.0
  0
LINE
  5
3006
  8
0
  6
CONTINUOUS
 62
     7
 10
129.04156916882241
 20
-6.0
 30
0.0
 11
128.54156916882241
 21
-6.0
 31
0.0
  0
LINE
  5
3007
  8
0
  6
CONTINUOUS
 62
     7
 10
128.04156916882241
 20
10.5
 30
0.0
 11
128.04156916882241
 21
6.5
 31
0.0
  0
LINE
  5
3008
  8
0
  6
CONTINUOUS
 62
     7
 10
128.04156916882241
 20
-6.5
 30
0.0
 11
128.04156916882241
 21
-10.5
 31
0.0
  0
ARC
  5
300C
  8
0
  6
CONTINUOUS
 62
     7
 10
-0.0000000000000568
 20
0.0
 30
0.0
 40
46.749999999999993
 50
200.20087000000089
 51
338.78866000000022
  0
ARC
  5
300D
  8
0
  6
CONTINUOUS
 62
     7
 10
-0.0000000000000568
 20
0.0
 30
0.0
 40
35.75
 50
188.6816
 51
349.59266000000019
  0
ARC
  5
300E
  8
0
  6
CONTINUOUS
 62
     7
 10
-0.0000000000000568
 20
0.0
 30
0.0
 40
39.25
 50
182.9207899999997
 51
353.57583000000011
  0
ARC
  5
300F
  8
0
  6
CONTINUOUS
 62
     7
 10
66.439329999999956
 20
49.999999999999943
 30
0.0
 40
2.0
 50
3.4746007000001811
 51
90.000003000000945
  0
ARC
  5
3010
  8
0
  6
CONTINUOUS
 62
     7
 10
139.54156916882241
 20
17.899989999999999
 30
0.0
 40
7.75
 50
310.42192000000011
 51
0.0
  0
ARC
  5
3011
  8
0
  6
CONTINUOUS
 62
     7
 10
38.560670000000009
 20
49.999999999999943
 30
0.0
 40
2.0
 50
90.000003000000945
 51
176.52540999999971
  0
ARC
  5
3014
  8
0
  6
CONTINUOUS
 62
     7
 10
52.499999999999972
 20
-9.5
 30
0.0
 40
6.0
 50
246.4435399999999
 51
293.55647000000118
  0
ARC
  5
3016
  8
0
  6
CONTINUOUS
 62
     7
 10
139.54156916882241
 20
32.5
 30
0.0
 40
8.0
 50
60.000002000001302
 51
69.129929000001653
  0
ARC
  5
3018
  8
0
  6
CONTINUOUS
 62
     7
 10
38.112489999999923
 20
-7.0
 30
0.0
 40
3.0
 50
90.000003000000945
 51
169.5926499999992
  0
ARC
  5
301A
  8
0
  6
CONTINUOUS
 62
     7
 10
-39.29455999999999
 20
-6.0
 30
0.0
 40
4.0
 50
8.6816015999994267
 51
90.000003000000945
  0
ARC
  5
301B
  8
0
  6
CONTINUOUS
 62
     7
 10
-47.00000000000005
 20
-8.5
 30
0.0
 40
4.5
 50
215.88829999999919
 51
35.888297000002282
  0
ARC
  5
301C
  8
0
  6
CONTINUOUS
 62
     7
 10
-48.566740000000038
 20
-17.86992
 30
0.0
 40
5.0
 50
20.200864999999581
 51
80.507384999999672
  0
ARC
  5
3023
  8
0
  6
CONTINUOUS
 62
     7
 10
52.499999999999972
 20
17.899989999999999
 30
0.0
 40
7.75
 50
180.00000999999929
 51
200.1401622213283
  0
ARC
  5
3024
  8
0
  6
CONTINUOUS
 62
     7
 10
52.499999999999972
 20
17.899989999999999
 30
0.0
 40
7.75
 50
334.58537908483908
 51
0.0
  0
ARC
  5
3025
  8
0
  6
CONTINUOUS
 62
     7
 10
33.499999999999943
 20
47.999999999999943
 30
0.0
 40
35.0
 50
324.75248999999991
 51
3.4746007000001811
  0
ARC
  5
3026
  8
0
  6
CONTINUOUS
 62
     7
 10
70.249999999999972
 20
22.03006000000002
 30
0.0
 40
10.0
 50
144.75249999999849
 51
180.00000999999929
  0
ARC
  5
3027
  8
0
  6
CONTINUOUS
 62
     7
 10
34.749999999999943
 20
22.03006000000002
 30
0.0
 40
10.0
 50
0.0
 51
35.247505000000771
  0
ARC
  5
3028
  8
0
  6
CONTINUOUS
 62
     7
 10
71.499999999999972
 20
47.999999999999943
 30
0.0
 40
35.0
 50
176.52540999999971
 51
215.2475099999987
  0
ARC
  5
3029
  8
0
  6
CONTINUOUS
 62
     7
 10
52.499999999999972
 20
42.999999999999943
 30
0.0
 40
5.0
 50
0.0
 51
180.00000999999929
  0
ARC
  5
302A
  8
0
  6
CONTINUOUS
 62
     7
 10
55.499999999999972
 20
31.199999999999989
 30
0.0
 40
2.0
 50
270.0
 51
0.0
  0
ARC
  5
302B
  8
0
  6
CONTINUOUS
 62
     7
 10
49.499999999999972
 20
31.199999999999989
 30
0.0
 40
2.0
 50
179.99999000000059
 51
270.0
  0
ARC
  5
302C
  8
0
  6
CONTINUOUS
 62
     7
 10
52.499999999999972
 20
32.5
 30
0.0
 40
8.0
 50
60.000002000001302
 51
119.9999999999997
  0
ARC
  5
302D
  8
0
  6
CONTINUOUS
 62
     7
 10
145.29156916882241
 20
27.199999999999982
 30
0.0
 40
2.0
 50
0.0
 51
90.000003000000945
  0
ARC
  5
302E
  8
0
  6
CONTINUOUS
 62
     7
 10
144.3915791688224
 20
31.199999999999989
 30
0.0
 40
2.0
 50
179.99999000000059
 51
270.0
  0
ARC
  5
302F
  8
0
  6
CONTINUOUS
 62
     7
 10
141.39157916882249
 20
50.999999999999943
 30
0.0
 40
1.0
 50
0.0
 51
90.000003000000945
  0
ARC
  5
3030
  8
0
  6
CONTINUOUS
 62
     7
 10
135.48715916882239
 20
-43.75
 30
0.0
 40
3.0
 50
195.00001000000049
 51
270.0
  0
ARC
  5
3031
  8
0
  6
CONTINUOUS
 62
     7
 10
143.5959991688224
 20
-43.75
 30
0.0
 40
3.0
 50
270.0
 51
345.0000000000008
  0
ARC
  5
3032
  8
0
  6
CONTINUOUS
 62
     7
 10
46.379549999999973
 20
-18.0
 30
0.0
 40
3.0
 50
90.000003000000945
 51
158.78866000000031
  0
ARC
  5
3035
  8
0
  6
CONTINUOUS
 62
     7
 10
137.69157916882239
 20
50.999999999999943
 30
0.0
 40
1.0
 50
89.999996000000905
 51
180.00000999999929
  0
ARC
  5
3036
  8
0
  6
CONTINUOUS
 62
     7
 10
134.69157916882239
 20
31.199999999999989
 30
0.0
 40
2.0
 50
270.0
 51
0.0000050089553168
  0
ARC
  5
3037
  8
0
  6
CONTINUOUS
 62
     7
 10
139.54156916882241
 20
-7.5
 30
0.0
 40
8.0
 50
240.00000000000031
 51
299.99999999999972
  0
ARC
  5
3038
  8
0
  6
CONTINUOUS
 62
     7
 10
139.54156916882241
 20
17.899989999999999
 30
0.0
 40
7.75
 50
180.00000999999929
 51
229.57809999999969
  0
ARC
  5
3039
  8
0
  6
CONTINUOUS
 62
     7
 10
139.54156916882241
 20
32.5
 30
0.0
 40
8.0
 50
110.87007000000131
 51
119.9999999999997
  0
ARC
  5
303A
  8
0
  6
CONTINUOUS
 62
     7
 10
133.79156916882241
 20
27.199999999999982
 30
0.0
 40
2.0
 50
89.999996000000905
 51
180.00000999999929
  0
ARC
  5
303B
  8
0
  6
CONTINUOUS
 62
     7
 10
131.31494916882241
 20
14.0
 30
0.0
 40
1.0
 50
41.399999999999942
 51
90.000003000000945
  0
ARC
  5
303C
  8
0
  6
CONTINUOUS
 62
     7
 10
134.29156916882241
 20
10.62368999999998
 30
0.0
 40
1.0
 50
0.0
 51
41.399999999999942
  0
ARC
  5
303D
  8
0
  6
CONTINUOUS
 62
     7
 10
144.79156916882241
 20
10.62368999999998
 30
0.0
 40
1.0
 50
138.59999999999999
 51
180.00000999999929
  0
ARC
  5
303E
  8
0
  6
CONTINUOUS
 62
     7
 10
147.7681891688224
 20
14.0
 30
0.0
 40
1.0
 50
90.000003000000945
 51
138.59999999999999
  0
ARC
  5
303F
  8
0
  6
CONTINUOUS
 62
     7
 10
135.48715916882239
 20
43.749999999999943
 30
0.0
 40
3.0
 50
90.000003000000945
 51
164.9999899999994
  0
ARC
  5
3040
  8
0
  6
CONTINUOUS
 62
     7
 10
143.5959991688224
 20
43.749999999999943
 30
0.0
 40
3.0
 50
14.99999999999916
 51
90.000003000000945
  0
ARC
  5
3041
  8
0
  6
CONTINUOUS
 62
     7
 10
128.54156916882241
 20
10.5
 30
0.0
 40
0.5
 50
90.000003000000945
 51
180.00000999999929
  0
ARC
  5
3042
  8
0
  6
CONTINUOUS
 62
     7
 10
128.54156916882241
 20
6.5
 30
0.0
 40
0.5
 50
179.99999000000059
 51
270.0
  0
ARC
  5
3043
  8
0
  6
CONTINUOUS
 62
     7
 10
147.41656916882241
 20
8.5
 30
0.0
 40
3.625
 50
316.39717999999891
 51
43.602817999999878
  0
ARC
  5
3044
  8
0
  6
CONTINUOUS
 62
     7
 10
128.54156916882241
 20
-10.5
 30
0.0
 40
0.5
 50
179.99999000000059
 51
270.0
  0
ARC
  5
3045
  8
0
  6
CONTINUOUS
 62
     7
 10
128.54156916882241
 20
-6.5
 30
0.0
 40
0.5
 50
90.000003000000945
 51
180.00000999999929
  0
ARC
  5
3046
  8
0
  6
CONTINUOUS
 62
     7
 10
147.41656916882241
 20
-8.5
 30
0.0
 40
3.625
 50
316.39717999999891
 51
43.602817999999878
  0
ARC
  5
3047
  8
0
  6
CONTINUOUS
 62
     7
 10
129.54156916882241
 20
-12.10000999999999
 30
0.0
 40
0.5
 50
179.99999000000059
 51
270.0
  0
ARC
  5
3048
  8
0
  6
CONTINUOUS
 62
     7
 10
129.54156916882241
 20
-6.8999900000000016
 30
0.0
 40
0.5
 50
90.000003000000945
 51
180.00000999999929
  0
ARC
  5
3049
  8
0
  6
CONTINUOUS
 62
     7
 10
149.54156916882241
 20
-6.8999900000000016
 30
0.0
 40
0.5
 50
0.0
 51
90.000003000000945
  0
ARC
  5
304A
  8
0
  6
CONTINUOUS
 62
     7
 10
149.54156916882241
 20
-12.10000999999999
 30
0.0
 40
0.5
 50
270.0
 51
0.0
  0
LINE
  5
304B
  8
0
  6
CONTINUOUS
 62
     7
 10
38.112489999999923
 20
4.0
 30
0.0
 11
59.499999999999972
 21
4.0
 31
0.0
  0
LINE
  5
304C
  8
0
  6
CONTINUOUS
 62
     7
 10
46.379549999999973
 20
15.0
 30
0.0
 11
59.499999999999972
 21
14.99999999999997
 31
0.0
  0
LINE
  5
304E
  8
0
  6
CENTER
 62
     7
 10
-53.77689000000003
 20
8.5
 30
0.0
 11
-40.680239999999962
 21
8.5
 31
0.0
  0
LINE
  5
304F
  8
0
  6
CONTINUOUS
 62
     7
 10
-44.636149999999986
 20
3.4568700000000092
 30
0.0
 11
-39.199009999999987
 21
1.9999899999999959
 31
0.0
  0
ARC
  5
3050
  8
0
  6
CONTINUOUS
 62
     7
 10
-0.0000000000000568
 20
0.0
 30
0.0
 40
46.749999999999993
 50
21.211339999998181
 51
159.79912999999911
  0
ARC
  5
3051
  8
0
  6
CONTINUOUS
 62
     7
 10
-0.0000000000000568
 20
0.0
 30
0.0
 40
35.75
 50
10.40733999999979
 51
171.31839999999991
  0
ARC
  5
3052
  8
0
  6
CONTINUOUS
 62
     7
 10
-0.0000000000000568
 20
0.0
 30
0.0
 40
39.25
 50
6.4241700000015109
 51
177.07921000000181
  0
ARC
  5
3053
  8
0
  6
CONTINUOUS
 62
     7
 10
38.112489999999923
 20
7.0
 30
0.0
 40
3.0
 50
190.40735000000231
 51
269.99999699999898
  0
ARC
  5
3055
  8
0
  6
CONTINUOUS
 62
     7
 10
-39.29455999999999
 20
6.0
 30
0.0
 40
4.0
 50
269.99999699999898
 51
351.3183984000022
  0
ARC
  5
3056
  8
0
  6
CONTINUOUS
 62
     7
 10
-47.00000000000005
 20
8.5
 30
0.0
 40
4.5
 50
324.1117029999977
 51
144.1117000000007
  0
ARC
  5
3057
  8
0
  6
CONTINUOUS
 62
     7
 10
-48.566740000000038
 20
17.86992
 30
0.0
 40
5.0
 50
279.49261500000023
 51
339.79913500000032
  0
ARC
  5
3058
  8
0
  6
CONTINUOUS
 62
     7
 10
-35.252660000000049
 20
0.0
 30
0.0
 40
10.0
 50
144.1117099999984
 51
215.8882900000001
  0
ARC
  5
3059
  8
0
  6
CONTINUOUS
 62
     7
 10
-35.252660000000049
 20
0.0
 30
0.0
 40
19.0
 50
144.1117099999984
 51
215.8882900000001
  0
ARC
  5
305A
  8
0
  6
CONTINUOUS
 62
     7
 10
46.379549999999973
 20
18.0
 30
0.0
 40
3.0
 50
201.2113399999981
 51
269.99999699999898
  0
CIRCLE
  5
305B
  8
0
 10
-47.00000000000005
 20
-8.5
 30
0.0
 40
2.5999998999999989
  0
CIRCLE
  5
305C
  8
0
 10
52.499999999999972
 20
-9.5
 30
0.0
 40
3.5
  0
CIRCLE
  5
305D
  8
0
 10
-47.00000000000005
 20
8.5
 30
0.0
 40
2.5999998999999989
  0
VIEWPORT
  5
79
 67
     1
  8
0
 10
5.2499996395561617
 20
3.9999998836066761
 30
0.0
 40
15.015580297613511
 41
8.5939224089826052
 68
     1
 69
     1
1001
ACAD
1000
MVIEW
1002
{
1070
    16
1010
0.0
1020
0.0
1030
0.0
1010
0.0
1020
0.0
1030
1.0
1040
0.0
1040
8.5939224089826052
1040
5.2499996395561617
1040
3.9999998836066761
1040
50.0
1040
0.0
1040
0.0
1070
     0
1070
   100
1070
     1
1070
     1
1070
     0
1070
     0
1070
     0
1070
     0
1040
0.0
1040
0.0
1040
0.0
1040
10.0
1040
10.0
1040
10.0
1040
10.0
1070
     0
1002
{
1002
}
1002
}
1001
GENIUS_GENOBJ-N-SDF_13
1002
{
1000
OWNER
1000
GEN
1002
}
1001
GENIUS_GENODEF_13
1002
{
1000
HIER
1070
     0
1002
}
1002
{
1000
MANEDIT
1070
     0
1002
}
1002
{
1000
NOSEL
1070
     0
1002
}
1002
{
1000
BEHIND
1070
     0
1002
}
1002
{
1000
OTHER
1070
     0
1002
}
1002
{
1000
REACTOR
1002
}
1001
GENIUS_GENSCREG_15
1000
PF
1040
1.0
1000
DF
1040
1.0
1000
MIN
1011
-2.2577905092505972
1021
0.0
1031
0.0
1021
-0.2969613208846251
1031
0.0
1000
MAX
1011
12.757789788362921
1021
0.0
1031
0.0
1021
8.2969610880979801
1031
0.0
1000
FLAGS
1070
     4
  0
VIEWPORT
  5
7B
 67
     1
  8
0
 10
5.24999976158142
 20
3.99999976158142
 30
0.0
 40
8.3999996185302717
 41
6.3999996185302717
 68
     2
 69
     2
1001
ACAD
1000
MVIEW
1002
{
1070
    16
1010
0.0
1020
0.0
1030
0.0
1010
0.0
1020
0.0
1030
1.0
1040
0.0
1040
9.2590797717467002
1040
6.0
1040
4.5
1040
50.0
1040
0.0
1040
0.0
1070
     0
1070
   100
1070
     1
1070
     3
1070
     0
1070
     0
1070
     0
1070
     0
1040
0.0
1040
0.0
1040
0.0
1040
0.5
1040
0.5
1040
0.5
1040
0.5
1070
     0
1002
{
1002
}
1002
}
1001
GENIUS_GENODEF_13
1002
{
1000
HIER
1070
     0
1002
}
1002
{
1000
MANEDIT
1070
     0
1002
}
1002
{
1000
NOSEL
1070
     0
1002
}
1002
{
1000
BEHIND
1070
     0
1002
}
1002
{
1000
OTHER
1070
     0
1002
}
1002
{
1000
REACTOR
1002
}
1001
GENIUS_GENOBJ-N-SDF_13
1002
{
1000
OWNER
1000
GEN
1002
}
1001
GENIUS_GENSCREG_15
1000
PF
1040
0.0
1000
DF
1040
0.0
1000
MIN
1011
1.049999952316284
1021
0.0
1031
0.0
1021
0.7999999523162842
1031
0.0
1000
MAX
1011
9.4499995708465558
1021
0.0
1031
0.0
1021
7.1999995708465558
1031
0.0
1000
FLAGS
1070
     4
  0
ENDSEC
  0
EOF
