  0
SECTION
  2
HEADER
  9
$ACADVER
  1
AC1009
  9
$INSBASE
 10
0.0
 20
0.0
 30
0.0
  9
$EXTMIN
 10
-115.03137
 20
-126.34392208816971
 30
0.0
  9
$EXTMAX
 10
210.1046456741087
 20
140.03876899093791
 30
0.0
  9
$LIMMIN
 10
0.0
 20
0.0
  9
$LIMMAX
 10
12.0
 20
9.0
  9
$ORTHOMODE
 70
     0
  9
$REGENMODE
 70
     1
  9
$FILLMODE
 70
     1
  9
$QTEXTMODE
 70
     0
  9
$MIRRTEXT
 70
     1
  9
$DRAGMODE
 70
     2
  9
$LTSCALE
 40
1.0
  9
$OSMODE
 70
    37
  9
$ATTMODE
 70
     1
  9
$TEXTSIZE
 40
0.2
  9
$TRACEWID
 40
0.05
  9
$TEXTSTYLE
  7
STANDARD
  9
$CLAYER
  8
0
  9
$CELTYPE
  6
BYLAYER
  9
$CECOLOR
 62
   256
  9
$DIMSCALE
 40
1.0
  9
$DIMASZ
 40
0.18
  9
$DIMEXO
 40
0.0625
  9
$DIMDLI
 40
0.38
  9
$DIMRND
 40
0.0
  9
$DIMDLE
 40
0.0
  9
$DIMEXE
 40
0.18
  9
$DIMTP
 40
0.0
  9
$DIMTM
 40
0.0
  9
$DIMTXT
 40
0.18
  9
$DIMCEN
 40
0.09
  9
$DIMTSZ
 40
0.0
  9
$DIMTOL
 70
     0
  9
$DIMLIM
 70
     0
  9
$DIMTIH
 70
     1
  9
$DIMTOH
 70
     1
  9
$DIMSE1
 70
     0
  9
$DIMSE2
 70
     0
  9
$DIMTAD
 70
     0
  9
$DIMZIN
 70
     0
  9
$DIMBLK
  1

  9
$DIMASO
 70
     1
  9
$DIMSHO
 70
     1
  9
$DIMPOST
  1

  9
$DIMAPOST
  1

  9
$DIMALT
 70
     0
  9
$DIMALTD
 70
     2
  9
$DIMALTF
 40
25.399999999999999
  9
$DIMLFAC
 40
1.0
  9
$DIMTOFL
 70
     0
  9
$DIMTVP
 40
0.0
  9
$DIMTIX
 70
     0
  9
$DIMSOXD
 70
     0
  9
$DIMSAH
 70
     0
  9
$DIMBLK1
  1

  9
$DIMBLK2
  1

  9
$DIMSTYLE
  2
STANDARD
  9
$DIMCLRD
 70
     0
  9
$DIMCLRE
 70
     0
  9
$DIMCLRT
 70
     0
  9
$DIMTFAC
 40
1.0
  9
$DIMGAP
 40
0.09
  9
$LUNITS
 70
     2
  9
$LUPREC
 70
     4
  9
$SKETCHINC
 40
0.1
  9
$FILLETRAD
 40
1.0
  9
$AUNITS
 70
     0
  9
$AUPREC
 70
     0
  9
$MENU
  1
.
  9
$ELEVATION
 40
0.0
  9
$PELEVATION
 40
0.0
  9
$THICKNESS
 40
0.0
  9
$LIMCHECK
 70
     0
  9
$BLIPMODE
 70
     0
  9
$CHAMFERA
 40
0.5
  9
$CHAMFERB
 40
0.5
  9
$SKPOLY
 70
     0
  9
$TDCREATE
 40
2451955.1727028699
  9
$TDUPDATE
 40
2454732.6788279391
  9
$TDINDWG
 40
0.0998178819
  9
$TDUSRTIMER
 40
0.0998177083
  9
$USRTIMER
 70
     1
  9
$ANGBASE
 50
0.0
  9
$ANGDIR
 70
     0
  9
$PDMODE
 70
     0
  9
$PDSIZE
 40
0.0
  9
$PLINEWID
 40
0.0
  9
$COORDS
 70
     1
  9
$SPLFRAME
 70
     0
  9
$SPLINETYPE
 70
     6
  9
$SPLINESEGS
 70
     8
  9
$ATTDIA
 70
     0
  9
$ATTREQ
 70
     1
  9
$HANDLING
 70
 22529
  9
$HANDSEED
  5
2E3B
  9
$SURFTAB1
 70
     6
  9
$SURFTAB2
 70
     6
  9
$SURFTYPE
 70
     6
  9
$SURFU
 70
     6
  9
$SURFV
 70
     6
  9
$UCSNAME
  2

  9
$UCSORG
 10
0.0
 20
0.0
 30
0.0
  9
$UCSXDIR
 10
1.0
 20
0.0
 30
0.0
  9
$UCSYDIR
 10
0.0
 20
1.0
 30
0.0
  9
$PUCSNAME
  2

  9
$PUCSORG
 10
0.0
 20
0.0
 30
0.0
  9
$PUCSXDIR
 10
1.0
 20
0.0
 30
0.0
  9
$PUCSYDIR
 10
0.0
 20
1.0
 30
0.0
  9
$USERI1
 70
     0
  9
$USERI2
 70
     0
  9
$USERI3
 70
     0
  9
$USERI4
 70
     0
  9
$USERI5
 70
     0
  9
$USERR1
 40
0.0
  9
$USERR2
 40
0.0
  9
$USERR3
 40
0.0
  9
$USERR4
 40
0.0
  9
$USERR5
 40
0.0
  9
$WORLDVIEW
 70
     1
  9
$SHADEDGE
 70
     3
  9
$SHADEDIF
 70
    70
  9
$TILEMODE
 70
     1
  9
$MAXACTVP
 70
    48
  9
$PLIMCHECK
 70
     0
  9
$PEXTMIN
 10
1.049636599258096
 20
0.7996597240971113
 30
-0.0015258207003583
  9
$PEXTMAX
 10
9.4503627310769716
 20
7.2003400826974584
 30
0.0000000349246037
  9
$PLIMMIN
 10
-0.2500002402958907
 20
-0.2499999962453767
  9
$PLIMMAX
 10
10.74999951940821
 20
8.2499997634587316
  9
$UNITMODE
 70
     0
  9
$VISRETAIN
 70
     1
  9
$PLINEGEN
 70
     0
  9
$PSLTSCALE
 70
     1
  0
ENDSEC
  0
SECTION
  2
TABLES
  0
TABLE
  2
VPORT
 70
     2
  0
VPORT
  2
*ACTIVE
 70
     0
 10
0.0
 20
0.0
 11
1.0
 21
1.0
 12
47.533451817866357
 22
6.8393074637232161
 13
0.0
 23
0.0
 14
0.5
 24
0.5
 15
0.5
 25
0.5
 16
0.0
 26
0.0
 36
1.0
 17
0.0
 27
0.0
 37
0.0
 40
268.43601086915407
 41
1.531806615776081
 42
50.0
 43
0.0
 44
0.0
 50
0.0
 51
0.0
 71
     0
 72
   100
 73
     1
 74
     3
 75
     0
 76
     0
 77
     0
 78
     0
  0
ENDTAB
  0
TABLE
  2
LTYPE
 70
     2
  0
LTYPE
  2
CONTINUOUS
 70
     0
  3
Solid line
 72
    65
 73
     0
 40
0.0
  0
LTYPE
  2
CENTER
 70
     0
  3
__ . __
 72
    65
 73
     4
 40
7.0
 49
4.0
 49
-1.0
 49
1.0
 49
-1.0
  0
ENDTAB
  0
TABLE
  2
LAYER
 70
     1
  0
LAYER
  2
0
 70
     0
 62
     7
  6
CONTINUOUS
  0
ENDTAB
  0
TABLE
  2
STYLE
 70
     1
  0
STYLE
  2
STANDARD
 70
     0
 40
0.0
 41
1.0
 50
0.0
 71
     0
 42
0.2
  3
txt
  4

  0
ENDTAB
  0
TABLE
  2
VIEW
 70
     0
  0
ENDTAB
  0
TABLE
  2
UCS
 70
     0
  0
ENDTAB
  0
TABLE
  2
APPID
 70
    19
  0
APPID
  2
ACAD
 70
     0
  0
APPID
  2
GENIUS_GENODEF_13
 70
     0
  0
APPID
  2
ACAD_DSTYLE_DIMARC_LENGTH_
 70
     0
  0
APPID
  2
ACAD_DSTYLE_DIMJOGGED_JOGA
 70
     0
  0
APPID
  2
GENIUS_GENOBJ-N-FIL_13
 70
     0
  0
APPID
  2
ACAD_MLEADERVER
 70
     0
  0
APPID
  2
MCAD_NO_VIS
 70
     0
  0
APPID
  2
ACAD_TEMP_GRAPHIC
 70
     0
  0
APPID
  2
AD_DRAW
 70
     0
  0
APPID
  2
ACATTRIBSERVICES
 70
     0
  0
APPID
  2
DESIGNERASSEMBLIES
 70
     0
  0
APPID
  2
ACADM_DIM_EDIT
 70
     0
  0
APPID
  2
AMDT_DM_ADJ
 70
     0
  0
APPID
  2
GENIUS_GENSCREG_15
 70
     0
  0
APPID
  2
GENIUS_GENOBJ-N-SDF_13
 70
     0
  0
APPID
  2
ACAD_DSTYLE_DIM_LINETYPE
 70
     0
  0
APPID
  2
ACAD_DSTYLE_DIM_EXT1_LINETYPE
 70
     0
  0
APPID
  2
ACAD_DSTYLE_DIM_EXT2_LINETYPE
 70
     0
  0
APPID
  2
ACAD_EXEMPT_FROM_CAD_STANDARDS
 70
     0
  0
ENDTAB
  0
TABLE
  2
DIMSTYLE
 70
     1
  0
DIMSTYLE
  2
STANDARD
 70
     0
  3

  4

  5

  6

  7

 40
1.0
 41
0.18
 42
0.0625
 43
0.38
 44
0.18
 45
0.0
 46
0.0
 47
0.0
 48
0.0
140
0.18
141
0.09
142
0.0
143
25.399999999999999
144
1.0
145
0.0
146
1.0
147
0.09
 71
     0
 72
     0
 73
     1
 74
     1
 75
     0
 76
     0
 77
     0
 78
     0
170
     0
171
     2
172
     0
173
     0
174
     0
175
     0
176
     0
177
     0
178
     0
  0
ENDTAB
  0
ENDSEC
  0
SECTION
  2
BLOCKS
  0
BLOCK
  8
0
  2
$MODEL_SPACE
 70
     0
 10
0.0
 20
0.0
 30
0.0
  3
$MODEL_SPACE
  1

  0
ENDBLK
  5
21
  8
0
  0
BLOCK
 67
     1
  8
0
  2
$PAPER_SPACE
 70
     0
 10
0.0
 20
0.0
 30
0.0
  3
$PAPER_SPACE
  1

  0
ENDBLK
  5
60
 67
     1
  8
0
  0
ENDSEC
  0
SECTION
  2
ENTITIES
  0
LINE
  5
2583
  8
0
  6
CENTER
 10
-115.03137
 20
0.0
 30
0.0
 11
115.03137
 21
0.0
 31
0.0
  0
LINE
  5
2584
  8
0
 10
89.727374999999924
 20
4.0000049999998728
 30
0.0
 11
121.0000049999998
 21
4.0000049999998728
 31
0.0
  0
LINE
  5
2587
  8
0
 10
186.7056206741087
 20
106.95664500000019
 30
0.0
 11
186.7056206741087
 21
-108.87255
 31
0.0
  0
LINE
  5
2588
  8
0
 10
174.7056206741087
 20
-18.499995000000119
 30
0.0
 11
179.50562067410871
 21
-18.499995000000119
 31
0.0
  0
LINE
  5
2589
  8
0
 10
174.7056206741087
 20
4.0000049999998728
 30
0.0
 11
179.50562067410871
 21
4.0000049999998728
 31
0.0
  0
LINE
  5
258A
  8
0
 10
174.7056206741087
 20
-4.0000049999998728
 30
0.0
 11
179.50562067410871
 21
-4.0000049999998728
 31
0.0
  0
LINE
  5
258B
  8
0
 10
193.9056206741088
 20
4.0000049999998728
 30
0.0
 11
198.70562067410879
 21
4.0000049999998728
 31
0.0
  0
LINE
  5
258C
  8
0
 10
193.9056206741088
 20
-4.0000049999998728
 30
0.0
 11
198.70562067410879
 21
-4.0000049999998728
 31
0.0
  0
LINE
  5
258D
  8
0
 10
193.9056206741088
 20
-18.499995000000119
 30
0.0
 11
198.70562067410879
 21
-18.499995000000119
 31
0.0
  0
LINE
  5
258E
  8
0
 10
181.7056256741086
 20
15.720929999999949
 30
0.0
 11
181.7056256741086
 21
-16.84016999999994
 31
0.0
  0
LINE
  5
258F
  8
0
 10
191.7056156741086
 20
15.720929999999949
 30
0.0
 11
191.7056156741086
 21
-16.84016999999994
 31
0.0
  0
LINE
  5
2590
  8
0
  6
CENTER
 10
169.73897067410871
 20
-11.25
 30
0.0
 11
200.18099067410861
 21
-11.25
 31
0.0
  0
LINE
  5
2596
  8
0
 10
180.50562567410859
 20
-7.7500049999998728
 30
0.0
 11
181.7056256741086
 21
-7.7500049999998728
 31
0.0
  0
LINE
  5
2597
  8
0
 10
180.50562567410859
 20
-14.749995000000119
 30
0.0
 11
181.7056256741086
 21
-14.749995000000119
 31
0.0
  0
LINE
  5
2598
  8
0
 10
172.7056256741086
 20
-6.2500049999998728
 30
0.0
 11
173.7056156741086
 21
-6.2500049999998728
 31
0.0
  0
LINE
  5
2599
  8
0
 10
172.7056256741086
 20
-16.249995000000119
 30
0.0
 11
173.7056156741086
 21
-16.249995000000119
 31
0.0
  0
LINE
  5
259A
  8
0
  6
CENTER
 10
167.85920067410871
 20
0.0
 30
0.0
 11
209.67651567410871
 21
0.0
 31
0.0
  0
LINE
  5
259B
  8
0
 10
179.44595067410859
 20
101.5000049999998
 30
0.0
 11
193.9653206741086
 21
101.5000049999998
 31
0.0
  0
LINE
  5
259C
  8
0
 10
173.7056156741086
 20
97.742295000000027
 30
0.0
 11
173.7056156741086
 21
-97.742280000000164
 31
0.0
  0
LINE
  5
259D
  8
0
 10
199.7056256741086
 20
97.742295000000027
 30
0.0
 11
199.7056256741086
 21
-97.742280000000164
 31
0.0
  0
LINE
  5
259E
  8
0
 10
173.7659306741086
 20
91.665689999999813
 30
0.0
 11
176.62688067410861
 21
99.526080000000107
 31
0.0
  0
LINE
  5
259F
  8
0
 10
199.64531067410871
 20
91.665704999999889
 30
0.0
 11
196.78436067410871
 21
99.526095000000169
 31
0.0
  0
LINE
  5
25A0
  8
0
 10
180.50562567410859
 20
15.513284999999991
 30
0.0
 11
180.50562567410859
 21
4.9999950000001263
 31
0.0
  0
LINE
  5
25A1
  8
0
 10
180.50562567410859
 20
-4.9999950000001263
 30
0.0
 11
180.50562567410859
 21
-17.50000499999987
 31
0.0
  0
LINE
  5
25A2
  8
0
 10
192.9056456741086
 20
-4.9999950000001263
 30
0.0
 11
192.9056456741086
 21
-17.50000499999987
 31
0.0
  0
LINE
  5
25A3
  8
0
 10
192.9056456741086
 20
15.513315000000141
 30
0.0
 11
192.9056456741086
 21
4.9999950000001263
 31
0.0
  0
LINE
  5
25A4
  8
0
  6
CENTER
 10
166.64885067410859
 20
91.942289999999957
 30
0.0
 11
210.1046456741087
 21
91.942289999999957
 31
0.0
  0
LINE
  5
25A5
  8
0
 10
172.7056256741086
 20
96.942285000000084
 30
0.0
 11
173.7056156741086
 21
96.942285000000084
 31
0.0
  0
LINE
  5
25A6
  8
0
 10
172.7056256741086
 20
86.942294999999817
 30
0.0
 11
173.7056156741086
 21
86.942294999999817
 31
0.0
  0
LINE
  5
25A7
  8
0
 10
176.7056156741086
 20
100.742295
 30
0.0
 11
177.4529156741086
 21
100.742295
 31
0.0
  0
LINE
  5
25A8
  8
0
 10
195.95832567410861
 20
100.742295
 30
0.0
 11
196.7056256741086
 21
100.742295
 31
0.0
  0
LINE
  5
25A9
  8
0
 10
172.7056256741086
 20
-86.942279999999982
 30
0.0
 11
173.7056156741086
 21
-86.942279999999982
 31
0.0
  0
LINE
  5
25AA
  8
0
 10
196.06592067410881
 20
-97.536195000000134
 30
0.0
 11
196.06592067410881
 21
-18.499995000000119
 31
0.0
  0
LINE
  5
25AB
  8
0
 10
177.34533567410881
 20
-97.946640000000116
 30
0.0
 11
177.34533567410881
 21
-18.499995000000119
 31
0.0
  0
LINE
  5
25AC
  8
0
  6
CENTER
 10
166.64885067410859
 20
-91.942275000000095
 30
0.0
 11
210.1046456741087
 21
-91.942275000000095
 31
0.0
  0
LINE
  5
25AD
  8
0
 10
195.95832567410861
 20
-100.74228000000009
 30
0.0
 11
196.7056256741086
 21
-100.74228000000009
 31
0.0
  0
LINE
  5
25AE
  8
0
 10
176.7056156741086
 20
-100.74228000000009
 30
0.0
 11
177.4529156741086
 21
-100.74228000000009
 31
0.0
  0
LINE
  5
25AF
  8
0
 10
179.44595067410859
 20
-101.49999
 30
0.0
 11
193.9653206741086
 21
-101.49999
 31
0.0
  0
LINE
  5
25B0
  8
0
 10
173.7659306741086
 20
-91.665690000000041
 30
0.0
 11
176.62688067410861
 21
-99.526065000000017
 31
0.0
  0
LINE
  5
25B3
  8
0
 10
199.6453256741087
 20
-91.665690000000041
 30
0.0
 11
196.78439067410861
 21
-99.526050000000168
 31
0.0
  0
LINE
  5
25B4
  8
0
 10
172.7056256741086
 20
-96.942285000000084
 30
0.0
 11
173.7056156741086
 21
-96.942285000000084
 31
0.0
  0
LINE
  5
25B5
  8
0
 10
191.7056156741086
 20
-14.749995000000119
 30
0.0
 11
192.9056456741086
 21
-14.749995000000119
 31
0.0
  0
LINE
  5
25B6
  8
0
 10
191.7056156741086
 20
-7.7500049999998728
 30
0.0
 11
192.9056456741086
 21
-7.7500049999998728
 31
0.0
  0
LINE
  5
25B9
  8
0
  6
CENTER
 10
-56.399999999999856
 20
-97.687680000000015
 30
0.0
 11
0.0
 21
0.0
 31
0.0
  0
LINE
  5
25BA
  8
0
 10
86.336174999999898
 20
-10.72677000000021
 30
0.0
 11
99.799784999999943
 21
-18.49998000000005
 31
0.0
  0
LINE
  5
25BB
  8
0
  6
CENTER
 10
113.5000049999998
 20
74.246790000000146
 30
0.0
 11
113.5000049999998
 21
-20.705428197823942
 31
0.0
  0
LINE
  5
25BC
  8
0
 10
118.5
 20
4.0000049999999874
 30
0.0
 11
118.5
 21
-4.0000049999998728
 31
0.0
  0
LINE
  5
25BD
  8
0
 10
102.2643599999998
 20
-18.499995000000119
 30
0.0
 11
121.0000049999998
 21
-18.499995000000119
 31
0.0
  0
LINE
  5
25BE
  8
0
  6
CENTER
 10
105.9311089453178
 20
-11.25
 30
0.0
 11
120.72978547549749
 21
-11.25
 31
0.0
  0
LINE
  5
25C0
  8
0
 10
89.727374999999924
 20
-4.0000049999998728
 30
0.0
 11
121.0000049999998
 21
-4.0000049999998728
 31
0.0
  0
LINE
  5
25C1
  8
0
 10
108.4999949999998
 20
-4.0000049999998728
 30
0.0
 11
108.4999949999999
 21
4.0000049999998728
 31
0.0
  0
LINE
  5
25C6
  8
0
 10
109.4999999999999
 20
44.720925000000079
 30
0.0
 11
117.4999949999999
 21
44.720925000000079
 31
0.0
  0
LINE
  5
25C9
  8
0
 10
121.9999949999998
 20
17.499995000000009
 30
0.0
 11
121.9999949999998
 21
4.9999950000001263
 31
0.0
  0
LINE
  5
25CA
  8
0
 10
121.9999949999998
 20
-4.9999950000001263
 30
0.0
 11
121.9999949999998
 21
-17.50000499999987
 31
0.0
  0
LINE
  5
25CB
  8
0
 10
104.5000049999998
 20
-4.0000049999998728
 30
0.0
 11
104.5000049999998
 21
-18.499995000000119
 31
0.0
  0
LINE
  5
25CC
  8
0
 10
102.2643599999998
 20
18.499995000000119
 30
0.0
 11
120.9999949999998
 21
18.499995000000009
 31
0.0
  0
LINE
  5
25CF
  8
0
 10
108.49997999999999
 20
43.720949999999903
 30
0.0
 11
109.4999849999999
 21
44.720940000000148
 31
0.0
  0
LINE
  5
25D8
  8
0
 10
-44.126655000000021
 20
-87.897705000000073
 30
0.0
 11
-45.188744999999919
 21
-75.757904999999937
 31
0.0
  0
LINE
  5
25D9
  8
0
 10
-44.454674999999952
 20
-78.411375000000135
 30
0.0
 11
-43.018454999999904
 21
-94.827494999999999
 31
0.0
  0
LINE
  5
25DB
  8
0
 10
-62.483609999999999
 20
-80.659020000000055
 30
0.0
 11
-57.44417999999996
 21
-91.466145000000097
 31
0.0
  0
LINE
  5
25DC
  8
0
 10
-38.61100499999997
 20
-94.441890000000058
 30
0.0
 11
-50.489910000000002
 21
-95.481165000000146
 31
0.0
  0
LINE
  5
25DD
  8
0
 10
-43.013924999999972
 20
-77.013554999999997
 30
0.0
 11
-43.881089999999851
 21
-77.41791000000012
 31
0.0
  0
LINE
  5
25DE
  8
0
 10
-31.15440000000012
 20
-86.930640000000054
 30
0.0
 11
-42.448814999999968
 21
-92.197319999999976
 31
0.0
  0
LINE
  5
25DF
  8
0
 10
-54.241770000000088
 20
-75.525705000000016
 30
0.0
 11
-62.977755000000109
 21
-79.599345000000085
 31
0.0
  0
LINE
  5
25E0
  8
0
 10
174.7056206741087
 20
18.499995000000119
 30
0.0
 11
177.75410067410871
 21
18.499995000000119
 31
0.0
  0
LINE
  5
25E1
  8
0
 10
180.25574067410861
 20
16.17459000000008
 30
0.0
 11
178.50422067410861
 21
18.161309999999951
 31
0.0
  0
LINE
  5
25E3
  8
0
 10
198.70562067410879
 20
18.499995000000119
 30
0.0
 11
195.6571406741086
 21
18.499995000000119
 31
0.0
  0
LINE
  5
25E4
  8
0
 10
193.1555156741087
 20
16.174605000000149
 30
0.0
 11
194.9070356741087
 21
18.161309999999951
 31
0.0
  0
LINE
  5
25E6
  8
0
 10
122.2499999999999
 20
22.09094999999979
 30
0.0
 11
122.2499999999999
 21
25.041435000000089
 31
0.0
  0
LINE
  5
25E7
  8
0
 10
123.589725
 20
30.04144499999984
 30
0.0
 11
126.012075
 21
34.237079999999871
 31
0.0
  0
LINE
  5
25E8
  8
0
 10
132.0
 20
52.220925000000079
 30
0.0
 11
132.0
 21
60.436485000000168
 31
0.0
  0
LINE
  5
25EB
  8
0
 10
94.999994999999899
 20
52.220925000000079
 30
0.0
 11
94.999994999999899
 21
60.436485000000168
 31
0.0
  0
LINE
  5
25ED
  8
0
 10
104.7499949999999
 20
22.09094999999979
 30
0.0
 11
104.7499949999999
 21
25.041435000000089
 31
0.0
  0
LINE
  5
25EE
  8
0
 10
103.41025500000001
 20
30.04142999999976
 30
0.0
 11
100.9879049999999
 21
34.237064999999802
 31
0.0
  0
LINE
  5
25F1
  8
0
 10
122.9739299999998
 20
61.43572499999982
 30
0.0
 11
127.97392499999999
 21
63.255569999999807
 31
0.0
  0
LINE
  5
25F2
  8
0
 10
104.026065
 20
61.435709999999737
 30
0.0
 11
99.026039999999966
 21
63.255569999999807
 31
0.0
  0
LINE
  5
25F3
  8
0
 10
108.4999949999998
 20
41.718405000000082
 30
0.0
 11
108.3304499999999
 21
41.718405000000082
 31
0.0
  0
LINE
  5
25F4
  8
0
 10
118.6695299999998
 20
41.718405000000082
 30
0.0
 11
109.0000049999998
 21
41.718405000000082
 31
0.0
  0
LINE
  5
25F5
  8
0
 10
122.325945
 20
26.271615000000111
 30
0.0
 11
121.66542
 21
38.875410000000102
 31
0.0
  0
LINE
  5
25F6
  8
0
 10
104.67404999999999
 20
26.271615000000111
 30
0.0
 11
105.334575
 21
38.875410000000102
 31
0.0
  0
LINE
  5
25F7
  8
0
 10
121.0000049999998
 20
44.718405000000068
 30
0.0
 11
121.0000049999998
 21
58.616639999999727
 31
0.0
  0
LINE
  5
25F8
  8
0
 10
106.0000049999998
 20
44.718405000000068
 30
0.0
 11
106.0000049999998
 21
58.616639999999727
 31
0.0
  0
LINE
  5
25FA
  8
0
 10
118.5
 20
43.720949999999903
 30
0.0
 11
117.4999949999999
 21
44.720954999999769
 31
0.0
  0
LINE
  5
25FB
  8
0
 10
118.5
 20
43.720934999999827
 30
0.0
 11
118.5
 21
41.718405000000082
 31
0.0
  0
ARC
  5
25FD
  8
0
 10
186.7056206741087
 20
-11.25
 30
0.0
 40
7.5
 50
228.18967999999299
 51
311.81030999998859
  0
ARC
  5
25FE
  8
0
 10
178.8127706741088
 20
-11.25
 30
0.0
 40
7.892857049999999
 50
140.69234999999401
 51
219.30765000000591
  0
ARC
  5
25FF
  8
0
 10
179.44595067410859
 20
98.500004999999874
 30
0.0
 40
3.0
 50
90.00000299999769
 51
160.00000000001009
  0
ARC
  5
2600
  8
0
 10
193.9653206741086
 20
98.500004999999874
 30
0.0
 40
3.0
 50
19.999999000005729
 51
90.00000299999769
  0
ARC
  5
2601
  8
0
 10
174.7056206741087
 20
91.323675000000094
 30
0.0
 40
1.000000035
 50
160.00000000001009
 51
180.000010000001
  0
ARC
  5
2602
  8
0
 10
198.70562067410879
 20
91.323675000000094
 30
0.0
 40
1.000000035
 50
0.0
 51
19.999999000005729
  0
ARC
  5
2603
  8
0
 10
198.70562067410879
 20
17.50000499999987
 30
0.0
 40
1.000000035
 50
0.0
 51
90.00000299999769
  0
ARC
  5
2604
  8
0
 10
198.70562067410879
 20
4.9999950000001263
 30
0.0
 40
1.000000035
 50
270.0
 51
0.0
  0
ARC
  5
2605
  8
0
 10
179.50562067410871
 20
4.9999950000001263
 30
0.0
 40
1.000000035
 50
270.0
 51
0.0
  0
ARC
  5
2606
  8
0
 10
174.7056206741087
 20
4.9999950000001263
 30
0.0
 40
1.000000035
 50
179.99998999999889
 51
270.0
  0
ARC
  5
2607
  8
0
 10
174.7056206741087
 20
17.50000499999987
 30
0.0
 40
1.000000035
 50
90.00000299999769
 51
180.000010000001
  0
ARC
  5
2608
  8
0
 10
193.9056206741088
 20
4.9999950000001263
 30
0.0
 40
1.000000035
 50
179.99998999999889
 51
270.0
  0
ARC
  5
2609
  8
0
 10
174.7056206741087
 20
-4.9999950000001263
 30
0.0
 40
1.000000035
 50
90.00000299999769
 51
180.000010000001
  0
ARC
  5
260A
  8
0
 10
179.50562067410871
 20
-4.9999950000001263
 30
0.0
 40
1.000000035
 50
0.0
 51
90.00000299999769
  0
ARC
  5
260B
  8
0
 10
193.9056206741088
 20
-4.9999950000001263
 30
0.0
 40
1.000000035
 50
90.00000299999769
 51
180.000010000001
  0
ARC
  5
260C
  8
0
 10
198.70562067410879
 20
-4.9999950000001263
 30
0.0
 40
1.000000035
 50
0.0
 51
90.00000299999769
  0
ARC
  5
260D
  8
0
 10
198.70562067410879
 20
-17.50000499999987
 30
0.0
 40
1.000000035
 50
270.0
 51
0.0
  0
ARC
  5
260E
  8
0
 10
193.9056206741088
 20
-17.50000499999987
 30
0.0
 40
1.000000035
 50
179.99998999999889
 51
270.0
  0
ARC
  5
260F
  8
0
 10
179.50562067410871
 20
-17.50000499999987
 30
0.0
 40
1.000000035
 50
270.0
 51
0.0
  0
ARC
  5
2610
  8
0
 10
174.7056206741087
 20
-17.50000499999987
 30
0.0
 40
1.000000035
 50
179.99998999999889
 51
270.0
  0
ARC
  5
2611
  8
0
 10
178.8127706741088
 20
91.942289999999957
 30
0.0
 40
7.892857049999999
 50
140.69234999999401
 51
219.30765000000591
  0
ARC
  5
2612
  8
0
 10
176.7056156741086
 20
97.742295000000027
 30
0.0
 40
3.0
 50
90.00000299999769
 51
180.000010000001
  0
ARC
  5
2613
  8
0
 10
196.7056256741086
 20
97.742295000000027
 30
0.0
 40
3.0
 50
0.0
 51
90.00000299999769
  0
ARC
  5
2614
  8
0
 10
176.7056156741086
 20
-97.742280000000164
 30
0.0
 40
3.0
 50
179.99998999999889
 51
270.0
  0
ARC
  5
2615
  8
0
 10
196.7056256741086
 20
-97.742280000000164
 30
0.0
 40
3.0
 50
270.0
 51
0.0
  0
ARC
  5
2616
  8
0
 10
179.44595067410859
 20
-98.499990000000025
 30
0.0
 40
3.0
 50
199.9999999999898
 51
270.0
  0
ARC
  5
2617
  8
0
 10
193.9653206741086
 20
-98.499990000000025
 30
0.0
 40
3.0
 50
270.0
 51
340.00000000001012
  0
ARC
  5
2618
  8
0
 10
178.8127706741088
 20
-91.942275000000095
 30
0.0
 40
7.892857049999999
 50
140.69234999999401
 51
219.30765000000591
  0
ARC
  5
2619
  8
0
 10
174.7056206741087
 20
-91.323675000000094
 30
0.0
 40
1.000000035
 50
179.99998999999889
 51
199.9999999999898
  0
ARC
  5
261A
  8
0
 10
198.70562067410879
 20
-91.323675000000094
 30
0.0
 40
1.000000035
 50
340.00000000001012
 51
0.0
  0
ARC
  5
261E
  8
0
 10
0.0
 20
0.0
 30
0.0
 40
101.4999959999999
 50
244.7588500000027
 51
348.12707999998878
  0
ARC
  5
2622
  8
0
 10
0.0
 20
0.0
 30
0.0
 40
91.5
 50
251.56313000000381
 51
349.07198999999753
  0
ARC
  5
2623
  8
0
 10
0.0
 20
0.0
 30
0.0
 40
87.0
 50
242.4322699999922
 51
355.5391600000076
  0
ARC
  5
2625
  8
0
 10
89.727374999999924
 20
-7.0000049999998728
 30
0.0
 40
3.0
 50
90.00000299999769
 51
175.5391499999898
  0
ARC
  5
2626
  8
0
 10
89.727374999999924
 20
7.0000049999998728
 30
0.0
 40
3.0
 50
184.46085000001011
 51
270.0
  0
ARC
  5
2627
  8
0
 10
102.2643599999998
 20
21.499995000000119
 30
0.0
 40
3.0
 50
191.87291000001221
 51
270.0
  0
ARC
  5
2628
  8
0
 10
102.2643599999998
 20
-21.499995000000119
 30
0.0
 40
3.0
 50
90.00000299999769
 51
168.1270899999877
  0
ARC
  5
2629
  8
0
 10
92.786339999999868
 20
-17.914874999999931
 30
0.0
 40
3.0
 50
60.000002000001302
 51
169.07198999999761
  0
ARC
  5
262D
  8
0
 10
113.5000049999998
 20
-11.25
 30
0.0
 40
7.5
 50
255.16489000000109
 51
284.83526076674082
  0
ARC
  5
262E
  8
0
 10
121.0000049999998
 20
4.9999950000001263
 30
0.0
 40
1.000000035
 50
270.0
 51
0.0
  0
ARC
  5
262F
  8
0
 10
121.0000049999998
 20
-4.9999950000001263
 30
0.0
 40
1.000000035
 50
0.0
 51
90.00000299999769
  0
ARC
  5
2630
  8
0
 10
121.0000049999998
 20
-17.50000499999987
 30
0.0
 40
1.000000035
 50
270.0
 51
0.0
  0
ARC
  5
2633
  8
0
  6
CENTER
 10
0.0
 20
0.0
 30
0.0
 40
102.1999965
 50
235.9556499999932
 51
245.98477999999821
  0
ARC
  5
2641
  8
0
 10
-67.015139999999974
 20
-82.772100000000137
 30
0.0
 40
4.9999999500000003
 50
25.000000000006629
 51
51.00518900000452
  0
ARC
  5
2642
  8
0
 10
-38.175165000000099
 20
-99.422865000000016
 30
0.0
 40
4.9999999500000003
 50
68.994814000003288
 51
95.000002000005082
  0
ARC
  5
2643
  8
0
 10
-43.458480000000009
 20
-78.324225000000055
 30
0.0
 40
1.000000035
 50
114.9999999999949
 51
184.99999999999969
  0
ARC
  5
2644
  8
0
 10
-48.177300000000059
 20
-76.019385000000057
 30
0.0
 40
3.0
 50
4.9999999000106641
 51
57.635506000004348
  0
ARC
  5
2647
  8
0
 10
-41.74608000000012
 20
-79.732470000000134
 30
0.0
 40
3.0
 50
62.364496999998948
 51
114.9999999999949
  0
ARC
  5
264A
  8
0
 10
-29.886524999999889
 20
-89.649570000000026
 30
0.0
 40
3.0
 50
71.563136000002075
 51
114.9999999999949
  0
ARC
  5
264B
  8
0
 10
-54.664395000000013
 20
-74.619404999999915
 30
0.0
 40
1.000000035
 50
294.99999999999488
 51
53.774389999995613
  0
ARC
  5
264D
  8
0
 10
177.75410067410871
 20
17.50000499999987
 30
0.0
 40
1.000000035
 50
41.399999999994122
 51
90.00000299999769
  0
ARC
  5
264E
  8
0
 10
179.50562067410871
 20
15.513284999999991
 30
0.0
 40
1.000000035
 50
0.0
 51
41.399999999994122
  0
ARC
  5
264F
  8
0
 10
193.9056206741088
 20
15.513315000000141
 30
0.0
 40
1.000000035
 50
138.60000000000579
 51
180.000010000001
  0
ARC
  5
2650
  8
0
 10
195.6571406741086
 20
17.50000499999987
 30
0.0
 40
1.000000035
 50
89.999995999994397
 51
138.60000000000579
  0
ARC
  5
2651
  8
0
 10
113.5000049999998
 20
22.09094999999979
 30
0.0
 40
8.7500002499999994
 50
335.05720839014327
 51
0.0
  0
ARC
  5
2652
  8
0
 10
113.5000049999998
 20
22.09094999999979
 30
0.0
 40
8.7500002499999994
 50
180.000010000001
 51
204.22964078483619
  0
ARC
  5
2653
  8
0
 10
124.9999949999998
 20
52.220925000000079
 30
0.0
 40
30.0
 50
180.000010000001
 51
216.83138999998991
  0
ARC
  5
2654
  8
0
 10
102.0
 20
52.220925000000079
 30
0.0
 40
30.0
 50
323.16859999999332
 51
0.0
  0
ARC
  5
2655
  8
0
 10
129.0
 20
60.436485000000168
 30
0.0
 40
3.0
 50
0.0
 51
110.0000000000021
  0
ARC
  5
2656
  8
0
 10
97.999994999999913
 20
60.436485000000168
 30
0.0
 40
3.0
 50
69.999999999997826
 51
180.000010000001
  0
ARC
  5
2657
  8
0
 10
94.750004999999874
 20
25.041435000000089
 30
0.0
 40
9.9999997499999989
 50
0.0
 51
29.999996999991328
  0
ARC
  5
2658
  8
0
 10
132.25000499999979
 20
25.041435000000089
 30
0.0
 40
9.9999997499999989
 50
150.0000000000002
 51
180.000010000001
  0
ARC
  5
2659
  8
0
 10
108.3304499999999
 20
38.718405000000068
 30
0.0
 40
3.0
 50
90.00000299999769
 51
176.9999899999936
  0
ARC
  5
265A
  8
0
 10
118.6695299999998
 20
38.718405000000068
 30
0.0
 40
3.0
 50
3.0000009000098382
 51
90.00000299999769
  0
ARC
  5
265B
  8
0
 10
118.0000049999998
 20
44.718405000000068
 30
0.0
 40
3.0
 50
270.0
 51
0.0
  0
ARC
  5
265C
  8
0
 10
109.0000049999998
 20
44.718405000000068
 30
0.0
 40
3.0
 50
180.000010000001
 51
270.0
  0
ARC
  5
265D
  8
0
 10
103.0000049999998
 20
58.616639999999727
 30
0.0
 40
3.0
 50
0.0
 51
69.999999999997826
  0
ARC
  5
265E
  8
0
 10
124.0000049999998
 20
58.616639999999727
 30
0.0
 40
3.0
 50
110.0000000000021
 51
180.000010000001
  0
LINE
  5
2665
  8
0
 10
180.7068220641508
 20
15.720929999999949
 30
0.0
 11
192.70442308406669
 21
15.720929999999949
 31
0.0
  0
LINE
  5
2666
  8
0
 10
177.9556203678587
 20
22.090932922949829
 30
0.0
 11
177.9556203678587
 21
27.72088441999858
 31
0.0
  0
LINE
  5
2668
  8
0
 10
195.45562098035859
 20
22.090932922949829
 30
0.0
 11
195.45562098035859
 21
27.720945420000589
 31
0.0
  0
LINE
  5
2669
  8
0
 10
177.9556241678587
 20
27.72093542000038
 30
0.0
 11
178.53444098811741
 21
38.765419806557013
 31
0.0
  0
LINE
  5
266A
  8
0
 10
183.85562207435871
 20
30.570928519749941
 30
0.0
 11
183.85562207435871
 21
60.314002560757217
 31
0.0
  0
LINE
  5
266B
  8
0
 10
195.45562048035859
 20
27.720928419999829
 30
0.0
 11
194.8768031601
 21
38.765419806557013
 31
0.0
  0
LINE
  5
266C
  8
0
 10
181.5303274929733
 20
41.608412906061851
 30
0.0
 11
183.85562207435871
 21
41.608412906061851
 31
0.0
  0
LINE
  5
266D
  8
0
 10
189.55561927385861
 20
41.608412906061851
 30
0.0
 11
191.88091765524399
 21
41.608412906061851
 31
0.0
  0
LINE
  5
266E
  8
0
 10
185.84325873392589
 20
63.43648467004413
 30
0.0
 11
187.56798261429131
 21
63.43648467004413
 31
0.0
  0
LINE
  5
266F
  8
0
 10
189.4622678705914
 20
60.73589157552351
 30
0.0
 11
188.47462933602401
 21
62.858375649810569
 31
0.0
  0
LINE
  5
2670
  8
0
 10
183.94897197762609
 20
60.735883575523069
 30
0.0
 11
184.9366105121932
 21
62.858367649810127
 31
0.0
  0
LINE
  5
2671
  8
0
 10
189.55561927385861
 20
30.570928519749941
 30
0.0
 11
189.55561927385861
 21
60.314002560757217
 31
0.0
  0
ARC
  5
2672
  8
0
 10
186.7056206741087
 20
22.090932922949829
 30
0.0
 40
8.7500003062499996
 50
313.28101999999859
 51
0.0
  0
ARC
  5
2673
  8
0
 10
186.7056206741087
 20
22.090932922949829
 30
0.0
 40
8.7500003062499996
 50
180.000010000001
 51
226.7189800000013
  0
ARC
  5
2674
  8
0
 10
186.7056206741087
 20
30.570928519749941
 30
0.0
 40
2.8499999997499961
 50
179.99998999999889
 51
0.0000043257204681
  0
ARC
  5
2675
  8
0
 10
186.7056206741087
 20
24.070932592249839
 30
0.0
 40
6.0000002099999987
 50
131.81032000000681
 51
160.52877000001209
  0
ARC
  5
2676
  8
0
 10
181.5303274929733
 20
38.608412801061597
 30
0.0
 40
3.0000001049999989
 50
90.00000299999769
 51
176.9999899999936
  0
ARC
  5
2677
  8
0
 10
191.88091765524399
 20
38.608412801061597
 30
0.0
 40
3.0000001049999989
 50
3.0000009000098382
 51
90.00000299999769
  0
ARC
  5
2678
  8
0
 10
184.85562210935879
 20
60.314002560757217
 30
0.0
 40
1.000000035
 50
155.04639999998739
 51
180.000010000001
  0
ARC
  5
2679
  8
0
 10
185.84325873392589
 20
62.436484635044508
 30
0.0
 40
1.000000035
 50
90.00000299999769
 51
155.04639999998739
  0
ARC
  5
267A
  8
0
 10
187.56798261429131
 20
62.436484635044508
 30
0.0
 40
1.000000035
 50
24.953596000001131
 51
90.00000299999769
  0
ARC
  5
267B
  8
0
 10
188.5556192388585
 20
60.314002560757217
 30
0.0
 40
1.000000035
 50
0.0
 51
24.953596000001131
  0
ARC
  5
267D
  8
0
 10
186.7056206741087
 20
24.070932592249839
 30
0.0
 40
6.0000002099999987
 50
19.471222000003451
 51
48.189682999997842
  0
ARC
  5
2C3C
  8
0
 10
120.9999949999998
 20
17.499995000000009
 30
0.0
 40
1.0
 50
0.0
 51
90.0
  0
LINE
  5
2C3D
  8
0
 10
108.4999949999998
 20
41.760366798776197
 30
0.0
 11
108.4999949999998
 21
43.720934999999827
 31
0.0
  0
LINE
  5
2C3E
  8
0
  6
CENTER
 10
-0.0000000000000284
 20
-122.3071345757678
 30
0.0
 11
-0.0000000000000284
 21
122.3071345757678
 31
0.0
  0
LINE
  5
2C3F
  8
0
  6
CENTER
 10
-56.399999999999856
 20
97.687680000000015
 30
0.0
 11
0.0
 21
0.0
 31
0.0
  0
LINE
  5
2C40
  8
0
 10
86.336174999999898
 20
10.72677000000021
 30
0.0
 11
99.799784999999943
 21
18.49998000000005
 31
0.0
  0
LINE
  5
2C41
  8
0
 10
-44.126655000000021
 20
87.897705000000073
 30
0.0
 11
-45.188744999999919
 21
75.757904999999937
 31
0.0
  0
LINE
  5
2C42
  8
0
 10
-44.454674999999952
 20
78.411375000000135
 30
0.0
 11
-43.018454999999904
 21
94.827494999999999
 31
0.0
  0
LINE
  5
2C43
  8
0
 10
-62.483609999999999
 20
80.659020000000055
 30
0.0
 11
-57.44417999999996
 21
91.466145000000097
 31
0.0
  0
LINE
  5
2C44
  8
0
 10
-38.61100499999997
 20
94.441890000000058
 30
0.0
 11
-50.489910000000002
 21
95.481165000000146
 31
0.0
  0
LINE
  5
2C45
  8
0
 10
-43.013924999999972
 20
77.013554999999997
 30
0.0
 11
-43.881089999999851
 21
77.41791000000012
 31
0.0
  0
LINE
  5
2C46
  8
0
 10
-31.15440000000012
 20
86.930640000000054
 30
0.0
 11
-42.448814999999968
 21
92.197319999999976
 31
0.0
  0
LINE
  5
2C47
  8
0
 10
-54.241770000000088
 20
75.525705000000016
 30
0.0
 11
-62.977755000000109
 21
79.599345000000085
 31
0.0
  0
ARC
  5
2C48
  8
0
 10
0.0
 20
0.0
 30
0.0
 40
101.4999959999999
 50
129.18228000000059
 51
230.8177199999968
  0
ARC
  5
2C49
  8
0
 10
0.0
 20
0.0
 30
0.0
 40
101.4999959999999
 50
11.87292000001114
 51
115.24114999999721
  0
ARC
  5
2C4A
  8
0
 10
0.0
 20
0.0
 30
0.0
 40
87.0
 50
122.7134599999888
 51
237.28654000000969
  0
ARC
  5
2C4B
  8
0
 10
0.0
 20
0.0
 30
0.0
 40
91.5
 50
126.2255999999938
 51
233.77440000000479
  0
ARC
  5
2C4C
  8
0
 10
0.0
 20
0.0
 30
0.0
 40
91.5
 50
10.928010000002381
 51
108.4368699999962
  0
ARC
  5
2C4D
  8
0
 10
0.0
 20
0.0
 30
0.0
 40
87.0
 50
4.4608399999923867
 51
117.5677300000077
  0
ARC
  5
2C4E
  8
0
 10
92.786339999999868
 20
17.914874999999931
 30
0.0
 40
3.0
 50
190.9280100000023
 51
299.9999979999987
  0
ARC
  5
2C4F
  8
0
  6
CENTER
 10
0.0
 20
0.0
 30
0.0
 40
102.1999965
 50
114.0152200000032
 51
124.0443500000094
  0
ARC
  5
2C50
  8
0
 10
-67.015139999999974
 20
82.772100000000137
 30
0.0
 40
4.9999999500000003
 50
308.99481099999548
 51
334.99999999999329
  0
ARC
  5
2C51
  8
0
 10
-38.175165000000099
 20
99.422865000000016
 30
0.0
 40
4.9999999500000003
 50
264.99999799999318
 51
291.00518599999668
  0
ARC
  5
2C52
  8
0
 10
-43.458480000000009
 20
78.324225000000055
 30
0.0
 40
1.000000035
 50
175.0000000000002
 51
245.000000000005
  0
ARC
  5
2C53
  8
0
 10
-48.177300000000059
 20
76.019385000000057
 30
0.0
 40
3.0
 50
302.36449399999429
 51
355.00000009998928
  0
ARC
  5
2C54
  8
0
 10
-41.74608000000012
 20
79.732470000000134
 30
0.0
 40
3.0
 50
245.000000000005
 51
297.63550300000099
  0
ARC
  5
2C55
  8
0
 10
-29.886524999999889
 20
89.649570000000026
 30
0.0
 40
3.0
 50
245.000000000005
 51
288.43686399999802
  0
ARC
  5
2C56
  8
0
 10
-54.664395000000013
 20
74.619404999999915
 30
0.0
 40
1.000000035
 50
306.22561000000172
 51
65.000000000005073
  0
TEXT
  5
2C94
  8
0
 10
64.340514774141639
 20
135.03876899093791
 30
0.0
 40
5.0
  1
13MHHM-3LW 6S
  0
CIRCLE
  5
2D7B
  8
0
 10
-51.100020000000079
 20
-88.507800000000088
 30
0.0
 40
3.0999998999999989
  0
CIRCLE
  5
2D7C
  8
0
 10
-51.100020000000079
 20
-88.507800000000088
 30
0.0
 40
6.9999997499999989
  0
CIRCLE
  5
2D7D
  8
0
 10
-51.100020000000079
 20
88.507800000000088
 30
0.0
 40
3.0999998999999989
  0
CIRCLE
  5
2D7E
  8
0
 10
-51.100020000000079
 20
88.507800000000088
 30
0.0
 40
6.9999997499999989
  0
CIRCLE
  5
2D7F
  8
0
 10
113.5000049999998
 20
-11.25
 30
0.0
 40
4.9999950000001272
  0
VIEWPORT
  5
79
 67
     1
  8
0
 10
5.2499996395561617
 20
3.9999998836066761
 30
0.0
 40
15.015580297613511
 41
8.5939224089826052
 68
     1
 69
     1
1001
ACAD
1000
MVIEW
1002
{
1070
    16
1010
0.0
1020
0.0
1030
0.0
1010
0.0
1020
0.0
1030
1.0
1040
0.0
1040
8.5939224089826052
1040
5.2499996395561617
1040
3.9999998836066761
1040
50.0
1040
0.0
1040
0.0
1070
     0
1070
   100
1070
     1
1070
     1
1070
     0
1070
     0
1070
     0
1070
     0
1040
0.0
1040
0.0
1040
0.0
1040
10.0
1040
10.0
1040
10.0
1040
10.0
1070
     0
1002
{
1002
}
1002
}
1001
GENIUS_GENOBJ-N-SDF_13
1002
{
1000
OWNER
1000
GEN
1002
}
1001
GENIUS_GENODEF_13
1002
{
1000
HIER
1070
     0
1002
}
1002
{
1000
MANEDIT
1070
     0
1002
}
1002
{
1000
NOSEL
1070
     0
1002
}
1002
{
1000
BEHIND
1070
     0
1002
}
1002
{
1000
OTHER
1070
     0
1002
}
1002
{
1000
REACTOR
1002
}
1001
GENIUS_GENSCREG_15
1000
PF
1040
1.0
1000
DF
1040
1.0
1000
MIN
1011
-2.2577905092505972
1021
-6.7267350803989429E+258
1031
0.0
1021
-0.2969613208846251
1031
0.0
1000
MAX
1011
12.757789788362921
1021
-6.7267350803989429E+258
1031
0.0
1021
8.2969610880979801
1031
0.0
1000
FLAGS
1070
     4
  0
VIEWPORT
  5
7B
 67
     1
  8
0
 10
5.24999976158142
 20
3.99999976158142
 30
0.0
 40
8.3999996185302717
 41
6.3999996185302717
 68
     2
 69
     2
1001
ACAD
1000
MVIEW
1002
{
1070
    16
1010
0.0
1020
0.0
1030
0.0
1010
0.0
1020
0.0
1030
1.0
1040
0.0
1040
9.2590797717467002
1040
6.0
1040
4.5
1040
50.0
1040
0.0
1040
0.0
1070
     0
1070
   100
1070
     1
1070
     3
1070
     0
1070
     0
1070
     0
1070
     0
1040
0.0
1040
0.0
1040
0.0
1040
0.5
1040
0.5
1040
0.5
1040
0.5
1070
     0
1002
{
1002
}
1002
}
1001
GENIUS_GENODEF_13
1002
{
1000
HIER
1070
     0
1002
}
1002
{
1000
MANEDIT
1070
     0
1002
}
1002
{
1000
NOSEL
1070
     0
1002
}
1002
{
1000
BEHIND
1070
     0
1002
}
1002
{
1000
OTHER
1070
     0
1002
}
1002
{
1000
REACTOR
1002
}
1001
GENIUS_GENOBJ-N-SDF_13
1002
{
1000
OWNER
1000
GEN
1002
}
1001
GENIUS_GENSCREG_15
1000
PF
1040
0.0
1000
DF
1040
0.0
1000
MIN
1011
1.049999952316284
1021
-6.7267350803989429E+258
1031
0.0
1021
0.7999999523162842
1031
0.0
1000
MAX
1011
9.4499995708465558
1021
-6.7267350803989429E+258
1031
0.0
1021
7.1999995708465558
1031
0.0
1000
FLAGS
1070
     4
  0
ENDSEC
  0
EOF
