  0
SECTION
  2
HEADER
  9
$ACADVER
  1
AC1009
  9
$INSBASE
 10
0.0
 20
0.0
 30
0.0
  9
$EXTMIN
 10
-103.40346749999991
 20
-108.14286417648449
 30
0.0
  9
$EXTMAX
 10
193.7454799472861
 20
114.7756258409902
 30
0.0
  9
$LIMMIN
 10
0.0
 20
0.0
  9
$LIMMAX
 10
12.0
 20
9.0
  9
$ORTHOMODE
 70
     0
  9
$REGENMODE
 70
     1
  9
$FILLMODE
 70
     1
  9
$QTEXTMODE
 70
     0
  9
$MIRRTEXT
 70
     1
  9
$DRAGMODE
 70
     2
  9
$LTSCALE
 40
1.0
  9
$OSMODE
 70
    37
  9
$ATTMODE
 70
     1
  9
$TEXTSIZE
 40
0.2
  9
$TRACEWID
 40
0.05
  9
$TEXTSTYLE
  7
STANDARD
  9
$CLAYER
  8
0
  9
$CELTYPE
  6
BYLAYER
  9
$CECOLOR
 62
   256
  9
$DIMSCALE
 40
1.0
  9
$DIMASZ
 40
0.18
  9
$DIMEXO
 40
0.0625
  9
$DIMDLI
 40
0.38
  9
$DIMRND
 40
0.0
  9
$DIMDLE
 40
0.0
  9
$DIMEXE
 40
0.18
  9
$DIMTP
 40
0.0
  9
$DIMTM
 40
0.0
  9
$DIMTXT
 40
0.18
  9
$DIMCEN
 40
0.09
  9
$DIMTSZ
 40
0.0
  9
$DIMTOL
 70
     0
  9
$DIMLIM
 70
     0
  9
$DIMTIH
 70
     1
  9
$DIMTOH
 70
     1
  9
$DIMSE1
 70
     0
  9
$DIMSE2
 70
     0
  9
$DIMTAD
 70
     0
  9
$DIMZIN
 70
     0
  9
$DIMBLK
  1

  9
$DIMASO
 70
     1
  9
$DIMSHO
 70
     1
  9
$DIMPOST
  1

  9
$DIMAPOST
  1

  9
$DIMALT
 70
     0
  9
$DIMALTD
 70
     2
  9
$DIMALTF
 40
25.399999999999999
  9
$DIMLFAC
 40
1.0
  9
$DIMTOFL
 70
     0
  9
$DIMTVP
 40
0.0
  9
$DIMTIX
 70
     0
  9
$DIMSOXD
 70
     0
  9
$DIMSAH
 70
     0
  9
$DIMBLK1
  1

  9
$DIMBLK2
  1

  9
$DIMSTYLE
  2
STANDARD
  9
$DIMCLRD
 70
     0
  9
$DIMCLRE
 70
     0
  9
$DIMCLRT
 70
     0
  9
$DIMTFAC
 40
1.0
  9
$DIMGAP
 40
0.09
  9
$LUNITS
 70
     2
  9
$LUPREC
 70
     4
  9
$SKETCHINC
 40
0.1
  9
$FILLETRAD
 40
1.0
  9
$AUNITS
 70
     0
  9
$AUPREC
 70
     0
  9
$MENU
  1
.
  9
$ELEVATION
 40
0.0
  9
$PELEVATION
 40
0.0
  9
$THICKNESS
 40
0.0
  9
$LIMCHECK
 70
     0
  9
$BLIPMODE
 70
     0
  9
$CHAMFERA
 40
0.5
  9
$CHAMFERB
 40
0.5
  9
$SKPOLY
 70
     0
  9
$TDCREATE
 40
2451955.1727028699
  9
$TDUPDATE
 40
2454732.6788463891
  9
$TDINDWG
 40
0.1000090278
  9
$TDUSRTIMER
 40
0.1000088542
  9
$USRTIMER
 70
     1
  9
$ANGBASE
 50
0.0
  9
$ANGDIR
 70
     0
  9
$PDMODE
 70
     0
  9
$PDSIZE
 40
0.0
  9
$PLINEWID
 40
0.0
  9
$COORDS
 70
     1
  9
$SPLFRAME
 70
     0
  9
$SPLINETYPE
 70
     6
  9
$SPLINESEGS
 70
     8
  9
$ATTDIA
 70
     0
  9
$ATTREQ
 70
     1
  9
$HANDLING
 70
 22529
  9
$HANDSEED
  5
2E38
  9
$SURFTAB1
 70
     6
  9
$SURFTAB2
 70
     6
  9
$SURFTYPE
 70
     6
  9
$SURFU
 70
     6
  9
$SURFV
 70
     6
  9
$UCSNAME
  2

  9
$UCSORG
 10
0.0
 20
0.0
 30
0.0
  9
$UCSXDIR
 10
1.0
 20
0.0
 30
0.0
  9
$UCSYDIR
 10
0.0
 20
1.0
 30
0.0
  9
$PUCSNAME
  2

  9
$PUCSORG
 10
0.0
 20
0.0
 30
0.0
  9
$PUCSXDIR
 10
1.0
 20
0.0
 30
0.0
  9
$PUCSYDIR
 10
0.0
 20
1.0
 30
0.0
  9
$USERI1
 70
     0
  9
$USERI2
 70
     0
  9
$USERI3
 70
     0
  9
$USERI4
 70
     0
  9
$USERI5
 70
     0
  9
$USERR1
 40
0.0
  9
$USERR2
 40
0.0
  9
$USERR3
 40
0.0
  9
$USERR4
 40
0.0
  9
$USERR5
 40
0.0
  9
$WORLDVIEW
 70
     1
  9
$SHADEDGE
 70
     3
  9
$SHADEDIF
 70
    70
  9
$TILEMODE
 70
     1
  9
$MAXACTVP
 70
    48
  9
$PLIMCHECK
 70
     0
  9
$PEXTMIN
 10
1.049636599258096
 20
0.7996597240971113
 30
-0.0015258207003583
  9
$PEXTMAX
 10
9.4503627310769716
 20
7.2003400826974584
 30
0.0000000349246037
  9
$PLIMMIN
 10
-0.2500002402958907
 20
-0.2499999962453767
  9
$PLIMMAX
 10
10.74999951940821
 20
8.2499997634587316
  9
$UNITMODE
 70
     0
  9
$VISRETAIN
 70
     1
  9
$PLINEGEN
 70
     0
  9
$PSLTSCALE
 70
     1
  0
ENDSEC
  0
SECTION
  2
TABLES
  0
TABLE
  2
VPORT
 70
     2
  0
VPORT
  2
*ACTIVE
 70
     0
 10
0.0
 20
0.0
 11
1.0
 21
1.0
 12
45.164842740284477
 22
3.3176538276208301
 13
0.0
 23
0.0
 14
0.5
 24
0.5
 15
0.5
 25
0.5
 16
0.0
 26
0.0
 36
1.0
 17
0.0
 27
0.0
 37
0.0
 40
224.7413877869721
 41
1.531806615776081
 42
50.0
 43
0.0
 44
0.0
 50
0.0
 51
0.0
 71
     0
 72
   100
 73
     1
 74
     3
 75
     0
 76
     0
 77
     0
 78
     0
  0
ENDTAB
  0
TABLE
  2
LTYPE
 70
     2
  0
LTYPE
  2
CONTINUOUS
 70
     0
  3
Solid line
 72
    65
 73
     0
 40
0.0
  0
LTYPE
  2
CENTER
 70
     0
  3
__ . __
 72
    65
 73
     4
 40
7.0
 49
4.0
 49
-1.0
 49
1.0
 49
-1.0
  0
ENDTAB
  0
TABLE
  2
LAYER
 70
     1
  0
LAYER
  2
0
 70
     0
 62
     7
  6
CONTINUOUS
  0
ENDTAB
  0
TABLE
  2
STYLE
 70
     1
  0
STYLE
  2
STANDARD
 70
     0
 40
0.0
 41
1.0
 50
0.0
 71
     0
 42
0.2
  3
txt
  4

  0
ENDTAB
  0
TABLE
  2
VIEW
 70
     0
  0
ENDTAB
  0
TABLE
  2
UCS
 70
     0
  0
ENDTAB
  0
TABLE
  2
APPID
 70
    19
  0
APPID
  2
ACAD
 70
     0
  0
APPID
  2
GENIUS_GENODEF_13
 70
     0
  0
APPID
  2
ACAD_DSTYLE_DIMARC_LENGTH_
 70
     0
  0
APPID
  2
ACAD_DSTYLE_DIMJOGGED_JOGA
 70
     0
  0
APPID
  2
GENIUS_GENOBJ-N-FIL_13
 70
     0
  0
APPID
  2
ACAD_MLEADERVER
 70
     0
  0
APPID
  2
MCAD_NO_VIS
 70
     0
  0
APPID
  2
ACAD_TEMP_GRAPHIC
 70
     0
  0
APPID
  2
AD_DRAW
 70
     0
  0
APPID
  2
ACATTRIBSERVICES
 70
     0
  0
APPID
  2
DESIGNERASSEMBLIES
 70
     0
  0
APPID
  2
ACADM_DIM_EDIT
 70
     0
  0
APPID
  2
AMDT_DM_ADJ
 70
     0
  0
APPID
  2
GENIUS_GENSCREG_15
 70
     0
  0
APPID
  2
GENIUS_GENOBJ-N-SDF_13
 70
     0
  0
APPID
  2
ACAD_DSTYLE_DIM_LINETYPE
 70
     0
  0
APPID
  2
ACAD_DSTYLE_DIM_EXT1_LINETYPE
 70
     0
  0
APPID
  2
ACAD_DSTYLE_DIM_EXT2_LINETYPE
 70
     0
  0
APPID
  2
ACAD_EXEMPT_FROM_CAD_STANDARDS
 70
     0
  0
ENDTAB
  0
TABLE
  2
DIMSTYLE
 70
     1
  0
DIMSTYLE
  2
STANDARD
 70
     0
  3

  4

  5

  6

  7

 40
1.0
 41
0.18
 42
0.0625
 43
0.38
 44
0.18
 45
0.0
 46
0.0
 47
0.0
 48
0.0
140
0.18
141
0.09
142
0.0
143
25.399999999999999
144
1.0
145
0.0
146
1.0
147
0.09
 71
     0
 72
     0
 73
     1
 74
     1
 75
     0
 76
     0
 77
     0
 78
     0
170
     0
171
     2
172
     0
173
     0
174
     0
175
     0
176
     0
177
     0
178
     0
  0
ENDTAB
  0
ENDSEC
  0
SECTION
  2
BLOCKS
  0
BLOCK
  8
0
  2
$MODEL_SPACE
 70
     0
 10
0.0
 20
0.0
 30
0.0
  3
$MODEL_SPACE
  1

  0
ENDBLK
  5
21
  8
0
  0
BLOCK
 67
     1
  8
0
  2
$PAPER_SPACE
 70
     0
 10
0.0
 20
0.0
 30
0.0
  3
$PAPER_SPACE
  1

  0
ENDBLK
  5
60
 67
     1
  8
0
  0
ENDSEC
  0
SECTION
  2
ENTITIES
  0
LINE
  5
2796
  8
0
  6
CENTER
 10
-103.40346749999991
 20
0.0
 30
0.0
 11
103.40346749999991
 21
0.0
 31
0.0
  0
LINE
  5
2797
  8
0
  6
CENTER
 10
0.0
 20
98.545402500000137
 30
0.0
 11
0.0
 21
-98.545402500000137
 31
0.0
  0
LINE
  5
2798
  8
0
 10
75.676934999999958
 20
4.0000050000001011
 30
0.0
 11
106.0000050000001
 21
4.0000050000001011
 31
0.0
  0
LINE
  5
2799
  8
0
 10
75.676934999999958
 20
-4.0000049999998728
 30
0.0
 11
106.0000050000001
 21
-4.0000049999998728
 31
0.0
  0
LINE
  5
279A
  8
0
  6
CENTER
 10
98.500005000000101
 20
50.537586947945563
 30
0.0
 11
98.500005000000101
 21
-23.121345000000019
 31
0.0
  0
LINE
  5
279B
  8
0
 10
103.5
 20
4.0000050000001011
 30
0.0
 11
103.4999999999999
 21
-4.0000049999998728
 31
0.0
  0
LINE
  5
279C
  8
0
 10
87.909044999999864
 20
-18.499994999999899
 30
0.0
 11
106.0000050000001
 21
-18.499994999999899
 31
0.0
  0
LINE
  5
279D
  8
0
  6
CENTER
 10
91.196929868271354
 20
-11.25
 30
0.0
 11
107.2377598748869
 21
-11.25
 31
0.0
  0
LINE
  5
279E
  8
0
  6
CENTER
 10
170.34645494728619
 20
94.218239999999909
 30
0.0
 11
170.34645494728619
 21
-92.458889999999883
 31
0.0
  0
LINE
  5
279F
  8
0
 10
158.34645494728619
 20
-18.499994999999899
 30
0.0
 11
163.1464549472862
 21
-18.499994999999899
 31
0.0
  0
LINE
  5
27A0
  8
0
 10
158.34645494728619
 20
18.499995000000119
 30
0.0
 11
161.39493494728609
 21
18.499995000000119
 31
0.0
  0
LINE
  5
27A1
  8
0
 10
158.34645494728619
 20
4.0000050000001011
 30
0.0
 11
163.1464549472862
 21
4.0000050000001011
 31
0.0
  0
LINE
  5
27A2
  8
0
 10
158.34645494728619
 20
-4.0000049999998728
 30
0.0
 11
163.1464549472862
 21
-4.0000049999998728
 31
0.0
  0
LINE
  5
27A3
  8
0
 10
179.29797494728601
 20
18.499995000000119
 30
0.0
 11
182.34645494728619
 21
18.499995000000119
 31
0.0
  0
LINE
  5
27A4
  8
0
 10
177.54645494728601
 20
4.0000050000001011
 30
0.0
 11
182.34645494728619
 21
4.0000050000001011
 31
0.0
  0
LINE
  5
27A5
  8
0
 10
177.54645494728601
 20
-4.0000049999998728
 30
0.0
 11
182.34645494728619
 21
-4.0000049999998728
 31
0.0
  0
LINE
  5
27A6
  8
0
 10
177.54645494728601
 20
-18.499994999999899
 30
0.0
 11
182.34645494728619
 21
-18.499994999999899
 31
0.0
  0
LINE
  5
27A9
  8
0
 10
165.34645994728609
 20
15.72093000000018
 30
0.0
 11
165.34645994728609
 21
-16.84016999999994
 31
0.0
  0
LINE
  5
27AA
  8
0
 10
175.34644994728609
 20
15.72093000000018
 30
0.0
 11
175.34644994728609
 21
-16.84016999999994
 31
0.0
  0
LINE
  5
27AB
  8
0
  6
CENTER
 10
153.37980494728609
 20
-11.25
 30
0.0
 11
183.8218249472861
 21
-11.25
 31
0.0
  0
LINE
  5
27B1
  8
0
 10
164.14645994728599
 20
-7.7500049999998728
 30
0.0
 11
165.34645994728609
 21
-7.7500049999998728
 31
0.0
  0
LINE
  5
27B2
  8
0
 10
164.14645994728599
 20
-14.749994999999901
 30
0.0
 11
165.34645994728609
 21
-14.749994999999901
 31
0.0
  0
LINE
  5
27B3
  8
0
 10
156.34645994728609
 20
-6.2500049999998728
 30
0.0
 11
157.34644994728609
 21
-6.2500049999998728
 31
0.0
  0
LINE
  5
27B4
  8
0
 10
156.34645994728609
 20
-16.249994999999888
 30
0.0
 11
157.34644994728609
 21
-16.249994999999888
 31
0.0
  0
LINE
  5
27B5
  8
0
 10
93.499994999999913
 20
-4.0000049999998728
 30
0.0
 11
93.499994999999899
 21
4.0000050000001011
 31
0.0
  0
LINE
  5
27BA
  8
0
 10
94.500000000000014
 20
44.720925000000079
 30
0.0
 11
102.4999949999999
 21
44.720925000000079
 31
0.0
  0
LINE
  5
27BD
  8
0
 10
106.9999949999999
 20
17.499995000000119
 30
0.0
 11
106.9999949999999
 21
4.9999950000001263
 31
0.0
  0
LINE
  5
27BE
  8
0
 10
106.9999949999999
 20
-4.999994999999898
 30
0.0
 11
106.9999949999999
 21
-17.50000499999987
 31
0.0
  0
LINE
  5
27BF
  8
0
 10
89.500005000000101
 20
-4.0000049999998728
 30
0.0
 11
89.500005000000101
 21
-18.499994999999899
 31
0.0
  0
LINE
  5
27C0
  8
0
  6
CENTER
 10
151.50003494728611
 20
0.0
 30
0.0
 11
193.31734994728609
 21
0.0
 31
0.0
  0
LINE
  5
27C1
  8
0
 10
163.08678494728611
 20
87.499995000000126
 30
0.0
 11
177.606154947286
 21
87.499995000000126
 31
0.0
  0
LINE
  5
27C2
  8
0
 10
157.34644994728609
 20
83.742300000000114
 30
0.0
 11
157.34644994728609
 21
-83.742285000000038
 31
0.0
  0
LINE
  5
27C3
  8
0
 10
183.34645994728609
 20
83.742300000000114
 30
0.0
 11
183.34645994728609
 21
-83.742285000000038
 31
0.0
  0
LINE
  5
27C4
  8
0
 10
157.40677994728611
 20
77.665680000000066
 30
0.0
 11
160.26772994728611
 21
85.526055000000028
 31
0.0
  0
LINE
  5
27C5
  8
0
 10
183.286159947286
 20
77.665695000000142
 30
0.0
 11
180.42520994728619
 21
85.526085000000194
 31
0.0
  0
LINE
  5
27C6
  8
0
 10
164.14645994728599
 20
15.513284999999991
 30
0.0
 11
164.14645994728599
 21
4.9999950000001263
 31
0.0
  0
LINE
  5
27C7
  8
0
 10
164.14645994728599
 20
-4.999994999999898
 30
0.0
 11
164.14645994728599
 21
-17.50000499999987
 31
0.0
  0
LINE
  5
27C8
  8
0
 10
176.54647994728609
 20
-4.999994999999898
 30
0.0
 11
176.54647994728609
 21
-17.50000499999987
 31
0.0
  0
LINE
  5
27C9
  8
0
 10
176.54647994728609
 20
15.513315000000141
 30
0.0
 11
176.54647994728609
 21
4.9999950000001263
 31
0.0
  0
LINE
  5
27CA
  8
0
 10
160.98616994728621
 20
82.513065000000097
 30
0.0
 11
160.98616994728621
 21
18.499995000000119
 31
0.0
  0
LINE
  5
27CB
  8
0
 10
179.70675494728599
 20
83.178480000000036
 30
0.0
 11
179.70675494728599
 21
18.499995000000119
 31
0.0
  0
LINE
  5
27CC
  8
0
  6
CENTER
 10
150.2896849472861
 20
77.942295000000058
 30
0.0
 11
193.7454799472861
 21
77.942295000000058
 31
0.0
  0
LINE
  5
27CD
  8
0
 10
156.34645994728609
 20
82.942290000000185
 30
0.0
 11
157.34644994728609
 21
82.942290000000185
 31
0.0
  0
LINE
  5
27CE
  8
0
 10
156.34645994728609
 20
72.942285000000084
 30
0.0
 11
157.34644994728609
 21
72.942285000000084
 31
0.0
  0
LINE
  5
27CF
  8
0
 10
160.34644994728609
 20
86.742300000000114
 30
0.0
 11
161.09374994728611
 21
86.742300000000114
 31
0.0
  0
LINE
  5
27D0
  8
0
 10
179.5991599472861
 20
86.742300000000114
 30
0.0
 11
180.34645994728609
 21
86.742300000000114
 31
0.0
  0
LINE
  5
27D1
  8
0
 10
156.34645994728609
 20
-72.942284999999856
 30
0.0
 11
157.34644994728609
 21
-72.942284999999856
 31
0.0
  0
LINE
  5
27D2
  8
0
 10
179.70675494728599
 20
-83.079944999999952
 30
0.0
 11
179.70675494728599
 21
-18.499994999999899
 31
0.0
  0
LINE
  5
27D3
  8
0
 10
160.98616994728621
 20
-83.427329999999984
 30
0.0
 11
160.98616994728621
 21
-18.499994999999899
 31
0.0
  0
LINE
  5
27D4
  8
0
  6
CENTER
 10
150.2896849472861
 20
-77.942279999999982
 30
0.0
 11
193.7454799472861
 21
-77.942279999999982
 31
0.0
  0
LINE
  5
27D5
  8
0
 10
179.5991599472861
 20
-86.742285000000024
 30
0.0
 11
180.34645994728609
 21
-86.742285000000024
 31
0.0
  0
LINE
  5
27D6
  8
0
 10
160.34644994728609
 20
-86.742285000000024
 30
0.0
 11
161.09374994728611
 21
-86.742285000000024
 31
0.0
  0
LINE
  5
27D7
  8
0
 10
163.08678494728611
 20
-87.500009999999975
 30
0.0
 11
177.606154947286
 21
-87.500009999999975
 31
0.0
  0
LINE
  5
27D8
  8
0
 10
157.40677994728611
 20
-77.665694999999914
 30
0.0
 11
160.26771494728601
 21
-85.526069999999891
 31
0.0
  0
LINE
  5
27DB
  8
0
 10
183.286159947286
 20
-77.665694999999914
 30
0.0
 11
180.4252249472861
 21
-85.526055000000028
 31
0.0
  0
LINE
  5
27DC
  8
0
 10
156.34645994728609
 20
-82.942274999999896
 30
0.0
 11
157.34644994728609
 21
-82.942274999999896
 31
0.0
  0
LINE
  5
27DD
  8
0
 10
175.34644994728609
 20
-14.749994999999901
 30
0.0
 11
176.54647994728609
 21
-14.749994999999901
 31
0.0
  0
LINE
  5
27DE
  8
0
 10
175.34644994728609
 20
-7.7500049999998728
 30
0.0
 11
176.54647994728609
 21
-7.7500049999998728
 31
0.0
  0
LINE
  5
27DF
  8
0
 10
87.909044999999864
 20
18.499995000000119
 30
0.0
 11
105.9999949999999
 21
18.499995000000119
 31
0.0
  0
LINE
  5
27E0
  8
0
  6
CENTER
 10
-49.400010000000059
 20
-85.563329999999951
 30
0.0
 11
0.0
 21
0.0
 31
0.0
  0
LINE
  5
27E2
  8
0
 10
72.195764999999938
 20
-10.80613500000004
 30
0.0
 11
85.521929999999884
 21
-18.499994999999899
 31
0.0
  0
LINE
  5
27EA
  8
0
 10
-35.997735000000148
 20
-64.881644999999935
 30
0.0
 11
-36.881084999999977
 21
-65.293544999999995
 31
0.0
  0
LINE
  5
27EB
  8
0
 10
-55.685250000000003
 20
-68.102219999999988
 30
0.0
 11
-50.444160000000011
 21
-79.341779999999972
 31
0.0
  0
LINE
  5
27EC
  8
0
 10
-38.190284999999903
 20
-63.61576500000001
 30
0.0
 11
-37.126635000000078
 21
-75.773355000000024
 31
0.0
  0
LINE
  5
27ED
  8
0
 10
-31.13562000000001
 20
-82.275944999999865
 30
0.0
 11
-43.489935000000052
 21
-83.356799999999794
 31
0.0
  0
LINE
  5
27F0
  8
0
 10
-37.454655000000002
 20
-66.287024999999844
 30
0.0
 11
-36.288119999999928
 21
-79.620479999999816
 31
0.0
  0
LINE
  5
27F1
  8
0
 10
-47.503889999999949
 20
-63.077864999999967
 30
0.0
 11
-56.148449999999912
 21
-67.108889999999974
 31
0.0
  0
LINE
  5
27F2
  8
0
 10
-24.801674999999928
 20
-74.264249999999933
 30
0.0
 11
-36.28815000000008
 21
-79.620479999999816
 31
0.0
  0
LINE
  5
27F3
  8
0
 10
176.79636494728601
 20
16.174620000000001
 30
0.0
 11
178.54786994728619
 21
18.161310000000181
 31
0.0
  0
LINE
  5
27F4
  8
0
 10
163.8965749472861
 20
16.17459000000008
 30
0.0
 11
162.1450549472861
 21
18.161310000000181
 31
0.0
  0
LINE
  5
27F7
  8
0
 10
93.499980000000036
 20
43.72095000000013
 30
0.0
 11
94.499970000000076
 21
44.720954999999996
 31
0.0
  0
LINE
  5
27FA
  8
0
 10
107.25
 20
22.090950000000021
 30
0.0
 11
107.25
 21
25.041435000000089
 31
0.0
  0
LINE
  5
27FB
  8
0
 10
108.589725
 20
30.041429999999991
 30
0.0
 11
111.0120899999999
 21
34.237080000000098
 31
0.0
  0
LINE
  5
27FC
  8
0
 10
117.0
 20
52.220925000000079
 30
0.0
 11
117.0
 21
60.436484999999948
 31
0.0
  0
LINE
  5
27FF
  8
0
 10
79.999994999999899
 20
52.220925000000079
 30
0.0
 11
79.999994999999899
 21
60.436484999999948
 31
0.0
  0
LINE
  5
2801
  8
0
 10
89.749994999999899
 20
22.090950000000021
 30
0.0
 11
89.749994999999899
 21
25.041435000000089
 31
0.0
  0
LINE
  5
2802
  8
0
 10
88.410255000000006
 20
30.041429999999991
 30
0.0
 11
85.987904999999955
 21
34.23706500000003
 31
0.0
  0
LINE
  5
2803
  8
0
 10
107.9739299999998
 20
61.435709999999972
 30
0.0
 11
112.97392499999999
 21
63.255554999999958
 31
0.0
  0
LINE
  5
2804
  8
0
 10
89.026035000000107
 20
61.435725000000041
 30
0.0
 11
84.026069999999891
 21
63.255570000000027
 31
0.0
  0
LINE
  5
2805
  8
0
 10
93.499994999999899
 20
41.718405000000082
 30
0.0
 11
93.330449999999928
 21
41.718405000000082
 31
0.0
  0
LINE
  5
2806
  8
0
 10
103.6695299999998
 20
41.718405000000082
 30
0.0
 11
93.330449999999928
 21
41.718405000000082
 31
0.0
  0
LINE
  5
2807
  8
0
 10
107.325945
 20
26.271615000000111
 30
0.0
 11
106.66540499999989
 21
38.875410000000102
 31
0.0
  0
LINE
  5
2808
  8
0
 10
89.674035000000003
 20
26.271615000000111
 30
0.0
 11
90.334575000000086
 21
38.875440000000019
 31
0.0
  0
LINE
  5
2809
  8
0
 10
106.0000050000001
 20
44.718405000000068
 30
0.0
 11
106.0000050000001
 21
58.616639999999961
 31
0.0
  0
LINE
  5
280A
  8
0
 10
91.000005000000101
 20
44.718405000000068
 30
0.0
 11
91.000005000000101
 21
58.616639999999961
 31
0.0
  0
LINE
  5
280D
  8
0
 10
103.4999999999999
 20
43.720935000000047
 30
0.0
 11
103.4999999999999
 21
41.718405000000082
 31
0.0
  0
LINE
  5
280E
  8
0
 10
103.4999849999999
 20
43.72095000000013
 30
0.0
 11
102.4999949999999
 21
44.720954999999996
 31
0.0
  0
ARC
  5
2810
  8
0
 10
170.34645494728619
 20
-11.25
 30
0.0
 40
7.5
 50
228.18967999999299
 51
311.81030999999098
  0
ARC
  5
2811
  8
0
 10
162.45360494728601
 20
-11.25
 30
0.0
 40
7.892857049999999
 50
140.69234999999401
 51
219.30765000000591
  0
ARC
  5
2814
  8
0
 10
98.500005000000101
 20
-11.25
 30
0.0
 40
7.5
 50
255.16489000000109
 51
284.83526076674872
  0
ARC
  5
2816
  8
0
 10
106.0000050000001
 20
4.9999950000001263
 30
0.0
 40
1.000000035
 50
270.0
 51
0.0
  0
ARC
  5
2817
  8
0
 10
106.0000050000001
 20
-4.999994999999898
 30
0.0
 40
1.000000035
 50
0.0
 51
90.00000299999769
  0
ARC
  5
2818
  8
0
 10
106.0000050000001
 20
-17.50000499999987
 30
0.0
 40
1.000000035
 50
270.0
 51
0.0
  0
ARC
  5
2819
  8
0
 10
163.08678494728611
 20
84.499995000000126
 30
0.0
 40
3.0
 50
90.00000299999769
 51
159.99999999999679
  0
ARC
  5
281A
  8
0
 10
177.606154947286
 20
84.499995000000126
 30
0.0
 40
3.0
 50
19.999999000005729
 51
90.00000299999769
  0
ARC
  5
281B
  8
0
 10
158.34645494728619
 20
77.323680000000195
 30
0.0
 40
1.000000035
 50
159.99999999999679
 51
180.000010000001
  0
ARC
  5
281C
  8
0
 10
182.34645494728619
 20
77.323680000000195
 30
0.0
 40
1.000000035
 50
0.0
 51
19.999999000005729
  0
ARC
  5
281D
  8
0
 10
182.34645494728619
 20
17.500005000000101
 30
0.0
 40
1.000000035
 50
0.0
 51
90.00000299999769
  0
ARC
  5
281E
  8
0
 10
182.34645494728619
 20
4.9999950000001263
 30
0.0
 40
1.000000035
 50
270.0
 51
0.0
  0
ARC
  5
281F
  8
0
 10
163.1464549472862
 20
4.9999950000001263
 30
0.0
 40
1.000000035
 50
270.0
 51
0.0
  0
ARC
  5
2820
  8
0
 10
158.34645494728619
 20
4.9999950000001263
 30
0.0
 40
1.000000035
 50
179.99998999999889
 51
270.0
  0
ARC
  5
2821
  8
0
 10
158.34645494728619
 20
17.500005000000101
 30
0.0
 40
1.000000035
 50
90.00000299999769
 51
180.000010000001
  0
ARC
  5
2822
  8
0
 10
177.54645494728601
 20
4.9999950000001263
 30
0.0
 40
1.000000035
 50
179.99998999999889
 51
270.0
  0
ARC
  5
2823
  8
0
 10
158.34645494728619
 20
-4.999994999999898
 30
0.0
 40
1.000000035
 50
90.00000299999769
 51
180.000010000001
  0
ARC
  5
2824
  8
0
 10
163.1464549472862
 20
-4.999994999999898
 30
0.0
 40
1.000000035
 50
0.0
 51
90.00000299999769
  0
ARC
  5
2825
  8
0
 10
177.54645494728601
 20
-4.999994999999898
 30
0.0
 40
1.000000035
 50
90.00000299999769
 51
180.000010000001
  0
ARC
  5
2826
  8
0
 10
182.34645494728619
 20
-4.999994999999898
 30
0.0
 40
1.000000035
 50
0.0
 51
90.00000299999769
  0
ARC
  5
2827
  8
0
 10
182.34645494728619
 20
-17.50000499999987
 30
0.0
 40
1.000000035
 50
270.0
 51
0.0
  0
ARC
  5
2828
  8
0
 10
177.54645494728601
 20
-17.50000499999987
 30
0.0
 40
1.000000035
 50
179.99998999999889
 51
270.0
  0
ARC
  5
2829
  8
0
 10
163.1464549472862
 20
-17.50000499999987
 30
0.0
 40
1.000000035
 50
270.0
 51
0.0
  0
ARC
  5
282A
  8
0
 10
158.34645494728619
 20
-17.50000499999987
 30
0.0
 40
1.000000035
 50
179.99998999999889
 51
270.0
  0
ARC
  5
282B
  8
0
 10
162.45360494728601
 20
77.942295000000058
 30
0.0
 40
7.892857049999999
 50
140.69234999999401
 51
219.30765000000591
  0
ARC
  5
282C
  8
0
 10
160.34644994728609
 20
83.742300000000114
 30
0.0
 40
3.0
 50
90.00000299999769
 51
180.000010000001
  0
ARC
  5
282D
  8
0
 10
180.34645994728609
 20
83.742300000000114
 30
0.0
 40
3.0
 50
0.0
 51
90.00000299999769
  0
ARC
  5
282E
  8
0
 10
160.34644994728609
 20
-83.742285000000038
 30
0.0
 40
3.0
 50
179.99998999999889
 51
270.0
  0
ARC
  5
282F
  8
0
 10
180.34645994728609
 20
-83.742285000000038
 30
0.0
 40
3.0
 50
270.0
 51
0.0
  0
ARC
  5
2830
  8
0
 10
163.08678494728611
 20
-84.500009999999975
 30
0.0
 40
3.0
 50
200.0000000000031
 51
270.0
  0
ARC
  5
2831
  8
0
 10
177.606154947286
 20
-84.500009999999975
 30
0.0
 40
3.0
 50
270.0
 51
339.99999999999682
  0
ARC
  5
2832
  8
0
 10
162.45360494728601
 20
-77.942279999999982
 30
0.0
 40
7.892857049999999
 50
140.69234999999401
 51
219.30765000000591
  0
ARC
  5
2833
  8
0
 10
158.34645494728619
 20
-77.323664999999892
 30
0.0
 40
1.000000035
 50
179.99998999999889
 51
200.0000000000031
  0
ARC
  5
2834
  8
0
 10
182.34645494728619
 20
-77.323664999999892
 30
0.0
 40
1.000000035
 50
339.99999999999682
 51
0.0
  0
ARC
  5
2838
  8
0
 10
0.0
 20
0.0
 30
0.0
 40
77.500001999999995
 50
253.00155999999481
 51
347.15156999999732
  0
ARC
  5
283A
  8
0
 10
87.909044999999864
 20
21.499995000000119
 30
0.0
 40
3.0
 50
193.74310999999591
 51
270.0
  0
ARC
  5
283B
  8
0
 10
87.909044999999864
 20
-21.499994999999899
 30
0.0
 40
3.0
 50
90.00000299999769
 51
166.25689000000401
  0
ARC
  5
283C
  8
0
 10
0.0
 20
0.0
 30
0.0
 40
87.499997999999991
 50
245.49821000000341
 51
346.25689000000398
  0
ARC
  5
283F
  8
0
 10
78.484424999999874
 20
-17.901014999999909
 30
0.0
 40
3.0
 50
60.000002000001302
 51
167.15156999999729
  0
ARC
  5
2840
  8
0
 10
75.676934999999958
 20
7.0000050000001011
 30
0.0
 40
3.0
 50
185.28473000000389
 51
270.0
  0
ARC
  5
2841
  8
0
 10
75.676934999999958
 20
-7.0000049999998728
 30
0.0
 40
3.0
 50
90.00000299999769
 51
174.715269999996
  0
ARC
  5
2843
  8
0
 10
0.0
 20
0.0
 30
0.0
 40
73.000001999999995
 50
242.8081351045827
 51
354.715269999996
  0
ARC
  5
2850
  8
0
 10
-36.458460000000052
 20
-66.19987500000002
 30
0.0
 40
1.000000035
 50
115.0000000000052
 51
184.99999999999969
  0
ARC
  5
2853
  8
0
 10
-60.21679500000004
 20
-70.21530000000007
 30
0.0
 40
4.9999999500000003
 50
24.99999999999276
 51
49.383545000004858
  0
ARC
  5
2854
  8
0
 10
-30.699824999999919
 20
-87.256920000000036
 30
0.0
 40
4.9999999500000003
 50
70.616457999993884
 51
95.000001999991525
  0
ARC
  5
2855
  8
0
  6
CENTER
 10
0.0
 20
0.0
 30
0.0
 40
88.199998500000007
 50
232.21160000000199
 51
247.327510000003
  0
ARC
  5
2856
  8
0
 10
-41.178869999999961
 20
-63.877229999999827
 30
0.0
 40
3.0
 50
4.999999899997543
 51
57.469722118797947
  0
ARC
  5
2857
  8
0
 10
-44.099999999999909
 20
-76.383434999999963
 30
0.0
 40
6.9999997499999989
 50
205.00010836115919
 51
4.999999899997543
  0
ARC
  5
2858
  8
0
 10
-34.729845000000068
 20
-67.600574999999935
 30
0.0
 40
3.0
 50
62.808118000000192
 51
115.0000000000052
  0
ARC
  5
2859
  8
0
 10
-47.926485000000177
 20
-62.171534999999942
 30
0.0
 40
1.000000035
 50
295.00000000000517
 51
52.372272000000422
  0
ARC
  5
285A
  8
0
 10
161.39493494728609
 20
17.500005000000101
 30
0.0
 40
1.000000035
 50
41.399999999994122
 51
90.00000299999769
  0
ARC
  5
285B
  8
0
 10
163.1464549472862
 20
15.513284999999991
 30
0.0
 40
1.000000035
 50
0.0
 51
41.399999999994122
  0
ARC
  5
285C
  8
0
 10
177.54645494728601
 20
15.513315000000141
 30
0.0
 40
1.000000035
 50
138.60000000000579
 51
180.000010000001
  0
ARC
  5
285D
  8
0
 10
179.29797494728601
 20
17.500005000000101
 30
0.0
 40
1.000000035
 50
90.00000299999769
 51
138.60000000000579
  0
ARC
  5
285F
  8
0
 10
-23.533815000000001
 20
-76.983179999999948
 30
0.0
 40
3.0
 50
73.00155999999491
 51
115.0000000000052
  0
ARC
  5
2860
  8
0
 10
98.500005000000101
 20
22.090950000000021
 30
0.0
 40
8.7500002499999994
 50
335.05720839013662
 51
0.0
  0
ARC
  5
2861
  8
0
 10
98.500005000000101
 20
22.090950000000021
 30
0.0
 40
8.7500002499999994
 50
180.000010000001
 51
204.22964078484219
  0
ARC
  5
2862
  8
0
 10
109.9999949999999
 20
52.220925000000079
 30
0.0
 40
30.0
 50
180.000010000001
 51
216.8313899999919
  0
ARC
  5
2863
  8
0
 10
87.0
 20
52.220925000000079
 30
0.0
 40
30.0
 50
323.1686000000015
 51
0.0
  0
ARC
  5
2864
  8
0
 10
114.0
 20
60.436484999999948
 30
0.0
 40
3.0
 50
0.0
 51
110.00000000000141
  0
ARC
  5
2865
  8
0
 10
82.999994999999885
 20
60.436484999999948
 30
0.0
 40
3.0
 50
69.999999999998522
 51
180.000010000001
  0
ARC
  5
2866
  8
0
 10
79.750005000000101
 20
25.041435000000089
 30
0.0
 40
9.9999997499999989
 50
0.0
 51
29.99999700000506
  0
ARC
  5
2867
  8
0
 10
117.2500050000001
 20
25.041435000000089
 30
0.0
 40
9.9999997499999989
 50
150.00000000000099
 51
180.000010000001
  0
ARC
  5
2868
  8
0
 10
93.330449999999928
 20
38.718405000000068
 30
0.0
 40
3.0
 50
90.0
 51
176.99999000000659
  0
ARC
  5
2869
  8
0
 10
103.6695299999998
 20
38.718405000000068
 30
0.0
 40
3.0
 50
3.0000008999968291
 51
90.00000299999769
  0
ARC
  5
286A
  8
0
 10
103.0000050000001
 20
44.718405000000068
 30
0.0
 40
3.0
 50
270.0
 51
0.0
  0
ARC
  5
286B
  8
0
 10
94.000005000000087
 20
44.718405000000068
 30
0.0
 40
3.0
 50
180.000010000001
 51
260.40592999999922
  0
ARC
  5
286C
  8
0
 10
88.000005000000101
 20
58.616639999999961
 30
0.0
 40
3.0
 50
0.0
 51
69.999999999998522
  0
ARC
  5
286D
  8
0
 10
109.0000050000001
 20
58.616639999999961
 30
0.0
 40
3.0
 50
110.00000000000141
 51
180.000010000001
  0
LINE
  5
2883
  8
0
 10
164.34765654728631
 20
15.72093000000018
 30
0.0
 11
176.34525714728619
 21
15.72093000000018
 31
0.0
  0
LINE
  5
2884
  8
0
 10
161.59645494728619
 20
22.09093270000016
 30
0.0
 11
161.59645494728619
 21
27.720884000000069
 31
0.0
  0
LINE
  5
2886
  8
0
 10
179.09645494728619
 20
22.09093270000016
 30
0.0
 11
179.09645494728619
 21
27.720945000000249
 31
0.0
  0
LINE
  5
2887
  8
0
 10
161.59645874728631
 20
27.720935000000281
 30
0.0
 11
162.17527554728619
 21
38.765419000000293
 31
0.0
  0
LINE
  5
2888
  8
0
 10
167.49645644728611
 20
30.570928000000091
 30
0.0
 11
167.49645644728611
 21
60.314001000000189
 31
0.0
  0
LINE
  5
2889
  8
0
 10
179.09645444728631
 20
27.720928000000178
 30
0.0
 11
178.51763714728619
 21
38.765419000000293
 31
0.0
  0
LINE
  5
288A
  8
0
 10
165.17116194728621
 20
41.608412000000271
 30
0.0
 11
167.49645644728611
 21
41.608412000000271
 31
0.0
  0
LINE
  5
288B
  8
0
 10
173.1964534472863
 20
41.608412000000271
 30
0.0
 11
175.52175174728629
 21
41.608412000000271
 31
0.0
  0
LINE
  5
288C
  8
0
 10
169.4840930372863
 20
63.43648300000018
 30
0.0
 11
171.20881685728611
 21
63.43648300000018
 31
0.0
  0
LINE
  5
288D
  8
0
 10
173.1031020472862
 20
60.735890000000161
 30
0.0
 11
172.1154635472862
 21
62.85837400000014
 31
0.0
  0
LINE
  5
288E
  8
0
 10
167.5898063472861
 20
60.735882000000167
 30
0.0
 11
168.5774448472861
 21
62.85836600000016
 31
0.0
  0
LINE
  5
288F
  8
0
 10
173.1964534472863
 20
30.570928000000091
 30
0.0
 11
173.1964534472863
 21
60.314001000000189
 31
0.0
  0
ARC
  5
2890
  8
0
 10
170.34645494728619
 20
22.09093270000016
 30
0.0
 40
8.75
 50
313.28102000000541
 51
0.0
  0
ARC
  5
2891
  8
0
 10
170.34645494728619
 20
22.09093270000016
 30
0.0
 40
8.75
 50
180.000010000001
 51
226.7189799999945
  0
ARC
  5
2892
  8
0
 10
170.34645494728619
 20
30.570928000000091
 30
0.0
 40
2.8499998999999989
 50
179.99998999999889
 51
0.0000043257074405
  0
ARC
  5
2893
  8
0
 10
170.34645494728619
 20
24.070932300000091
 30
0.0
 40
6.0
 50
131.81032000000681
 51
160.5287699999987
  0
ARC
  5
2894
  8
0
 10
165.17116194728621
 20
38.608412000000271
 30
0.0
 40
3.0
 50
90.00000299999769
 51
176.9999899999936
  0
ARC
  5
2895
  8
0
 10
175.52175174728629
 20
38.608412000000271
 30
0.0
 40
3.0
 50
3.0000008999968291
 51
90.00000299999769
  0
ARC
  5
2896
  8
0
 10
168.49645644728611
 20
60.314001000000189
 30
0.0
 40
1.0
 50
155.04640000000131
 51
180.000010000001
  0
ARC
  5
2897
  8
0
 10
169.4840930372863
 20
62.43648300000018
 30
0.0
 40
1.0
 50
90.00000299999769
 51
155.04640000000131
  0
ARC
  5
2898
  8
0
 10
171.20881685728611
 20
62.43648300000018
 30
0.0
 40
1.0
 50
24.953596000001131
 51
90.00000299999769
  0
ARC
  5
2899
  8
0
 10
172.1964534472863
 20
60.314001000000189
 30
0.0
 40
1.0
 50
0.0
 51
24.953596000001131
  0
ARC
  5
289A
  8
0
 10
170.34645494728619
 20
24.070932300000091
 30
0.0
 40
6.0
 50
19.471222000003451
 51
48.189682999999043
  0
LINE
  5
2C1A
  8
0
  6
CENTER
 10
-49.400010000000059
 20
85.563329999999951
 30
0.0
 11
0.0
 21
0.0
 31
0.0
  0
LINE
  5
2C1B
  8
0
 10
72.195764999999938
 20
10.80613500000004
 30
0.0
 11
85.521929999999884
 21
18.499994999999899
 31
0.0
  0
LINE
  5
2C1C
  8
0
 10
-35.997735000000148
 20
64.881644999999935
 30
0.0
 11
-36.881084999999977
 21
65.293544999999995
 31
0.0
  0
LINE
  5
2C1D
  8
0
 10
-55.685250000000003
 20
68.102219999999988
 30
0.0
 11
-50.444160000000011
 21
79.341779999999972
 31
0.0
  0
LINE
  5
2C1E
  8
0
 10
-38.190284999999903
 20
63.61576500000001
 30
0.0
 11
-37.126635000000078
 21
75.773355000000024
 31
0.0
  0
LINE
  5
2C1F
  8
0
 10
-31.13562000000001
 20
82.275944999999865
 30
0.0
 11
-43.489935000000052
 21
83.356799999999794
 31
0.0
  0
LINE
  5
2C20
  8
0
 10
-37.454655000000002
 20
66.287024999999844
 30
0.0
 11
-36.288119999999928
 21
79.620479999999816
 31
0.0
  0
LINE
  5
2C21
  8
0
 10
-47.503889999999949
 20
63.077864999999967
 30
0.0
 11
-56.148449999999912
 21
67.108889999999974
 31
0.0
  0
LINE
  5
2C22
  8
0
 10
-24.801674999999928
 20
74.264249999999933
 30
0.0
 11
-36.28815000000008
 21
79.620479999999816
 31
0.0
  0
ARC
  5
2C23
  8
0
 10
0.0
 20
0.0
 30
0.0
 40
77.500001999999995
 50
12.848430000002679
 51
106.9984400000066
  0
ARC
  5
2C24
  8
0
 10
0.0
 20
0.0
 30
0.0
 40
87.499997999999991
 50
13.743109999995969
 51
114.5017899999995
  0
ARC
  5
2C25
  8
0
 10
0.0
 20
0.0
 30
0.0
 40
87.499997999999991
 50
130.55919000000239
 51
229.4408100000085
  0
ARC
  5
2C26
  8
0
 10
78.484424999999874
 20
17.901014999999909
 30
0.0
 40
3.0
 50
192.84843000000259
 51
299.9999979999987
  0
ARC
  5
2C27
  8
0
 10
0.0
 20
0.0
 30
0.0
 40
73.000001999999995
 50
122.81953211085791
 51
237.18046788914199
  0
ARC
  5
2C28
  8
0
 10
0.0
 20
0.0
 30
0.0
 40
73.000001999999995
 50
5.2847300000171167
 51
117.1918648954216
  0
ARC
  5
2C29
  8
0
 10
0.0
 20
0.0
 30
0.0
 40
77.500001999999995
 50
127.6277299999924
 51
232.3722700000036
  0
ARC
  5
2C2A
  8
0
 10
-36.458460000000052
 20
66.19987500000002
 30
0.0
 40
1.000000035
 50
175.0000000000002
 51
244.99999999999179
  0
ARC
  5
2C2B
  8
0
 10
-60.21679500000004
 20
70.21530000000007
 30
0.0
 40
4.9999999500000003
 50
310.61645499999389
 51
334.99999999999329
  0
ARC
  5
2C2C
  8
0
 10
-30.699824999999919
 20
87.256920000000036
 30
0.0
 40
4.9999999500000003
 50
264.99999800000842
 51
289.38354200000458
  0
ARC
  5
2C2D
  8
0
  6
CENTER
 10
0.0
 20
0.0
 30
0.0
 40
88.199998500000007
 50
112.67248999999541
 51
127.7884000000018
  0
ARC
  5
2C2E
  8
0
 10
-41.178869999999961
 20
63.877229999999827
 30
0.0
 40
3.0
 50
302.53027788119789
 51
355.0000001000156
  0
ARC
  5
2C2F
  8
0
 10
-44.099999999999909
 20
76.383434999999963
 30
0.0
 40
6.9999997499999989
 50
355.0000001000156
 51
154.99989163884001
  0
ARC
  5
2C30
  8
0
 10
-34.729845000000068
 20
67.600574999999935
 30
0.0
 40
3.0
 50
244.99999999999179
 51
297.19188199999678
  0
ARC
  5
2C31
  8
0
 10
-47.926485000000177
 20
62.171534999999942
 30
0.0
 40
1.000000035
 50
307.62772799999823
 51
64.9999999999918
  0
ARC
  5
2C32
  8
0
 10
-23.533815000000001
 20
76.983179999999948
 30
0.0
 40
3.0
 50
244.99999999999179
 51
286.99844000000672
  0
CIRCLE
  5
2C36
  8
0
 10
-44.099999999999909
 20
-76.383434999999963
 30
0.0
 40
3.0999998999999989
  0
CIRCLE
  5
2C37
  8
0
 10
-44.099999999999909
 20
76.383434999999963
 30
0.0
 40
3.0999998999999989
  0
CIRCLE
  5
2C38
  8
0
 10
98.500005000000101
 20
-11.25
 30
0.0
 40
4.9999950000001263
  0
ARC
  5
2C39
  8
0
 10
105.9999949999999
 20
17.499995000000119
 30
0.0
 40
1.0
 50
0.0
 51
90.0
  0
LINE
  5
2C3B
  8
0
 10
93.499994999999899
 20
41.718405000000082
 30
0.0
 11
93.499994999999899
 21
43.720935000000047
 31
0.0
  0
TEXT
  5
2C95
  8
0
 10
60.211140049488449
 20
109.7756258409901
 30
0.0
 40
5.0
  1
13MHHM-3LW 5S
  0
VIEWPORT
  5
79
 67
     1
  8
0
 10
5.2499996395561617
 20
3.9999998836066761
 30
0.0
 40
15.015580297613511
 41
8.5939224089826052
 68
     1
 69
     1
1001
ACAD
1000
MVIEW
1002
{
1070
    16
1010
0.0
1020
0.0
1030
0.0
1010
0.0
1020
0.0
1030
1.0
1040
0.0
1040
8.5939224089826052
1040
5.2499996395561617
1040
3.9999998836066761
1040
50.0
1040
0.0
1040
0.0
1070
     0
1070
   100
1070
     1
1070
     1
1070
     0
1070
     0
1070
     0
1070
     0
1040
0.0
1040
0.0
1040
0.0
1040
10.0
1040
10.0
1040
10.0
1040
10.0
1070
     0
1002
{
1002
}
1002
}
1001
GENIUS_GENOBJ-N-SDF_13
1002
{
1000
OWNER
1000
GEN
1002
}
1001
GENIUS_GENODEF_13
1002
{
1000
HIER
1070
     0
1002
}
1002
{
1000
MANEDIT
1070
     0
1002
}
1002
{
1000
NOSEL
1070
     0
1002
}
1002
{
1000
BEHIND
1070
     0
1002
}
1002
{
1000
OTHER
1070
     0
1002
}
1002
{
1000
REACTOR
1002
}
1001
GENIUS_GENSCREG_15
1000
PF
1040
1.0
1000
DF
1040
1.0
1000
MIN
1011
-2.2577905092505972
1021
-0.0
1031
-0.0
1021
-0.2969613208846251
1031
0.0
1000
MAX
1011
12.757789788362921
1021
-0.0
1031
-0.0
1021
8.2969610880979801
1031
0.0
1000
FLAGS
1070
     4
  0
VIEWPORT
  5
7B
 67
     1
  8
0
 10
5.24999976158142
 20
3.99999976158142
 30
0.0
 40
8.3999996185302717
 41
6.3999996185302717
 68
     2
 69
     2
1001
ACAD
1000
MVIEW
1002
{
1070
    16
1010
0.0
1020
0.0
1030
0.0
1010
0.0
1020
0.0
1030
1.0
1040
0.0
1040
9.2590797717467002
1040
6.0
1040
4.5
1040
50.0
1040
0.0
1040
0.0
1070
     0
1070
   100
1070
     1
1070
     3
1070
     0
1070
     0
1070
     0
1070
     0
1040
0.0
1040
0.0
1040
0.0
1040
0.5
1040
0.5
1040
0.5
1040
0.5
1070
     0
1002
{
1002
}
1002
}
1001
GENIUS_GENODEF_13
1002
{
1000
HIER
1070
     0
1002
}
1002
{
1000
MANEDIT
1070
     0
1002
}
1002
{
1000
NOSEL
1070
     0
1002
}
1002
{
1000
BEHIND
1070
     0
1002
}
1002
{
1000
OTHER
1070
     0
1002
}
1002
{
1000
REACTOR
1002
}
1001
GENIUS_GENOBJ-N-SDF_13
1002
{
1000
OWNER
1000
GEN
1002
}
1001
GENIUS_GENSCREG_15
1000
PF
1040
0.0
1000
DF
1040
0.0
1000
MIN
1011
1.049999952316284
1021
-0.0
1031
-0.0
1021
0.7999999523162842
1031
0.0
1000
MAX
1011
9.4499995708465558
1021
-0.0
1031
-0.0
1021
7.1999995708465558
1031
0.0
1000
FLAGS
1070
     4
  0
ENDSEC
  0
EOF
