  0
SECTION
  2
HEADER
  9
$ACADVER
  1
AC1009
  9
$INSBASE
 10
0.0
 20
0.0
 30
0.0
  9
$EXTMIN
 10
-83.231654999999989
 20
-83.295674380852404
 30
0.0
  9
$EXTMAX
 10
163.28400767467431
 20
91.774716276064339
 30
0.0
  9
$LIMMIN
 10
0.0
 20
0.0
  9
$LIMMAX
 10
12.0
 20
9.0
  9
$ORTHOMODE
 70
     0
  9
$REGENMODE
 70
     1
  9
$FILLMODE
 70
     1
  9
$QTEXTMODE
 70
     0
  9
$MIRRTEXT
 70
     1
  9
$DRAGMODE
 70
     2
  9
$LTSCALE
 40
1.0
  9
$OSMODE
 70
    37
  9
$ATTMODE
 70
     1
  9
$TEXTSIZE
 40
0.2
  9
$TRACEWID
 40
0.05
  9
$TEXTSTYLE
  7
STANDARD
  9
$CLAYER
  8
0
  9
$CELTYPE
  6
BYLAYER
  9
$CECOLOR
 62
   256
  9
$DIMSCALE
 40
1.0
  9
$DIMASZ
 40
0.18
  9
$DIMEXO
 40
0.0625
  9
$DIMDLI
 40
0.38
  9
$DIMRND
 40
0.0
  9
$DIMDLE
 40
0.0
  9
$DIMEXE
 40
0.18
  9
$DIMTP
 40
0.0
  9
$DIMTM
 40
0.0
  9
$DIMTXT
 40
0.18
  9
$DIMCEN
 40
0.09
  9
$DIMTSZ
 40
0.0
  9
$DIMTOL
 70
     0
  9
$DIMLIM
 70
     0
  9
$DIMTIH
 70
     1
  9
$DIMTOH
 70
     1
  9
$DIMSE1
 70
     0
  9
$DIMSE2
 70
     0
  9
$DIMTAD
 70
     0
  9
$DIMZIN
 70
     0
  9
$DIMBLK
  1

  9
$DIMASO
 70
     1
  9
$DIMSHO
 70
     1
  9
$DIMPOST
  1

  9
$DIMAPOST
  1

  9
$DIMALT
 70
     0
  9
$DIMALTD
 70
     2
  9
$DIMALTF
 40
25.399999999999999
  9
$DIMLFAC
 40
1.0
  9
$DIMTOFL
 70
     0
  9
$DIMTVP
 40
0.0
  9
$DIMTIX
 70
     0
  9
$DIMSOXD
 70
     0
  9
$DIMSAH
 70
     0
  9
$DIMBLK1
  1

  9
$DIMBLK2
  1

  9
$DIMSTYLE
  2
STANDARD
  9
$DIMCLRD
 70
     0
  9
$DIMCLRE
 70
     0
  9
$DIMCLRT
 70
     0
  9
$DIMTFAC
 40
1.0
  9
$DIMGAP
 40
0.09
  9
$LUNITS
 70
     2
  9
$LUPREC
 70
     4
  9
$SKETCHINC
 40
0.1
  9
$FILLETRAD
 40
1.0
  9
$AUNITS
 70
     0
  9
$AUPREC
 70
     0
  9
$MENU
  1
.
  9
$ELEVATION
 40
0.0
  9
$PELEVATION
 40
0.0
  9
$THICKNESS
 40
0.0
  9
$LIMCHECK
 70
     0
  9
$BLIPMODE
 70
     0
  9
$CHAMFERA
 40
0.5
  9
$CHAMFERB
 40
0.5
  9
$SKPOLY
 70
     0
  9
$TDCREATE
 40
2451955.1727028699
  9
$TDUPDATE
 40
2454732.6788655561
  9
$TDINDWG
 40
0.1001917014
  9
$TDUSRTIMER
 40
0.1001915278
  9
$USRTIMER
 70
     1
  9
$ANGBASE
 50
0.0
  9
$ANGDIR
 70
     0
  9
$PDMODE
 70
     0
  9
$PDSIZE
 40
0.0
  9
$PLINEWID
 40
0.0
  9
$COORDS
 70
     1
  9
$SPLFRAME
 70
     0
  9
$SPLINETYPE
 70
     6
  9
$SPLINESEGS
 70
     8
  9
$ATTDIA
 70
     0
  9
$ATTREQ
 70
     1
  9
$HANDLING
 70
 22529
  9
$HANDSEED
  5
2FBE
  9
$SURFTAB1
 70
     6
  9
$SURFTAB2
 70
     6
  9
$SURFTYPE
 70
     6
  9
$SURFU
 70
     6
  9
$SURFV
 70
     6
  9
$UCSNAME
  2

  9
$UCSORG
 10
0.0
 20
0.0
 30
0.0
  9
$UCSXDIR
 10
1.0
 20
0.0
 30
0.0
  9
$UCSYDIR
 10
0.0
 20
1.0
 30
0.0
  9
$PUCSNAME
  2

  9
$PUCSORG
 10
0.0
 20
0.0
 30
0.0
  9
$PUCSXDIR
 10
1.0
 20
0.0
 30
0.0
  9
$PUCSYDIR
 10
0.0
 20
1.0
 30
0.0
  9
$USERI1
 70
     0
  9
$USERI2
 70
     0
  9
$USERI3
 70
     0
  9
$USERI4
 70
     0
  9
$USERI5
 70
     0
  9
$USERR1
 40
0.0
  9
$USERR2
 40
0.0
  9
$USERR3
 40
0.0
  9
$USERR4
 40
0.0
  9
$USERR5
 40
0.0
  9
$WORLDVIEW
 70
     1
  9
$SHADEDGE
 70
     3
  9
$SHADEDIF
 70
    70
  9
$TILEMODE
 70
     1
  9
$MAXACTVP
 70
    48
  9
$PLIMCHECK
 70
     0
  9
$PEXTMIN
 10
1.049636599258096
 20
0.7996597240971113
 30
-0.0015258207003583
  9
$PEXTMAX
 10
9.4503627310769716
 20
7.2003400826974584
 30
0.0000000349246037
  9
$PLIMMIN
 10
-0.2500002402958907
 20
-0.2499999962453767
  9
$PLIMMAX
 10
10.74999951940821
 20
8.2499997634587316
  9
$UNITMODE
 70
     0
  9
$VISRETAIN
 70
     1
  9
$PLINEGEN
 70
     0
  9
$PSLTSCALE
 70
     1
  0
ENDSEC
  0
SECTION
  2
TABLES
  0
TABLE
  2
VPORT
 70
     2
  0
VPORT
  2
*ACTIVE
 70
     0
 10
0.0
 20
0.0
 11
1.0
 21
1.0
 12
40.038106900793053
 22
4.2386062274490248
 13
0.0
 23
0.0
 14
0.5
 24
0.5
 15
0.5
 25
0.5
 16
0.0
 26
0.0
 36
1.0
 17
0.0
 27
0.0
 37
0.0
 40
176.4909972655513
 41
1.531806615776081
 42
50.0
 43
0.0
 44
0.0
 50
0.0
 51
0.0
 71
     0
 72
   100
 73
     1
 74
     3
 75
     0
 76
     0
 77
     0
 78
     0
  0
ENDTAB
  0
TABLE
  2
LTYPE
 70
     2
  0
LTYPE
  2
CONTINUOUS
 70
     0
  3
Solid line
 72
    65
 73
     0
 40
0.0
  0
LTYPE
  2
CENTER
 70
     0
  3
__ . __
 72
    65
 73
     4
 40
7.0
 49
4.0
 49
-1.0
 49
1.0
 49
-1.0
  0
ENDTAB
  0
TABLE
  2
LAYER
 70
     1
  0
LAYER
  2
0
 70
     0
 62
     7
  6
CONTINUOUS
  0
ENDTAB
  0
TABLE
  2
STYLE
 70
     1
  0
STYLE
  2
STANDARD
 70
     0
 40
0.0
 41
1.0
 50
0.0
 71
     0
 42
0.2
  3
txt
  4

  0
ENDTAB
  0
TABLE
  2
VIEW
 70
     0
  0
ENDTAB
  0
TABLE
  2
UCS
 70
     0
  0
ENDTAB
  0
TABLE
  2
APPID
 70
    19
  0
APPID
  2
ACAD
 70
     0
  0
APPID
  2
GENIUS_GENODEF_13
 70
     0
  0
APPID
  2
ACAD_DSTYLE_DIMARC_LENGTH_
 70
     0
  0
APPID
  2
ACAD_DSTYLE_DIMJOGGED_JOGA
 70
     0
  0
APPID
  2
GENIUS_GENOBJ-N-FIL_13
 70
     0
  0
APPID
  2
ACAD_MLEADERVER
 70
     0
  0
APPID
  2
MCAD_NO_VIS
 70
     0
  0
APPID
  2
ACAD_TEMP_GRAPHIC
 70
     0
  0
APPID
  2
AD_DRAW
 70
     0
  0
APPID
  2
ACATTRIBSERVICES
 70
     0
  0
APPID
  2
DESIGNERASSEMBLIES
 70
     0
  0
APPID
  2
ACADM_DIM_EDIT
 70
     0
  0
APPID
  2
AMDT_DM_ADJ
 70
     0
  0
APPID
  2
GENIUS_GENSCREG_15
 70
     0
  0
APPID
  2
GENIUS_GENOBJ-N-SDF_13
 70
     0
  0
APPID
  2
ACAD_DSTYLE_DIM_LINETYPE
 70
     0
  0
APPID
  2
ACAD_DSTYLE_DIM_EXT1_LINETYPE
 70
     0
  0
APPID
  2
ACAD_DSTYLE_DIM_EXT2_LINETYPE
 70
     0
  0
APPID
  2
ACAD_EXEMPT_FROM_CAD_STANDARDS
 70
     0
  0
ENDTAB
  0
TABLE
  2
DIMSTYLE
 70
     1
  0
DIMSTYLE
  2
STANDARD
 70
     0
  3

  4

  5

  6

  7

 40
1.0
 41
0.18
 42
0.0625
 43
0.38
 44
0.18
 45
0.0
 46
0.0
 47
0.0
 48
0.0
140
0.18
141
0.09
142
0.0
143
25.399999999999999
144
1.0
145
0.0
146
1.0
147
0.09
 71
     0
 72
     0
 73
     1
 74
     1
 75
     0
 76
     0
 77
     0
 78
     0
170
     0
171
     2
172
     0
173
     0
174
     0
175
     0
176
     0
177
     0
178
     0
  0
ENDTAB
  0
ENDSEC
  0
SECTION
  2
BLOCKS
  0
BLOCK
  8
0
  2
$MODEL_SPACE
 70
     0
 10
0.0
 20
0.0
 30
0.0
  3
$MODEL_SPACE
  1

  0
ENDBLK
  5
21
  8
0
  0
BLOCK
 67
     1
  8
0
  2
$PAPER_SPACE
 70
     0
 10
0.0
 20
0.0
 30
0.0
  3
$PAPER_SPACE
  1

  0
ENDBLK
  5
60
 67
     1
  8
0
  0
ENDSEC
  0
SECTION
  2
ENTITIES
  0
LINE
  5
1F29
  8
0
  6
CENTER
 10
163.28400767467431
 20
0.0000000000002274
 30
0.0
 11
126.21955767467431
 21
0.0000000000002274
 31
0.0
  0
LINE
  5
1F2C
  8
0
 10
81.999970000000005
 20
-13.999999999999771
 30
0.0
 11
81.999970000000005
 21
-4.9999999999997717
 31
0.0
  0
LINE
  5
1F2D
  8
0
 10
81.999970000000005
 20
5.0000000000002274
 30
0.0
 11
81.999970000000005
 21
14.000000000000449
 31
0.0
  0
LINE
  5
1F2E
  8
0
  6
CENTER
 10
-0.0000000000000568
 20
0.0
 30
0.0
 11
-40.310890000000029
 21
-69.820508000000018
 31
0.0
  0
LINE
  5
1F2F
  8
0
  6
CENTER
 10
74.999970000000019
 20
-19.999999999999769
 30
0.0
 11
74.999970000000019
 21
58.447850000000237
 31
0.0
  0
LINE
  5
1F32
  8
0
 10
78.999970000000019
 20
-3.9999999999997722
 30
0.0
 11
78.999970000000019
 21
4.0
 31
0.0
  0
LINE
  5
1F34
  8
0
 10
70.999970000000005
 20
-3.9999999999997722
 30
0.0
 11
70.999970000000005
 21
4.0
 31
0.0
  0
LINE
  5
1F3B
  8
0
 10
69.999970000000019
 20
43.000030000000152
 30
0.0
 11
69.999970000000019
 21
31.200020000000219
 31
0.0
  0
LINE
  5
1F3C
  8
0
 10
79.999970000000019
 20
43.000030000000152
 30
0.0
 11
79.999970000000019
 21
31.200020000000219
 31
0.0
  0
LINE
  5
1F3D
  8
0
 10
67.249970000000005
 20
27.200020000000219
 30
0.0
 11
67.249970000000005
 21
17.900030000000239
 31
0.0
  0
LINE
  5
1F3F
  8
0
 10
82.749970000000019
 20
27.200020000000219
 30
0.0
 11
82.749970000000019
 21
17.900030000000239
 31
0.0
  0
LINE
  5
1F40
  8
0
 10
88.939299999999946
 20
52.000030000000152
 30
0.0
 11
61.060670000000023
 21
52.000030000000152
 31
0.0
  0
LINE
  5
1F43
  8
0
 10
80.999970000000005
 20
4.0000000000002274
 30
0.0
 11
59.086790000000008
 21
4.0000000000002274
 31
0.0
  0
LINE
  5
1F45
  8
0
  6
CENTER
 10
144.12119767467439
 20
74.005190000000312
 30
0.0
 11
144.12119767467439
 21
-74.683024999999816
 31
0.0
  0
LINE
  5
1F46
  8
0
  6
CENTER
 10
83.231654999999989
 20
0.0
 30
0.0
 11
-83.231654999999989
 21
0.0
 31
0.0
  0
LINE
  5
1F47
  8
0
 10
153.62119767467439
 20
59.499990000000253
 30
0.0
 11
153.62119767467439
 21
-6.3999899999998879
 31
0.0
  0
LINE
  5
1F48
  8
0
 10
134.62119767467439
 20
59.500050000000101
 30
0.0
 11
134.62119767467439
 21
-6.2662899999997981
 31
0.0
  0
LINE
  5
1F49
  8
0
 10
149.1756176746743
 20
-67.499988999999914
 30
0.0
 11
139.06678767467429
 21
-67.499988999999914
 31
0.0
  0
LINE
  5
1F4A
  8
0
 10
153.62119767467439
 20
-3.9999999999997722
 30
0.0
 11
148.37119767467439
 21
-3.9999999999997722
 31
0.0
  0
LINE
  5
1F4B
  8
0
 10
153.62119767467439
 20
-14.999999999999771
 30
0.0
 11
148.37119767467439
 21
-14.999999999999771
 31
0.0
  0
LINE
  5
1F4F
  8
0
 10
139.87119767467439
 20
-3.9999999999997722
 30
0.0
 11
134.87119767467439
 21
-3.9999999999997722
 31
0.0
  0
LINE
  5
1F50
  8
0
  6
CENTER
 10
155.16126767467429
 20
-9.4999999999997726
 30
0.0
 11
130.85664767467429
 21
-9.4999999999997726
 31
0.0
  0
LINE
  5
1F51
  8
0
 10
149.1756176746743
 20
67.500030000000152
 30
0.0
 11
139.06678767467429
 21
67.500030000000152
 31
0.0
  0
LINE
  5
1F52
  8
0
 10
80.999970000000005
 20
-3.9999999999997722
 30
0.0
 11
59.086790000000008
 21
-3.9999999999997722
 31
0.0
  0
LINE
  5
1F53
  8
0
 10
80.999970000000005
 20
-14.999999999999771
 30
0.0
 11
67.388759999999991
 21
-14.999999999999771
 31
0.0
  0
LINE
  5
1F54
  8
0
 10
134.65527767467429
 20
59.627190000000148
 30
0.0
 11
136.1689976746743
 21
65.276470000000245
 31
0.0
  0
LINE
  5
1F55
  8
0
 10
153.58712767467429
 20
59.62718000000018
 30
0.0
 11
152.07339767467431
 21
65.276470000000245
 31
0.0
  0
LINE
  5
1F56
  8
0
 10
152.07339767467431
 20
-65.276440999999735
 30
0.0
 11
153.5871176746742
 21
-59.627149999999801
 31
0.0
  0
LINE
  5
1F57
  8
0
 10
136.7647876746743
 20
-14.999999999999771
 30
0.0
 11
136.7647876746743
 21
-64.988635999999815
 31
0.0
  0
LINE
  5
1F58
  8
0
 10
151.47761767467429
 20
-14.999999999999771
 30
0.0
 11
151.47761767467429
 21
-65.30692699999986
 31
0.0
  0
LINE
  5
1F5A
  8
0
 10
139.62131767467429
 20
11.28501000000028
 30
0.0
 11
136.64468767467429
 21
14.661330000000129
 31
0.0
  0
LINE
  5
1F5B
  8
0
 10
148.6210776746743
 20
11.285040000000199
 30
0.0
 11
151.59769767467441
 21
14.661360000000281
 31
0.0
  0
LINE
  5
1F5C
  8
0
 10
142.27122767467441
 20
52.000000000000227
 30
0.0
 11
145.9712076746743
 21
52.000000000000227
 31
0.0
  0
LINE
  5
1F5D
  8
0
 10
141.27122767467441
 20
51.00000000000022
 30
0.0
 11
141.27122767467441
 21
31.200020000000219
 31
0.0
  0
LINE
  5
1F5E
  8
0
 10
135.89457767467431
 20
15.00000000000022
 30
0.0
 11
134.87119767467439
 21
15.00000000000022
 31
0.0
  0
LINE
  5
1F5F
  8
0
 10
139.87119767467439
 20
4.0000000000002274
 30
0.0
 11
134.87119767467439
 21
4.0000000000002274
 31
0.0
  0
LINE
  5
1F60
  8
0
 10
139.87119767467439
 20
-3.9999999999997722
 30
0.0
 11
139.87119767467439
 21
-14.999999999999771
 31
0.0
  0
LINE
  5
1F61
  8
0
 10
139.87119767467439
 20
-14.999999999999771
 30
0.0
 11
134.87119767467439
 21
-14.999999999999771
 31
0.0
  0
LINE
  5
1F62
  8
0
 10
139.87119767467439
 20
10.623690000000121
 30
0.0
 11
139.87119767467439
 21
4.0000000000002274
 31
0.0
  0
LINE
  5
1F67
  8
0
 10
140.12119767467439
 20
12.00000000000022
 30
0.0
 11
140.12119767467439
 21
-14.42818999999985
 31
0.0
  0
LINE
  5
1F68
  8
0
 10
140.12119767467439
 20
39.428230000000212
 30
0.0
 11
140.12119767467439
 21
29.38962000000015
 31
0.0
  0
LINE
  5
1F69
  8
0
 10
136.37119767467439
 20
27.200020000000219
 30
0.0
 11
136.37119767467439
 21
17.900000000000091
 31
0.0
  0
LINE
  5
1F6A
  8
0
 10
138.37119767467439
 20
29.200020000000219
 30
0.0
 11
149.87119767467439
 21
29.200020000000219
 31
0.0
  0
LINE
  5
1F6B
  8
0
 10
139.0960276746743
 20
12.00000000000022
 30
0.0
 11
149.14640767467429
 21
12.00000000000022
 31
0.0
  0
LINE
  5
1F6C
  8
0
 10
153.37119767467439
 20
-12.5999999999999
 30
0.0
 11
153.87119767467439
 21
-12.5999999999999
 31
0.0
  0
LINE
  5
1F6D
  8
0
 10
153.37119767467439
 20
-6.3999899999998879
 30
0.0
 11
153.87119767467439
 21
-6.3999899999998879
 31
0.0
  0
LINE
  5
1F6F
  8
0
 10
146.9712076746743
 20
51.00000000000022
 30
0.0
 11
146.9712076746743
 21
31.200020000000219
 31
0.0
  0
LINE
  5
1F70
  8
0
 10
152.34782767467431
 20
15.00000000000022
 30
0.0
 11
153.37119767467439
 21
15.00000000000022
 31
0.0
  0
LINE
  5
1F71
  8
0
 10
148.37119767467439
 20
4.0000000000002274
 30
0.0
 11
153.37119767467439
 21
4.0000000000002274
 31
0.0
  0
LINE
  5
1F72
  8
0
 10
148.37119767467439
 20
-3.9999999999997722
 30
0.0
 11
148.37119767467439
 21
-14.999999999999771
 31
0.0
  0
LINE
  5
1F75
  8
0
 10
148.37119767467439
 20
10.623690000000121
 30
0.0
 11
148.37119767467439
 21
4.0000000000002274
 31
0.0
  0
LINE
  5
1F7A
  8
0
 10
148.12119767467439
 20
12.00000000000022
 30
0.0
 11
148.12119767467439
 21
-14.42818999999985
 31
0.0
  0
LINE
  5
1F7B
  8
0
 10
148.12119767467439
 20
39.428230000000212
 30
0.0
 11
148.12119767467439
 21
29.38962000000015
 31
0.0
  0
LINE
  5
1F7C
  8
0
 10
151.87119767467439
 20
27.200020000000219
 30
0.0
 11
151.87119767467439
 21
17.900000000000091
 31
0.0
  0
LINE
  5
1F7F
  8
0
 10
151.47761767467429
 20
28.391420000000149
 30
0.0
 11
151.47761767467429
 21
65.396080000000211
 31
0.0
  0
LINE
  5
1F80
  8
0
 10
136.7647876746743
 20
28.391420000000149
 30
0.0
 11
136.7647876746743
 21
65.396080000000211
 31
0.0
  0
LINE
  5
1F81
  8
0
 10
67.388759999999991
 20
15.00000000000022
 30
0.0
 11
80.999970000000005
 21
15.000000000000449
 31
0.0
  0
LINE
  5
1F82
  8
0
  6
CENTER
 10
-0.0000000000000568
 20
-77.141869999999926
 30
0.0
 11
-0.0000000000000568
 21
77.141870000000154
 31
0.0
  0
LINE
  5
1F83
  8
0
 10
154.37119767467439
 20
-6.8999899999998879
 30
0.0
 11
154.37119767467439
 21
-12.099999999999911
 31
0.0
  0
LINE
  5
1F84
  8
0
 10
154.62119767467439
 20
-55.726049999999759
 30
0.0
 11
154.62119767467439
 21
-60.926059999999779
 31
0.0
  0
LINE
  5
1F85
  8
0
 10
153.12119767467439
 20
-61.426059999999779
 30
0.0
 11
154.12119767467439
 21
-61.426059999999779
 31
0.0
  0
LINE
  5
1F86
  8
0
 10
153.62119767467439
 20
-55.226049999999759
 30
0.0
 11
154.12119767467439
 21
-55.226049999999759
 31
0.0
  0
LINE
  5
1F87
  8
0
  6
CENTER
 10
155.16126767467429
 20
-63.826049999999903
 30
0.0
 11
130.85664767467429
 21
-63.826049999999903
 31
0.0
  0
LINE
  5
1F88
  8
0
 10
154.62119767467439
 20
55.726060000000189
 30
0.0
 11
154.62119767467439
 21
60.926080000000177
 31
0.0
  0
LINE
  5
1F89
  8
0
  6
CENTER
 10
155.16126767467429
 20
58.3260700000003
 30
0.0
 11
130.85664767467429
 21
58.3260700000003
 31
0.0
  0
LINE
  5
1F8A
  8
0
 10
153.62119767467439
 20
55.226060000000189
 30
0.0
 11
154.12119767467439
 21
55.226060000000189
 31
0.0
  0
LINE
  5
1F8B
  8
0
 10
153.10511767467429
 20
61.426080000000177
 30
0.0
 11
154.12119767467439
 21
61.426080000000177
 31
0.0
  0
LINE
  5
1F8C
  8
0
 10
134.87119767467439
 20
15.00000000000022
 30
0.0
 11
134.87119767467439
 21
-14.999999999999771
 31
0.0
  0
LINE
  5
1F8D
  8
0
 10
153.37119767467439
 20
15.00000000000022
 30
0.0
 11
153.37119767467439
 21
-14.999999999999771
 31
0.0
  0
LINE
  5
1F8F
  8
0
 10
134.62119767467439
 20
-12.73369999999977
 30
0.0
 11
134.62119767467439
 21
-59.368339999999762
 31
0.0
  0
LINE
  5
1F90
  8
0
 10
153.62119767467439
 20
-12.5999999999999
 30
0.0
 11
153.62119767467439
 21
-59.368339999999762
 31
0.0
  0
LINE
  5
1F91
  8
0
 10
134.62119767467439
 20
-61.576049999999888
 30
0.0
 11
135.12119767467439
 21
-61.576049999999888
 31
0.0
  0
LINE
  5
1F92
  8
0
 10
134.62119767467439
 20
61.5760700000003
 30
0.0
 11
135.12119767467439
 21
61.5760700000003
 31
0.0
  0
LINE
  5
1F93
  8
0
 10
135.62119767467439
 20
-63.326049999999903
 30
0.0
 11
135.64639767467429
 21
-63.326049999999903
 31
0.0
  0
LINE
  5
1F94
  8
0
 10
134.62119767467439
 20
-61.576049999999888
 30
0.0
 11
134.62119767467439
 21
-62.326049999999888
 31
0.0
  0
LINE
  5
1F95
  8
0
 10
153.62119767467439
 20
-61.426059999999779
 30
0.0
 11
153.62119767467439
 21
-62.326049999999888
 31
0.0
  0
LINE
  5
1F96
  8
0
 10
136.1689976746743
 20
-65.276445999999851
 30
0.0
 11
134.65527767467429
 21
-59.627139999999827
 31
0.0
  0
LINE
  5
1F97
  8
0
 10
134.62119767467439
 20
61.5760700000003
 30
0.0
 11
134.62119767467439
 21
62.326070000000293
 31
0.0
  0
LINE
  5
1F98
  8
0
 10
153.62119767467439
 20
61.426080000000177
 30
0.0
 11
153.62119767467439
 21
62.326070000000293
 31
0.0
  0
LINE
  5
1F99
  8
0
  6
CENTER
 10
64.435200000000066
 20
-9.4999999999997726
 30
0.0
 11
87.971190000000036
 21
-9.4999999999997726
 31
0.0
  0
LINE
  5
1F9C
  8
0
 10
-17.87429000000003
 20
-57.534499999999753
 30
0.0
 11
-27.08287000000001
 21
-61.828539999999741
 31
0.0
  0
LINE
  5
1F9D
  8
0
 10
-29.086640000000038
 20
-51.79309999999986
 30
0.0
 11
-28.254729999999931
 21
-61.301879999999748
 31
0.0
  0
LINE
  5
1F9E
  8
0
 10
-23.618019999999941
 20
-63.712789999999814
 30
0.0
 11
-33.788100000000043
 21
-64.602555999999822
 31
0.0
  0
LINE
  5
1FA0
  8
0
 10
62.064289999999971
 20
-12.836129999999679
 30
0.0
 11
66.333569999999952
 21
-15.300999999999931
 31
0.0
  0
LINE
  5
1FA1
  8
0
 10
-43.367929999999937
 20
-52.310159999999769
 30
0.0
 11
-39.053449999999941
 21
-61.56259999999974
 31
0.0
  0
LINE
  5
1FA2
  8
0
 10
-29.798820000000031
 20
-49.389699999999721
 30
0.0
 11
-28.97020000000003
 21
-58.860809999999901
 31
0.0
  0
LINE
  5
1FA3
  8
0
 10
-37.222219999999929
 20
-48.267849999999719
 30
0.0
 11
-43.818559999999991
 21
-51.34377999999969
 31
0.0
  0
LINE
  5
1FA4
  8
0
 10
-27.873370000000069
 20
-50.5013399999998
 30
0.0
 11
-28.513050000000071
 21
-50.799629999999752
 31
0.0
  0
ARC
  5
1FB1
  8
0
 10
80.999970000000005
 20
-13.999999999999771
 30
0.0
 40
1.0
 50
270.0
 51
0.0
  0
ARC
  5
1FB2
  8
0
 10
80.999970000000005
 20
-4.9999999999997717
 30
0.0
 40
1.0
 50
0.0
 51
90.00000299999769
  0
ARC
  5
1FB3
  8
0
 10
80.999970000000005
 20
5.0000000000002274
 30
0.0
 40
1.0
 50
270.0
 51
0.0
  0
ARC
  5
1FB6
  8
0
 10
74.999970000000019
 20
32.500030000000152
 30
0.0
 40
8.0
 50
59.999994999994641
 51
119.9999999999972
  0
ARC
  5
1FB7
  8
0
 10
77.999970000000019
 20
31.200020000000219
 30
0.0
 40
2.0
 50
270.0
 51
0.0000086514279086
  0
ARC
  5
1FB8
  8
0
 10
71.999970000000019
 20
31.200020000000219
 30
0.0
 40
2.0
 50
180.000010000001
 51
270.0
  0
ARC
  5
1FB9
  8
0
 10
74.999970000000019
 20
43.000030000000152
 30
0.0
 40
5.0
 50
359.999989999999
 51
180.000010000001
  0
ARC
  5
1FBA
  8
0
 10
55.999999999999943
 20
48.000030000000152
 30
0.0
 40
35.0
 50
324.75248999999542
 51
3.4745943000043429
  0
ARC
  5
1FBB
  8
0
 10
92.749970000000019
 20
22.0300900000002
 30
0.0
 40
10.0
 50
144.75250000000301
 51
180.000010000001
  0
ARC
  5
1FBC
  8
0
 10
57.249999999999943
 20
22.0300900000002
 30
0.0
 40
10.0
 50
359.999989999999
 51
35.247501999994022
  0
ARC
  5
1FBD
  8
0
 10
93.999970000000019
 20
48.000030000000152
 30
0.0
 40
35.0
 50
176.52540999999641
 51
215.2475100000045
  0
ARC
  5
1FBE
  8
0
 10
74.999970000000019
 20
17.900030000000239
 30
0.0
 40
7.75
 50
180.000010000001
 51
201.974717141838
  0
ARC
  5
1FBF
  8
0
 10
74.999970000000019
 20
17.900030000000239
 30
0.0
 40
7.75
 50
333.16897343824621
 51
359.999989999999
  0
ARC
  5
1FC0
  8
0
 10
74.999970000000019
 20
-9.4999999999997726
 30
0.0
 40
6.0
 50
246.44354000000229
 51
293.5564643090994
  0
ARC
  5
1FC3
  8
0
 10
88.939299999999946
 20
50.000030000000152
 30
0.0
 40
2.0
 50
3.4745943000043429
 51
89.999996000000905
  0
ARC
  5
1FC4
  8
0
 10
61.060670000000023
 20
50.000030000000152
 30
0.0
 40
2.0
 50
89.999996000000905
 51
176.52540999999641
  0
ARC
  5
1FC5
  8
0
 10
135.62119767467439
 20
59.368380000000123
 30
0.0
 40
1.0
 50
164.99998999999781
 51
180.000010000001
  0
ARC
  5
1FC6
  8
0
 10
152.62119767467439
 20
59.368380000000123
 30
0.0
 40
1.0
 50
0.0
 51
14.999999999994451
  0
ARC
  5
1FC7
  8
0
 10
135.62119767467439
 20
-59.368339999999762
 30
0.0
 40
1.0
 50
179.99998999999889
 51
194.9999999999944
  0
ARC
  5
1FC8
  8
0
 10
152.62119767467439
 20
-59.368339999999762
 30
0.0
 40
1.0
 50
345.00000000000551
 51
0.0
  0
ARC
  5
1FC9
  8
0
 10
139.06678767467429
 20
64.500030000000152
 30
0.0
 40
3.0
 50
90.00000299999769
 51
164.99998999999781
  0
ARC
  5
1FCA
  8
0
 10
149.1756176746743
 20
64.500030000000152
 30
0.0
 40
3.0
 50
14.999999999994451
 51
90.00000299999769
  0
ARC
  5
1FCB
  8
0
 10
139.06678767467429
 20
-64.499988999999914
 30
0.0
 40
3.0
 50
195.00001000000211
 51
270.0
  0
ARC
  5
1FCC
  8
0
 10
149.1756176746743
 20
-64.499988999999914
 30
0.0
 40
3.0
 50
270.0
 51
345.00000000000551
  0
ARC
  5
1FCD
  8
0
 10
138.87119767467439
 20
10.623690000000121
 30
0.0
 40
1.0
 50
0.0
 51
41.399999999995202
  0
ARC
  5
1FCE
  8
0
 10
149.37119767467439
 20
10.623690000000121
 30
0.0
 40
1.0
 50
138.6000000000048
 51
180.000010000001
  0
ARC
  5
1FCF
  8
0
 10
135.89457767467431
 20
14.00000000000022
 30
0.0
 40
1.0
 50
41.399999999995202
 51
90.00000299999769
  0
ARC
  5
1FD0
  8
0
 10
138.37119767467439
 20
27.200020000000219
 30
0.0
 40
2.0
 50
89.999996000000905
 51
180.000010000001
  0
ARC
  5
1FD1
  8
0
 10
144.12119767467439
 20
32.500000000000227
 30
0.0
 40
8.0
 50
110.8700699999996
 51
119.9999999999972
  0
ARC
  5
1FD2
  8
0
 10
144.12119767467439
 20
17.900000000000091
 30
0.0
 40
7.75
 50
180.000010000001
 51
229.57810000000421
  0
ARC
  5
1FD3
  8
0
 10
144.12119767467439
 20
-7.4999999999997717
 30
0.0
 40
8.0
 50
240.0000000000027
 51
299.99999999999721
  0
ARC
  5
1FD4
  8
0
 10
139.27122767467441
 20
31.200020000000219
 30
0.0
 40
2.0
 50
270.0
 51
0.0000050089504314
  0
ARC
  5
1FD5
  8
0
 10
142.27122767467441
 20
51.00000000000022
 30
0.0
 40
1.0
 50
89.999996000000905
 51
180.000010000001
  0
ARC
  5
1FD7
  8
0
 10
145.9712076746743
 20
51.00000000000022
 30
0.0
 40
1.0
 50
0.0
 51
90.00000299999769
  0
ARC
  5
1FD8
  8
0
 10
148.9712076746743
 20
31.200020000000219
 30
0.0
 40
2.0
 50
179.99998999999889
 51
270.0
  0
ARC
  5
1FD9
  8
0
 10
149.87119767467439
 20
27.200020000000219
 30
0.0
 40
2.0
 50
0.0
 51
90.00000299999769
  0
ARC
  5
1FDA
  8
0
 10
144.12119767467439
 20
32.500000000000227
 30
0.0
 40
8.0
 50
60.000002000001302
 51
69.129929000002221
  0
ARC
  5
1FDB
  8
0
 10
144.12119767467439
 20
17.900000000000091
 30
0.0
 40
7.75
 50
310.42191999999761
 51
0.0
  0
ARC
  5
1FDC
  8
0
 10
153.87119767467439
 20
-12.099999999999911
 30
0.0
 40
0.5
 50
270.0
 51
0.0
  0
ARC
  5
1FDD
  8
0
 10
153.87119767467439
 20
-6.8999899999998879
 30
0.0
 40
0.5
 50
0.0
 51
90.00000299999769
  0
ARC
  5
1FDE
  8
0
 10
152.34782767467431
 20
14.00000000000022
 30
0.0
 40
1.0
 50
90.00000299999769
 51
138.6000000000048
  0
ARC
  5
1FDF
  8
0
 10
154.12119767467439
 20
-55.726049999999759
 30
0.0
 40
0.5
 50
0.0
 51
90.00000299999769
  0
ARC
  5
1FE0
  8
0
 10
154.12119767467439
 20
-60.926059999999779
 30
0.0
 40
0.5
 50
270.0
 51
0.0
  0
ARC
  5
1FE1
  8
0
 10
154.12119767467439
 20
55.726060000000189
 30
0.0
 40
0.5
 50
270.0
 51
0.0
  0
ARC
  5
1FE2
  8
0
 10
154.12119767467439
 20
60.926080000000177
 30
0.0
 40
0.5
 50
0.0
 51
90.00000299999769
  0
ARC
  5
1FE3
  8
0
 10
135.62119767467439
 20
-62.326049999999888
 30
0.0
 40
1.0
 50
179.99998999999889
 51
270.0
  0
ARC
  5
1FE4
  8
0
 10
152.62119767467439
 20
-62.326049999999888
 30
0.0
 40
1.0
 50
270.0
 51
0.0
  0
ARC
  5
1FE5
  8
0
 10
135.62119767467439
 20
62.326070000000293
 30
0.0
 40
1.0
 50
90.00000299999769
 51
180.000010000001
  0
ARC
  5
1FE6
  8
0
 10
152.62119767467439
 20
62.326070000000293
 30
0.0
 40
1.0
 50
0.0
 51
90.00000299999769
  0
ARC
  5
1FE7
  8
0
 10
-0.0000000000000568
 20
0.0000000000002274
 30
0.0
 40
67.5
 50
245.25453000000201
 51
345.84154999999453
  0
ARC
  5
1FE8
  8
0
 10
-0.0000000000000568
 20
0.0000000000002274
 30
0.0
 40
56.5
 50
243.4389600000012
 51
353.24366999999762
  0
ARC
  5
1FE9
  8
0
 10
59.086790000000008
 20
-6.9999999999997717
 30
0.0
 40
3.0
 50
90.00000299999769
 51
173.2436799999941
  0
ARC
  5
1FEB
  8
0
  6
CENTER
 10
-0.0000000000000568
 20
0.0000000000002274
 30
0.0
 40
68.5
 50
233.12391999999829
 51
245.47430000000119
  0
ARC
  5
1FEE
  8
0
 10
-0.0000000000000568
 20
0.0000000000002274
 30
0.0
 40
59.5
 50
254.5912899999978
 51
345.70304999999962
  0
ARC
  5
1FF0
  8
0
 10
-16.606450000000049
 20
-60.253429999999753
 30
0.0
 40
3.0
 50
74.591287000001785
 51
114.9999999999993
  0
ARC
  5
1FF3
  8
0
 10
-23.182219999999969
 20
-68.693767999999864
 30
0.0
 40
5.0
 50
71.351912999999684
 51
95.000001999999157
  0
ARC
  5
1FF4
  8
0
 10
60.564299999999953
 20
-15.43419999999969
 30
0.0
 40
3.0
 50
60.000002000001302
 51
165.70304999999959
  0
ARC
  5
1FF5
  8
0
 10
67.388759999999991
 20
-16.999999999999769
 30
0.0
 40
2.0
 50
90.00000299999769
 51
165.84154000000001
  0
ARC
  5
1FF8
  8
0
 10
-47.899470000000001
 20
-54.4232599999998
 30
0.0
 40
5.0
 50
25.000000000006629
 51
48.648083999996381
  0
ARC
  5
1FF9
  8
0
 10
-32.787380000000041
 20
-49.651159999999891
 30
0.0
 40
3.0
 50
4.999999899997543
 51
56.561046000000317
  0
ARC
  5
1FFA
  8
0
 10
-34.250029999999981
 20
-59.322729999999872
 30
0.0
 40
5.3000002000000004
 50
204.99998499645869
 51
4.999999899997543
  0
ARC
  5
1FFD
  8
0
 10
-37.644839999999988
 20
-47.361549999999852
 30
0.0
 40
1.0
 50
294.99999999999932
 51
51.520942999998269
  0
ARC
  5
1FFE
  8
0
 10
-28.090420000000051
 20
-51.705939999999828
 30
0.0
 40
1.0
 50
114.9999999999993
 51
184.99999999999969
  0
ARC
  5
1FFF
  8
0
 10
-26.60549999999995
 20
-53.220259999999833
 30
0.0
 40
3.0
 50
63.43895399999964
 51
114.9999999999993
  0
POLYLINE
  5
2015
  8
0
 10
134.87119767467439
 20
-6.2499998999997732
 30
0.0
 66
     1
 70
     8
  0
VERTEX
  8
0
  5
2E38
 10
134.871
 20
-6.25000
 30
0.000000
  70
    32
  0
VERTEX
  8
0
  5
2E39
 10
134.810
 20
-6.25098
 30
0.000000
  70
    32
  0
VERTEX
  8
0
  5
2E3A
 10
134.749
 20
-6.25391
 30
0.000000
  70
    32
  0
VERTEX
  8
0
  5
2E3B
 10
134.687
 20
-6.25881
 30
0.000000
  70
    32
  0
VERTEX
  8
0
  5
2E3C
 10
134.626
 20
-6.26565
 30
0.000000
  70
    32
  0
VERTEX
  8
0
  5
2E3D
 10
134.565
 20
-6.27444
 30
0.000000
  70
    32
  0
VERTEX
  8
0
  5
2E3E
 10
134.504
 20
-6.28518
 30
0.000000
  70
    32
  0
VERTEX
  8
0
  5
2E3F
 10
134.444
 20
-6.29785
 30
0.000000
  70
    32
  0
VERTEX
  8
0
  5
2E40
 10
134.383
 20
-6.31245
 30
0.000000
  70
    32
  0
VERTEX
  8
0
  5
2E41
 10
134.323
 20
-6.32897
 30
0.000000
  70
    32
  0
VERTEX
  8
0
  5
2E42
 10
134.264
 20
-6.34740
 30
0.000000
  70
    32
  0
VERTEX
  8
0
  5
2E43
 10
134.204
 20
-6.36773
 30
0.000000
  70
    32
  0
VERTEX
  8
0
  5
2E44
 10
134.145
 20
-6.38994
 30
0.000000
  70
    32
  0
VERTEX
  8
0
  5
2E45
 10
134.087
 20
-6.41403
 30
0.000000
  70
    32
  0
VERTEX
  8
0
  5
2E46
 10
134.029
 20
-6.43998
 30
0.000000
  70
    32
  0
VERTEX
  8
0
  5
2E47
 10
133.971
 20
-6.46777
 30
0.000000
  70
    32
  0
VERTEX
  8
0
  5
2E48
 10
133.914
 20
-6.49739
 30
0.000000
  70
    32
  0
VERTEX
  8
0
  5
2E49
 10
133.858
 20
-6.52882
 30
0.000000
  70
    32
  0
VERTEX
  8
0
  5
2E4A
 10
133.802
 20
-6.56203
 30
0.000000
  70
    32
  0
VERTEX
  8
0
  5
2E4B
 10
133.747
 20
-6.59702
 30
0.000000
  70
    32
  0
VERTEX
  8
0
  5
2E4C
 10
133.693
 20
-6.63376
 30
0.000000
  70
    32
  0
VERTEX
  8
0
  5
2E4D
 10
133.639
 20
-6.67222
 30
0.000000
  70
    32
  0
VERTEX
  8
0
  5
2E4E
 10
133.586
 20
-6.71238
 30
0.000000
  70
    32
  0
VERTEX
  8
0
  5
2E4F
 10
133.534
 20
-6.75423
 30
0.000000
  70
    32
  0
VERTEX
  8
0
  5
2E50
 10
133.482
 20
-6.79772
 30
0.000000
  70
    32
  0
VERTEX
  8
0
  5
2E51
 10
133.432
 20
-6.84285
 30
0.000000
  70
    32
  0
VERTEX
  8
0
  5
2E52
 10
133.382
 20
-6.88958
 30
0.000000
  70
    32
  0
VERTEX
  8
0
  5
2E53
 10
133.333
 20
-6.93787
 30
0.000000
  70
    32
  0
VERTEX
  8
0
  5
2E54
 10
133.285
 20
-6.98772
 30
0.000000
  70
    32
  0
VERTEX
  8
0
  5
2E55
 10
133.238
 20
-7.03907
 30
0.000000
  70
    32
  0
VERTEX
  8
0
  5
2E56
 10
133.192
 20
-7.09191
 30
0.000000
  70
    32
  0
VERTEX
  8
0
  5
2E57
 10
133.147
 20
-7.14620
 30
0.000000
  70
    32
  0
VERTEX
  8
0
  5
2E58
 10
133.103
 20
-7.20190
 30
0.000000
  70
    32
  0
VERTEX
  8
0
  5
2E59
 10
133.061
 20
-7.25899
 30
0.000000
  70
    32
  0
VERTEX
  8
0
  5
2E5A
 10
133.019
 20
-7.31743
 30
0.000000
  70
    32
  0
VERTEX
  8
0
  5
2E5B
 10
132.978
 20
-7.37719
 30
0.000000
  70
    32
  0
VERTEX
  8
0
  5
2E5C
 10
132.939
 20
-7.43822
 30
0.000000
  70
    32
  0
VERTEX
  8
0
  5
2E5D
 10
132.900
 20
-7.50050
 30
0.000000
  70
    32
  0
VERTEX
  8
0
  5
2E5E
 10
132.863
 20
-7.56398
 30
0.000000
  70
    32
  0
VERTEX
  8
0
  5
2E5F
 10
132.827
 20
-7.62862
 30
0.000000
  70
    32
  0
VERTEX
  8
0
  5
2E60
 10
132.793
 20
-7.69440
 30
0.000000
  70
    32
  0
VERTEX
  8
0
  5
2E61
 10
132.759
 20
-7.76126
 30
0.000000
  70
    32
  0
VERTEX
  8
0
  5
2E62
 10
132.727
 20
-7.82917
 30
0.000000
  70
    32
  0
VERTEX
  8
0
  5
2E63
 10
132.696
 20
-7.89808
 30
0.000000
  70
    32
  0
VERTEX
  8
0
  5
2E64
 10
132.666
 20
-7.96796
 30
0.000000
  70
    32
  0
VERTEX
  8
0
  5
2E65
 10
132.638
 20
-8.03876
 30
0.000000
  70
    32
  0
VERTEX
  8
0
  5
2E66
 10
132.611
 20
-8.11045
 30
0.000000
  70
    32
  0
VERTEX
  8
0
  5
2E67
 10
132.586
 20
-8.18297
 30
0.000000
  70
    32
  0
VERTEX
  8
0
  5
2E68
 10
132.561
 20
-8.25628
 30
0.000000
  70
    32
  0
VERTEX
  8
0
  5
2E69
 10
132.539
 20
-8.33034
 30
0.000000
  70
    32
  0
VERTEX
  8
0
  5
2E6A
 10
132.517
 20
-8.40511
 30
0.000000
  70
    32
  0
VERTEX
  8
0
  5
2E6B
 10
132.497
 20
-8.48053
 30
0.000000
  70
    32
  0
VERTEX
  8
0
  5
2E6C
 10
132.479
 20
-8.55657
 30
0.000000
  70
    32
  0
VERTEX
  8
0
  5
2E6D
 10
132.462
 20
-8.63318
 30
0.000000
  70
    32
  0
VERTEX
  8
0
  5
2E6E
 10
132.446
 20
-8.71031
 30
0.000000
  70
    32
  0
VERTEX
  8
0
  5
2E6F
 10
132.432
 20
-8.78792
 30
0.000000
  70
    32
  0
VERTEX
  8
0
  5
2E70
 10
132.419
 20
-8.86596
 30
0.000000
  70
    32
  0
VERTEX
  8
0
  5
2E71
 10
132.408
 20
-8.94437
 30
0.000000
  70
    32
  0
VERTEX
  8
0
  5
2E72
 10
132.398
 20
-9.02313
 30
0.000000
  70
    32
  0
VERTEX
  8
0
  5
2E73
 10
132.390
 20
-9.10217
 30
0.000000
  70
    32
  0
VERTEX
  8
0
  5
2E74
 10
132.383
 20
-9.18144
 30
0.000000
  70
    32
  0
VERTEX
  8
0
  5
2E75
 10
132.378
 20
-9.26092
 30
0.000000
  70
    32
  0
VERTEX
  8
0
  5
2E76
 10
132.374
 20
-9.34053
 30
0.000000
  70
    32
  0
VERTEX
  8
0
  5
2E77
 10
132.372
 20
-9.42024
 30
0.000000
  70
    32
  0
VERTEX
  8
0
  5
2E78
 10
132.371
 20
-9.50000
 30
0.000000
  70
    32
  0
VERTEX
  8
0
  5
2E79
 10
132.372
 20
-9.57976
 30
0.000000
  70
    32
  0
VERTEX
  8
0
  5
2E7A
 10
132.374
 20
-9.65947
 30
0.000000
  70
    32
  0
VERTEX
  8
0
  5
2E7B
 10
132.378
 20
-9.73908
 30
0.000000
  70
    32
  0
VERTEX
  8
0
  5
2E7C
 10
132.383
 20
-9.81856
 30
0.000000
  70
    32
  0
VERTEX
  8
0
  5
2E7D
 10
132.390
 20
-9.89783
 30
0.000000
  70
    32
  0
VERTEX
  8
0
  5
2E7E
 10
132.398
 20
-9.97687
 30
0.000000
  70
    32
  0
VERTEX
  8
0
  5
2E7F
 10
132.408
 20
-10.0556
 30
0.000000
  70
    32
  0
VERTEX
  8
0
  5
2E80
 10
132.419
 20
-10.1340
 30
0.000000
  70
    32
  0
VERTEX
  8
0
  5
2E81
 10
132.432
 20
-10.2121
 30
0.000000
  70
    32
  0
VERTEX
  8
0
  5
2E82
 10
132.446
 20
-10.2897
 30
0.000000
  70
    32
  0
VERTEX
  8
0
  5
2E83
 10
132.462
 20
-10.3668
 30
0.000000
  70
    32
  0
VERTEX
  8
0
  5
2E84
 10
132.479
 20
-10.4434
 30
0.000000
  70
    32
  0
VERTEX
  8
0
  5
2E85
 10
132.497
 20
-10.5195
 30
0.000000
  70
    32
  0
VERTEX
  8
0
  5
2E86
 10
132.517
 20
-10.5949
 30
0.000000
  70
    32
  0
VERTEX
  8
0
  5
2E87
 10
132.539
 20
-10.6697
 30
0.000000
  70
    32
  0
VERTEX
  8
0
  5
2E88
 10
132.561
 20
-10.7437
 30
0.000000
  70
    32
  0
VERTEX
  8
0
  5
2E89
 10
132.586
 20
-10.8170
 30
0.000000
  70
    32
  0
VERTEX
  8
0
  5
2E8A
 10
132.611
 20
-10.8896
 30
0.000000
  70
    32
  0
VERTEX
  8
0
  5
2E8B
 10
132.638
 20
-10.9612
 30
0.000000
  70
    32
  0
VERTEX
  8
0
  5
2E8C
 10
132.666
 20
-11.0320
 30
0.000000
  70
    32
  0
VERTEX
  8
0
  5
2E8D
 10
132.696
 20
-11.1019
 30
0.000000
  70
    32
  0
VERTEX
  8
0
  5
2E8E
 10
132.727
 20
-11.1708
 30
0.000000
  70
    32
  0
VERTEX
  8
0
  5
2E8F
 10
132.759
 20
-11.2387
 30
0.000000
  70
    32
  0
VERTEX
  8
0
  5
2E90
 10
132.793
 20
-11.3056
 30
0.000000
  70
    32
  0
VERTEX
  8
0
  5
2E91
 10
132.827
 20
-11.3714
 30
0.000000
  70
    32
  0
VERTEX
  8
0
  5
2E92
 10
132.863
 20
-11.4360
 30
0.000000
  70
    32
  0
VERTEX
  8
0
  5
2E93
 10
132.900
 20
-11.4995
 30
0.000000
  70
    32
  0
VERTEX
  8
0
  5
2E94
 10
132.939
 20
-11.5618
 30
0.000000
  70
    32
  0
VERTEX
  8
0
  5
2E95
 10
132.978
 20
-11.6228
 30
0.000000
  70
    32
  0
VERTEX
  8
0
  5
2E96
 10
133.019
 20
-11.6826
 30
0.000000
  70
    32
  0
VERTEX
  8
0
  5
2E97
 10
133.061
 20
-11.7410
 30
0.000000
  70
    32
  0
VERTEX
  8
0
  5
2E98
 10
133.103
 20
-11.7981
 30
0.000000
  70
    32
  0
VERTEX
  8
0
  5
2E99
 10
133.147
 20
-11.8538
 30
0.000000
  70
    32
  0
VERTEX
  8
0
  5
2E9A
 10
133.192
 20
-11.9081
 30
0.000000
  70
    32
  0
VERTEX
  8
0
  5
2E9B
 10
133.238
 20
-11.9609
 30
0.000000
  70
    32
  0
VERTEX
  8
0
  5
2E9C
 10
133.285
 20
-12.0123
 30
0.000000
  70
    32
  0
VERTEX
  8
0
  5
2E9D
 10
133.333
 20
-12.0621
 30
0.000000
  70
    32
  0
VERTEX
  8
0
  5
2E9E
 10
133.382
 20
-12.1104
 30
0.000000
  70
    32
  0
VERTEX
  8
0
  5
2E9F
 10
133.432
 20
-12.1572
 30
0.000000
  70
    32
  0
VERTEX
  8
0
  5
2EA0
 10
133.482
 20
-12.2023
 30
0.000000
  70
    32
  0
VERTEX
  8
0
  5
2EA1
 10
133.534
 20
-12.2458
 30
0.000000
  70
    32
  0
VERTEX
  8
0
  5
2EA2
 10
133.586
 20
-12.2876
 30
0.000000
  70
    32
  0
VERTEX
  8
0
  5
2EA3
 10
133.639
 20
-12.3278
 30
0.000000
  70
    32
  0
VERTEX
  8
0
  5
2EA4
 10
133.693
 20
-12.3662
 30
0.000000
  70
    32
  0
VERTEX
  8
0
  5
2EA5
 10
133.747
 20
-12.4030
 30
0.000000
  70
    32
  0
VERTEX
  8
0
  5
2EA6
 10
133.802
 20
-12.4380
 30
0.000000
  70
    32
  0
VERTEX
  8
0
  5
2EA7
 10
133.858
 20
-12.4712
 30
0.000000
  70
    32
  0
VERTEX
  8
0
  5
2EA8
 10
133.914
 20
-12.5026
 30
0.000000
  70
    32
  0
VERTEX
  8
0
  5
2EA9
 10
133.971
 20
-12.5322
 30
0.000000
  70
    32
  0
VERTEX
  8
0
  5
2EAA
 10
134.029
 20
-12.5600
 30
0.000000
  70
    32
  0
VERTEX
  8
0
  5
2EAB
 10
134.087
 20
-12.5860
 30
0.000000
  70
    32
  0
VERTEX
  8
0
  5
2EAC
 10
134.145
 20
-12.6101
 30
0.000000
  70
    32
  0
VERTEX
  8
0
  5
2EAD
 10
134.204
 20
-12.6323
 30
0.000000
  70
    32
  0
VERTEX
  8
0
  5
2EAE
 10
134.264
 20
-12.6526
 30
0.000000
  70
    32
  0
VERTEX
  8
0
  5
2EAF
 10
134.323
 20
-12.6710
 30
0.000000
  70
    32
  0
VERTEX
  8
0
  5
2EB0
 10
134.383
 20
-12.6876
 30
0.000000
  70
    32
  0
VERTEX
  8
0
  5
2EB1
 10
134.444
 20
-12.7022
 30
0.000000
  70
    32
  0
VERTEX
  8
0
  5
2EB2
 10
134.504
 20
-12.7148
 30
0.000000
  70
    32
  0
VERTEX
  8
0
  5
2EB3
 10
134.565
 20
-12.7256
 30
0.000000
  70
    32
  0
VERTEX
  8
0
  5
2EB4
 10
134.626
 20
-12.7344
 30
0.000000
  70
    32
  0
VERTEX
  8
0
  5
2EB5
 10
134.687
 20
-12.7412
 30
0.000000
  70
    32
  0
VERTEX
  8
0
  5
2EB6
 10
134.749
 20
-12.7461
 30
0.000000
  70
    32
  0
VERTEX
  8
0
  5
2EB7
 10
134.810
 20
-12.7490
 30
0.000000
  70
    32
  0
VERTEX
  8
0
  5
2EB8
 10
134.871
 20
-12.7500
 30
0.000000
  70
    32
  0
SEQEND
  8
0
  5
2EB9
  0
POLYLINE
  5
2016
  8
0
 10
134.62119767467439
 20
-55.076049899999902
 30
0.0
 66
     1
 70
     8
  0
VERTEX
  8
0
  5
2EBA
 10
134.621
 20
-55.0760
 30
0.000000
  70
    32
  0
VERTEX
  8
0
  5
2EBB
 10
134.560
 20
-55.0770
 30
0.000000
  70
    32
  0
VERTEX
  8
0
  5
2EBC
 10
134.499
 20
-55.0800
 30
0.000000
  70
    32
  0
VERTEX
  8
0
  5
2EBD
 10
134.437
 20
-55.0849
 30
0.000000
  70
    32
  0
VERTEX
  8
0
  5
2EBE
 10
134.376
 20
-55.0917
 30
0.000000
  70
    32
  0
VERTEX
  8
0
  5
2EBF
 10
134.315
 20
-55.1005
 30
0.000000
  70
    32
  0
VERTEX
  8
0
  5
2EC0
 10
134.254
 20
-55.1112
 30
0.000000
  70
    32
  0
VERTEX
  8
0
  5
2EC1
 10
134.194
 20
-55.1239
 30
0.000000
  70
    32
  0
VERTEX
  8
0
  5
2EC2
 10
134.133
 20
-55.1385
 30
0.000000
  70
    32
  0
VERTEX
  8
0
  5
2EC3
 10
134.073
 20
-55.1550
 30
0.000000
  70
    32
  0
VERTEX
  8
0
  5
2EC4
 10
134.014
 20
-55.1734
 30
0.000000
  70
    32
  0
VERTEX
  8
0
  5
2EC5
 10
133.954
 20
-55.1938
 30
0.000000
  70
    32
  0
VERTEX
  8
0
  5
2EC6
 10
133.895
 20
-55.2160
 30
0.000000
  70
    32
  0
VERTEX
  8
0
  5
2EC7
 10
133.837
 20
-55.2401
 30
0.000000
  70
    32
  0
VERTEX
  8
0
  5
2EC8
 10
133.779
 20
-55.2660
 30
0.000000
  70
    32
  0
VERTEX
  8
0
  5
2EC9
 10
133.721
 20
-55.2938
 30
0.000000
  70
    32
  0
VERTEX
  8
0
  5
2ECA
 10
133.664
 20
-55.3234
 30
0.000000
  70
    32
  0
VERTEX
  8
0
  5
2ECB
 10
133.608
 20
-55.3549
 30
0.000000
  70
    32
  0
VERTEX
  8
0
  5
2ECC
 10
133.552
 20
-55.3881
 30
0.000000
  70
    32
  0
VERTEX
  8
0
  5
2ECD
 10
133.497
 20
-55.4231
 30
0.000000
  70
    32
  0
VERTEX
  8
0
  5
2ECE
 10
133.443
 20
-55.4598
 30
0.000000
  70
    32
  0
VERTEX
  8
0
  5
2ECF
 10
133.389
 20
-55.4983
 30
0.000000
  70
    32
  0
VERTEX
  8
0
  5
2ED0
 10
133.336
 20
-55.5384
 30
0.000000
  70
    32
  0
VERTEX
  8
0
  5
2ED1
 10
133.284
 20
-55.5803
 30
0.000000
  70
    32
  0
VERTEX
  8
0
  5
2ED2
 10
133.232
 20
-55.6238
 30
0.000000
  70
    32
  0
VERTEX
  8
0
  5
2ED3
 10
133.182
 20
-55.6689
 30
0.000000
  70
    32
  0
VERTEX
  8
0
  5
2ED4
 10
133.132
 20
-55.7156
 30
0.000000
  70
    32
  0
VERTEX
  8
0
  5
2ED5
 10
133.083
 20
-55.7639
 30
0.000000
  70
    32
  0
VERTEX
  8
0
  5
2ED6
 10
133.035
 20
-55.8138
 30
0.000000
  70
    32
  0
VERTEX
  8
0
  5
2ED7
 10
132.988
 20
-55.8651
 30
0.000000
  70
    32
  0
VERTEX
  8
0
  5
2ED8
 10
132.942
 20
-55.9180
 30
0.000000
  70
    32
  0
VERTEX
  8
0
  5
2ED9
 10
132.897
 20
-55.9722
 30
0.000000
  70
    32
  0
VERTEX
  8
0
  5
2EDA
 10
132.853
 20
-56.0280
 30
0.000000
  70
    32
  0
VERTEX
  8
0
  5
2EDB
 10
132.811
 20
-56.0850
 30
0.000000
  70
    32
  0
VERTEX
  8
0
  5
2EDC
 10
132.769
 20
-56.1435
 30
0.000000
  70
    32
  0
VERTEX
  8
0
  5
2EDD
 10
132.728
 20
-56.2032
 30
0.000000
  70
    32
  0
VERTEX
  8
0
  5
2EDE
 10
132.689
 20
-56.2643
 30
0.000000
  70
    32
  0
VERTEX
  8
0
  5
2EDF
 10
132.650
 20
-56.3265
 30
0.000000
  70
    32
  0
VERTEX
  8
0
  5
2EE0
 10
132.613
 20
-56.3900
 30
0.000000
  70
    32
  0
VERTEX
  8
0
  5
2EE1
 10
132.577
 20
-56.4547
 30
0.000000
  70
    32
  0
VERTEX
  8
0
  5
2EE2
 10
132.543
 20
-56.5204
 30
0.000000
  70
    32
  0
VERTEX
  8
0
  5
2EE3
 10
132.509
 20
-56.5873
 30
0.000000
  70
    32
  0
VERTEX
  8
0
  5
2EE4
 10
132.477
 20
-56.6552
 30
0.000000
  70
    32
  0
VERTEX
  8
0
  5
2EE5
 10
132.446
 20
-56.7241
 30
0.000000
  70
    32
  0
VERTEX
  8
0
  5
2EE6
 10
132.416
 20
-56.7940
 30
0.000000
  70
    32
  0
VERTEX
  8
0
  5
2EE7
 10
132.388
 20
-56.8648
 30
0.000000
  70
    32
  0
VERTEX
  8
0
  5
2EE8
 10
132.361
 20
-56.9365
 30
0.000000
  70
    32
  0
VERTEX
  8
0
  5
2EE9
 10
132.336
 20
-57.0090
 30
0.000000
  70
    32
  0
VERTEX
  8
0
  5
2EEA
 10
132.311
 20
-57.0823
 30
0.000000
  70
    32
  0
VERTEX
  8
0
  5
2EEB
 10
132.289
 20
-57.1564
 30
0.000000
  70
    32
  0
VERTEX
  8
0
  5
2EEC
 10
132.267
 20
-57.2312
 30
0.000000
  70
    32
  0
VERTEX
  8
0
  5
2EED
 10
132.247
 20
-57.3066
 30
0.000000
  70
    32
  0
VERTEX
  8
0
  5
2EEE
 10
132.229
 20
-57.3826
 30
0.000000
  70
    32
  0
VERTEX
  8
0
  5
2EEF
 10
132.212
 20
-57.4592
 30
0.000000
  70
    32
  0
VERTEX
  8
0
  5
2EF0
 10
132.196
 20
-57.5364
 30
0.000000
  70
    32
  0
VERTEX
  8
0
  5
2EF1
 10
132.182
 20
-57.6140
 30
0.000000
  70
    32
  0
VERTEX
  8
0
  5
2EF2
 10
132.169
 20
-57.6920
 30
0.000000
  70
    32
  0
VERTEX
  8
0
  5
2EF3
 10
132.158
 20
-57.7704
 30
0.000000
  70
    32
  0
VERTEX
  8
0
  5
2EF4
 10
132.148
 20
-57.8492
 30
0.000000
  70
    32
  0
VERTEX
  8
0
  5
2EF5
 10
132.140
 20
-57.9282
 30
0.000000
  70
    32
  0
VERTEX
  8
0
  5
2EF6
 10
132.133
 20
-58.0075
 30
0.000000
  70
    32
  0
VERTEX
  8
0
  5
2EF7
 10
132.128
 20
-58.0870
 30
0.000000
  70
    32
  0
VERTEX
  8
0
  5
2EF8
 10
132.124
 20
-58.1666
 30
0.000000
  70
    32
  0
VERTEX
  8
0
  5
2EF9
 10
132.122
 20
-58.2463
 30
0.000000
  70
    32
  0
VERTEX
  8
0
  5
2EFA
 10
132.121
 20
-58.3261
 30
0.000000
  70
    32
  0
VERTEX
  8
0
  5
2EFB
 10
132.122
 20
-58.4058
 30
0.000000
  70
    32
  0
VERTEX
  8
0
  5
2EFC
 10
132.124
 20
-58.4855
 30
0.000000
  70
    32
  0
VERTEX
  8
0
  5
2EFD
 10
132.128
 20
-58.5651
 30
0.000000
  70
    32
  0
VERTEX
  8
0
  5
2EFE
 10
132.133
 20
-58.6446
 30
0.000000
  70
    32
  0
VERTEX
  8
0
  5
2EFF
 10
132.140
 20
-58.7239
 30
0.000000
  70
    32
  0
VERTEX
  8
0
  5
2F00
 10
132.148
 20
-58.8029
 30
0.000000
  70
    32
  0
VERTEX
  8
0
  5
2F01
 10
132.158
 20
-58.8817
 30
0.000000
  70
    32
  0
VERTEX
  8
0
  5
2F02
 10
132.169
 20
-58.9601
 30
0.000000
  70
    32
  0
VERTEX
  8
0
  5
2F03
 10
132.182
 20
-59.0381
 30
0.000000
  70
    32
  0
VERTEX
  8
0
  5
2F04
 10
132.196
 20
-59.1157
 30
0.000000
  70
    32
  0
VERTEX
  8
0
  5
2F05
 10
132.212
 20
-59.1929
 30
0.000000
  70
    32
  0
VERTEX
  8
0
  5
2F06
 10
132.229
 20
-59.2695
 30
0.000000
  70
    32
  0
VERTEX
  8
0
  5
2F07
 10
132.247
 20
-59.3455
 30
0.000000
  70
    32
  0
VERTEX
  8
0
  5
2F08
 10
132.267
 20
-59.4209
 30
0.000000
  70
    32
  0
VERTEX
  8
0
  5
2F09
 10
132.289
 20
-59.4957
 30
0.000000
  70
    32
  0
VERTEX
  8
0
  5
2F0A
 10
132.311
 20
-59.5698
 30
0.000000
  70
    32
  0
VERTEX
  8
0
  5
2F0B
 10
132.336
 20
-59.6431
 30
0.000000
  70
    32
  0
VERTEX
  8
0
  5
2F0C
 10
132.361
 20
-59.7156
 30
0.000000
  70
    32
  0
VERTEX
  8
0
  5
2F0D
 10
132.388
 20
-59.7873
 30
0.000000
  70
    32
  0
VERTEX
  8
0
  5
2F0E
 10
132.416
 20
-59.8581
 30
0.000000
  70
    32
  0
VERTEX
  8
0
  5
2F0F
 10
132.446
 20
-59.9280
 30
0.000000
  70
    32
  0
VERTEX
  8
0
  5
2F10
 10
132.477
 20
-59.9969
 30
0.000000
  70
    32
  0
VERTEX
  8
0
  5
2F11
 10
132.509
 20
-60.0648
 30
0.000000
  70
    32
  0
VERTEX
  8
0
  5
2F12
 10
132.543
 20
-60.1317
 30
0.000000
  70
    32
  0
VERTEX
  8
0
  5
2F13
 10
132.577
 20
-60.1974
 30
0.000000
  70
    32
  0
VERTEX
  8
0
  5
2F14
 10
132.613
 20
-60.2621
 30
0.000000
  70
    32
  0
VERTEX
  8
0
  5
2F15
 10
132.650
 20
-60.3256
 30
0.000000
  70
    32
  0
VERTEX
  8
0
  5
2F16
 10
132.689
 20
-60.3878
 30
0.000000
  70
    32
  0
VERTEX
  8
0
  5
2F17
 10
132.728
 20
-60.4489
 30
0.000000
  70
    32
  0
VERTEX
  8
0
  5
2F18
 10
132.769
 20
-60.5086
 30
0.000000
  70
    32
  0
VERTEX
  8
0
  5
2F19
 10
132.811
 20
-60.5671
 30
0.000000
  70
    32
  0
VERTEX
  8
0
  5
2F1A
 10
132.853
 20
-60.6241
 30
0.000000
  70
    32
  0
VERTEX
  8
0
  5
2F1B
 10
132.897
 20
-60.6799
 30
0.000000
  70
    32
  0
VERTEX
  8
0
  5
2F1C
 10
132.942
 20
-60.7341
 30
0.000000
  70
    32
  0
VERTEX
  8
0
  5
2F1D
 10
132.988
 20
-60.7870
 30
0.000000
  70
    32
  0
VERTEX
  8
0
  5
2F1E
 10
133.035
 20
-60.8383
 30
0.000000
  70
    32
  0
VERTEX
  8
0
  5
2F1F
 10
133.083
 20
-60.8882
 30
0.000000
  70
    32
  0
VERTEX
  8
0
  5
2F20
 10
133.132
 20
-60.9365
 30
0.000000
  70
    32
  0
VERTEX
  8
0
  5
2F21
 10
133.182
 20
-60.9832
 30
0.000000
  70
    32
  0
VERTEX
  8
0
  5
2F22
 10
133.232
 20
-61.0283
 30
0.000000
  70
    32
  0
VERTEX
  8
0
  5
2F23
 10
133.284
 20
-61.0718
 30
0.000000
  70
    32
  0
VERTEX
  8
0
  5
2F24
 10
133.336
 20
-61.1137
 30
0.000000
  70
    32
  0
VERTEX
  8
0
  5
2F25
 10
133.389
 20
-61.1538
 30
0.000000
  70
    32
  0
VERTEX
  8
0
  5
2F26
 10
133.443
 20
-61.1923
 30
0.000000
  70
    32
  0
VERTEX
  8
0
  5
2F27
 10
133.497
 20
-61.2290
 30
0.000000
  70
    32
  0
VERTEX
  8
0
  5
2F28
 10
133.552
 20
-61.2640
 30
0.000000
  70
    32
  0
VERTEX
  8
0
  5
2F29
 10
133.608
 20
-61.2972
 30
0.000000
  70
    32
  0
VERTEX
  8
0
  5
2F2A
 10
133.664
 20
-61.3287
 30
0.000000
  70
    32
  0
VERTEX
  8
0
  5
2F2B
 10
133.721
 20
-61.3583
 30
0.000000
  70
    32
  0
VERTEX
  8
0
  5
2F2C
 10
133.779
 20
-61.3861
 30
0.000000
  70
    32
  0
VERTEX
  8
0
  5
2F2D
 10
133.837
 20
-61.4120
 30
0.000000
  70
    32
  0
VERTEX
  8
0
  5
2F2E
 10
133.895
 20
-61.4361
 30
0.000000
  70
    32
  0
VERTEX
  8
0
  5
2F2F
 10
133.954
 20
-61.4583
 30
0.000000
  70
    32
  0
VERTEX
  8
0
  5
2F30
 10
134.014
 20
-61.4787
 30
0.000000
  70
    32
  0
VERTEX
  8
0
  5
2F31
 10
134.073
 20
-61.4971
 30
0.000000
  70
    32
  0
VERTEX
  8
0
  5
2F32
 10
134.133
 20
-61.5136
 30
0.000000
  70
    32
  0
VERTEX
  8
0
  5
2F33
 10
134.194
 20
-61.5282
 30
0.000000
  70
    32
  0
VERTEX
  8
0
  5
2F34
 10
134.254
 20
-61.5409
 30
0.000000
  70
    32
  0
VERTEX
  8
0
  5
2F35
 10
134.315
 20
-61.5516
 30
0.000000
  70
    32
  0
VERTEX
  8
0
  5
2F36
 10
134.376
 20
-61.5604
 30
0.000000
  70
    32
  0
VERTEX
  8
0
  5
2F37
 10
134.437
 20
-61.5672
 30
0.000000
  70
    32
  0
VERTEX
  8
0
  5
2F38
 10
134.499
 20
-61.5721
 30
0.000000
  70
    32
  0
VERTEX
  8
0
  5
2F39
 10
134.560
 20
-61.5751
 30
0.000000
  70
    32
  0
VERTEX
  8
0
  5
2F3A
 10
134.621
 20
-61.5761
 30
0.000000
  70
    32
  0
SEQEND
  8
0
  5
2F3B
  0
POLYLINE
  5
2017
  8
0
 10
134.621197585424
 20
61.576070100000294
 30
0.0
 66
     1
 70
     8
  0
VERTEX
  8
0
  5
2F3C
 10
134.621
 20
61.5761
 30
0.000000
  70
    32
  0
VERTEX
  8
0
  5
2F3D
 10
134.560
 20
61.5751
 30
0.000000
  70
    32
  0
VERTEX
  8
0
  5
2F3E
 10
134.499
 20
61.5722
 30
0.000000
  70
    32
  0
VERTEX
  8
0
  5
2F3F
 10
134.437
 20
61.5673
 30
0.000000
  70
    32
  0
VERTEX
  8
0
  5
2F40
 10
134.376
 20
61.5604
 30
0.000000
  70
    32
  0
VERTEX
  8
0
  5
2F41
 10
134.315
 20
61.5516
 30
0.000000
  70
    32
  0
VERTEX
  8
0
  5
2F42
 10
134.254
 20
61.5409
 30
0.000000
  70
    32
  0
VERTEX
  8
0
  5
2F43
 10
134.194
 20
61.5282
 30
0.000000
  70
    32
  0
VERTEX
  8
0
  5
2F44
 10
134.133
 20
61.5136
 30
0.000000
  70
    32
  0
VERTEX
  8
0
  5
2F45
 10
134.073
 20
61.4971
 30
0.000000
  70
    32
  0
VERTEX
  8
0
  5
2F46
 10
134.014
 20
61.4787
 30
0.000000
  70
    32
  0
VERTEX
  8
0
  5
2F47
 10
133.954
 20
61.4583
 30
0.000000
  70
    32
  0
VERTEX
  8
0
  5
2F48
 10
133.895
 20
61.4361
 30
0.000000
  70
    32
  0
VERTEX
  8
0
  5
2F49
 10
133.837
 20
61.4120
 30
0.000000
  70
    32
  0
VERTEX
  8
0
  5
2F4A
 10
133.779
 20
61.3861
 30
0.000000
  70
    32
  0
VERTEX
  8
0
  5
2F4B
 10
133.721
 20
61.3583
 30
0.000000
  70
    32
  0
VERTEX
  8
0
  5
2F4C
 10
133.664
 20
61.3287
 30
0.000000
  70
    32
  0
VERTEX
  8
0
  5
2F4D
 10
133.608
 20
61.2973
 30
0.000000
  70
    32
  0
VERTEX
  8
0
  5
2F4E
 10
133.552
 20
61.2640
 30
0.000000
  70
    32
  0
VERTEX
  8
0
  5
2F4F
 10
133.497
 20
61.2290
 30
0.000000
  70
    32
  0
VERTEX
  8
0
  5
2F50
 10
133.443
 20
61.1923
 30
0.000000
  70
    32
  0
VERTEX
  8
0
  5
2F51
 10
133.389
 20
61.1539
 30
0.000000
  70
    32
  0
VERTEX
  8
0
  5
2F52
 10
133.336
 20
61.1137
 30
0.000000
  70
    32
  0
VERTEX
  8
0
  5
2F53
 10
133.284
 20
61.0718
 30
0.000000
  70
    32
  0
VERTEX
  8
0
  5
2F54
 10
133.232
 20
61.0283
 30
0.000000
  70
    32
  0
VERTEX
  8
0
  5
2F55
 10
133.182
 20
60.9832
 30
0.000000
  70
    32
  0
VERTEX
  8
0
  5
2F56
 10
133.132
 20
60.9365
 30
0.000000
  70
    32
  0
VERTEX
  8
0
  5
2F57
 10
133.083
 20
60.8882
 30
0.000000
  70
    32
  0
VERTEX
  8
0
  5
2F58
 10
133.035
 20
60.8384
 30
0.000000
  70
    32
  0
VERTEX
  8
0
  5
2F59
 10
132.988
 20
60.7870
 30
0.000000
  70
    32
  0
VERTEX
  8
0
  5
2F5A
 10
132.942
 20
60.7342
 30
0.000000
  70
    32
  0
VERTEX
  8
0
  5
2F5B
 10
132.897
 20
60.6799
 30
0.000000
  70
    32
  0
VERTEX
  8
0
  5
2F5C
 10
132.853
 20
60.6242
 30
0.000000
  70
    32
  0
VERTEX
  8
0
  5
2F5D
 10
132.811
 20
60.5671
 30
0.000000
  70
    32
  0
VERTEX
  8
0
  5
2F5E
 10
132.769
 20
60.5086
 30
0.000000
  70
    32
  0
VERTEX
  8
0
  5
2F5F
 10
132.728
 20
60.4489
 30
0.000000
  70
    32
  0
VERTEX
  8
0
  5
2F60
 10
132.689
 20
60.3878
 30
0.000000
  70
    32
  0
VERTEX
  8
0
  5
2F61
 10
132.650
 20
60.3256
 30
0.000000
  70
    32
  0
VERTEX
  8
0
  5
2F62
 10
132.613
 20
60.2621
 30
0.000000
  70
    32
  0
VERTEX
  8
0
  5
2F63
 10
132.577
 20
60.1974
 30
0.000000
  70
    32
  0
VERTEX
  8
0
  5
2F64
 10
132.543
 20
60.1317
 30
0.000000
  70
    32
  0
VERTEX
  8
0
  5
2F65
 10
132.509
 20
60.0648
 30
0.000000
  70
    32
  0
VERTEX
  8
0
  5
2F66
 10
132.477
 20
59.9969
 30
0.000000
  70
    32
  0
VERTEX
  8
0
  5
2F67
 10
132.446
 20
59.9280
 30
0.000000
  70
    32
  0
VERTEX
  8
0
  5
2F68
 10
132.416
 20
59.8581
 30
0.000000
  70
    32
  0
VERTEX
  8
0
  5
2F69
 10
132.388
 20
59.7873
 30
0.000000
  70
    32
  0
VERTEX
  8
0
  5
2F6A
 10
132.361
 20
59.7156
 30
0.000000
  70
    32
  0
VERTEX
  8
0
  5
2F6B
 10
132.336
 20
59.6431
 30
0.000000
  70
    32
  0
VERTEX
  8
0
  5
2F6C
 10
132.311
 20
59.5698
 30
0.000000
  70
    32
  0
VERTEX
  8
0
  5
2F6D
 10
132.289
 20
59.4957
 30
0.000000
  70
    32
  0
VERTEX
  8
0
  5
2F6E
 10
132.267
 20
59.4210
 30
0.000000
  70
    32
  0
VERTEX
  8
0
  5
2F6F
 10
132.247
 20
59.3455
 30
0.000000
  70
    32
  0
VERTEX
  8
0
  5
2F70
 10
132.229
 20
59.2695
 30
0.000000
  70
    32
  0
VERTEX
  8
0
  5
2F71
 10
132.212
 20
59.1929
 30
0.000000
  70
    32
  0
VERTEX
  8
0
  5
2F72
 10
132.196
 20
59.1158
 30
0.000000
  70
    32
  0
VERTEX
  8
0
  5
2F73
 10
132.182
 20
59.0381
 30
0.000000
  70
    32
  0
VERTEX
  8
0
  5
2F74
 10
132.169
 20
58.9601
 30
0.000000
  70
    32
  0
VERTEX
  8
0
  5
2F75
 10
132.158
 20
58.8817
 30
0.000000
  70
    32
  0
VERTEX
  8
0
  5
2F76
 10
132.148
 20
58.8029
 30
0.000000
  70
    32
  0
VERTEX
  8
0
  5
2F77
 10
132.140
 20
58.7239
 30
0.000000
  70
    32
  0
VERTEX
  8
0
  5
2F78
 10
132.133
 20
58.6446
 30
0.000000
  70
    32
  0
VERTEX
  8
0
  5
2F79
 10
132.128
 20
58.5652
 30
0.000000
  70
    32
  0
VERTEX
  8
0
  5
2F7A
 10
132.124
 20
58.4855
 30
0.000000
  70
    32
  0
VERTEX
  8
0
  5
2F7B
 10
132.122
 20
58.4058
 30
0.000000
  70
    32
  0
VERTEX
  8
0
  5
2F7C
 10
132.121
 20
58.3261
 30
0.000000
  70
    32
  0
VERTEX
  8
0
  5
2F7D
 10
132.122
 20
58.2463
 30
0.000000
  70
    32
  0
VERTEX
  8
0
  5
2F7E
 10
132.124
 20
58.1666
 30
0.000000
  70
    32
  0
VERTEX
  8
0
  5
2F7F
 10
132.128
 20
58.0870
 30
0.000000
  70
    32
  0
VERTEX
  8
0
  5
2F80
 10
132.133
 20
58.0075
 30
0.000000
  70
    32
  0
VERTEX
  8
0
  5
2F81
 10
132.140
 20
57.9282
 30
0.000000
  70
    32
  0
VERTEX
  8
0
  5
2F82
 10
132.148
 20
57.8492
 30
0.000000
  70
    32
  0
VERTEX
  8
0
  5
2F83
 10
132.158
 20
57.7704
 30
0.000000
  70
    32
  0
VERTEX
  8
0
  5
2F84
 10
132.169
 20
57.6920
 30
0.000000
  70
    32
  0
VERTEX
  8
0
  5
2F85
 10
132.182
 20
57.6140
 30
0.000000
  70
    32
  0
VERTEX
  8
0
  5
2F86
 10
132.196
 20
57.5364
 30
0.000000
  70
    32
  0
VERTEX
  8
0
  5
2F87
 10
132.212
 20
57.4593
 30
0.000000
  70
    32
  0
VERTEX
  8
0
  5
2F88
 10
132.229
 20
57.3826
 30
0.000000
  70
    32
  0
VERTEX
  8
0
  5
2F89
 10
132.247
 20
57.3066
 30
0.000000
  70
    32
  0
VERTEX
  8
0
  5
2F8A
 10
132.267
 20
57.2312
 30
0.000000
  70
    32
  0
VERTEX
  8
0
  5
2F8B
 10
132.289
 20
57.1564
 30
0.000000
  70
    32
  0
VERTEX
  8
0
  5
2F8C
 10
132.311
 20
57.0823
 30
0.000000
  70
    32
  0
VERTEX
  8
0
  5
2F8D
 10
132.336
 20
57.0090
 30
0.000000
  70
    32
  0
VERTEX
  8
0
  5
2F8E
 10
132.361
 20
56.9365
 30
0.000000
  70
    32
  0
VERTEX
  8
0
  5
2F8F
 10
132.388
 20
56.8648
 30
0.000000
  70
    32
  0
VERTEX
  8
0
  5
2F90
 10
132.416
 20
56.7940
 30
0.000000
  70
    32
  0
VERTEX
  8
0
  5
2F91
 10
132.446
 20
56.7242
 30
0.000000
  70
    32
  0
VERTEX
  8
0
  5
2F92
 10
132.477
 20
56.6552
 30
0.000000
  70
    32
  0
VERTEX
  8
0
  5
2F93
 10
132.509
 20
56.5873
 30
0.000000
  70
    32
  0
VERTEX
  8
0
  5
2F94
 10
132.543
 20
56.5205
 30
0.000000
  70
    32
  0
VERTEX
  8
0
  5
2F95
 10
132.577
 20
56.4547
 30
0.000000
  70
    32
  0
VERTEX
  8
0
  5
2F96
 10
132.613
 20
56.3900
 30
0.000000
  70
    32
  0
VERTEX
  8
0
  5
2F97
 10
132.650
 20
56.3266
 30
0.000000
  70
    32
  0
VERTEX
  8
0
  5
2F98
 10
132.689
 20
56.2643
 30
0.000000
  70
    32
  0
VERTEX
  8
0
  5
2F99
 10
132.728
 20
56.2033
 30
0.000000
  70
    32
  0
VERTEX
  8
0
  5
2F9A
 10
132.769
 20
56.1435
 30
0.000000
  70
    32
  0
VERTEX
  8
0
  5
2F9B
 10
132.811
 20
56.0851
 30
0.000000
  70
    32
  0
VERTEX
  8
0
  5
2F9C
 10
132.853
 20
56.0280
 30
0.000000
  70
    32
  0
VERTEX
  8
0
  5
2F9D
 10
132.897
 20
55.9723
 30
0.000000
  70
    32
  0
VERTEX
  8
0
  5
2F9E
 10
132.942
 20
55.9180
 30
0.000000
  70
    32
  0
VERTEX
  8
0
  5
2F9F
 10
132.988
 20
55.8651
 30
0.000000
  70
    32
  0
VERTEX
  8
0
  5
2FA0
 10
133.035
 20
55.8138
 30
0.000000
  70
    32
  0
VERTEX
  8
0
  5
2FA1
 10
133.083
 20
55.7639
 30
0.000000
  70
    32
  0
VERTEX
  8
0
  5
2FA2
 10
133.132
 20
55.7156
 30
0.000000
  70
    32
  0
VERTEX
  8
0
  5
2FA3
 10
133.182
 20
55.6689
 30
0.000000
  70
    32
  0
VERTEX
  8
0
  5
2FA4
 10
133.232
 20
55.6238
 30
0.000000
  70
    32
  0
VERTEX
  8
0
  5
2FA5
 10
133.284
 20
55.5803
 30
0.000000
  70
    32
  0
VERTEX
  8
0
  5
2FA6
 10
133.336
 20
55.5385
 30
0.000000
  70
    32
  0
VERTEX
  8
0
  5
2FA7
 10
133.389
 20
55.4983
 30
0.000000
  70
    32
  0
VERTEX
  8
0
  5
2FA8
 10
133.443
 20
55.4598
 30
0.000000
  70
    32
  0
VERTEX
  8
0
  5
2FA9
 10
133.497
 20
55.4231
 30
0.000000
  70
    32
  0
VERTEX
  8
0
  5
2FAA
 10
133.552
 20
55.3881
 30
0.000000
  70
    32
  0
VERTEX
  8
0
  5
2FAB
 10
133.608
 20
55.3549
 30
0.000000
  70
    32
  0
VERTEX
  8
0
  5
2FAC
 10
133.664
 20
55.3235
 30
0.000000
  70
    32
  0
VERTEX
  8
0
  5
2FAD
 10
133.721
 20
55.2938
 30
0.000000
  70
    32
  0
VERTEX
  8
0
  5
2FAE
 10
133.779
 20
55.2661
 30
0.000000
  70
    32
  0
VERTEX
  8
0
  5
2FAF
 10
133.837
 20
55.2401
 30
0.000000
  70
    32
  0
VERTEX
  8
0
  5
2FB0
 10
133.895
 20
55.2160
 30
0.000000
  70
    32
  0
VERTEX
  8
0
  5
2FB1
 10
133.954
 20
55.1938
 30
0.000000
  70
    32
  0
VERTEX
  8
0
  5
2FB2
 10
134.014
 20
55.1735
 30
0.000000
  70
    32
  0
VERTEX
  8
0
  5
2FB3
 10
134.073
 20
55.1550
 30
0.000000
  70
    32
  0
VERTEX
  8
0
  5
2FB4
 10
134.133
 20
55.1385
 30
0.000000
  70
    32
  0
VERTEX
  8
0
  5
2FB5
 10
134.194
 20
55.1239
 30
0.000000
  70
    32
  0
VERTEX
  8
0
  5
2FB6
 10
134.254
 20
55.1112
 30
0.000000
  70
    32
  0
VERTEX
  8
0
  5
2FB7
 10
134.315
 20
55.1005
 30
0.000000
  70
    32
  0
VERTEX
  8
0
  5
2FB8
 10
134.376
 20
55.0917
 30
0.000000
  70
    32
  0
VERTEX
  8
0
  5
2FB9
 10
134.437
 20
55.0849
 30
0.000000
  70
    32
  0
VERTEX
  8
0
  5
2FBA
 10
134.499
 20
55.0800
 30
0.000000
  70
    32
  0
VERTEX
  8
0
  5
2FBB
 10
134.560
 20
55.0770
 30
0.000000
  70
    32
  0
VERTEX
  8
0
  5
2FBC
 10
134.621
 20
55.0761
 30
0.000000
  70
    32
  0
SEQEND
  8
0
  5
2FBD
  0
ARC
  5
2B1C
  8
0
 10
80.999970000000005
 20
14.000000000000449
 30
0.0
 40
1.0
 50
0.0
 51
90.0
  0
LINE
  5
2B1D
  8
0
 10
78.999970000000133
 20
29.467969192431379
 30
0.0
 11
78.999970000000019
 21
39.428230000000212
 31
0.0
  0
LINE
  5
2B1E
  8
0
 10
70.999970000000133
 20
29.467969192431379
 30
0.0
 11
70.999970000000005
 21
39.428230000000212
 31
0.0
  0
LINE
  5
2B22
  8
0
  6
CENTER
 10
-0.0000000000000568
 20
0.0
 30
0.0
 11
-40.310890000000029
 21
69.820508000000018
 31
0.0
  0
LINE
  5
2B23
  8
0
 10
-17.87429000000003
 20
57.534500000000207
 30
0.0
 11
-27.08287000000001
 21
61.828540000000203
 31
0.0
  0
LINE
  5
2B24
  8
0
 10
-29.086640000000038
 20
51.793100000000322
 30
0.0
 11
-28.254729999999931
 21
61.30188000000021
 31
0.0
  0
LINE
  5
2B25
  8
0
 10
-23.618019999999941
 20
63.712790000000268
 30
0.0
 11
-33.788100000000043
 21
64.602556000000277
 31
0.0
  0
LINE
  5
2B26
  8
0
 10
-43.367929999999937
 20
52.310160000000216
 30
0.0
 11
-39.053449999999941
 21
61.562600000000202
 31
0.0
  0
LINE
  5
2B27
  8
0
 10
-29.798820000000031
 20
49.389700000000182
 30
0.0
 11
-28.97020000000003
 21
58.860810000000363
 31
0.0
  0
LINE
  5
2B28
  8
0
 10
-37.222219999999929
 20
48.26785000000018
 30
0.0
 11
-43.818559999999991
 21
51.343780000000152
 31
0.0
  0
LINE
  5
2B29
  8
0
 10
-27.873370000000069
 20
50.501340000000248
 30
0.0
 11
-28.513050000000071
 21
50.799630000000199
 31
0.0
  0
ARC
  5
2B2A
  8
0
 10
-0.0000000000000568
 20
0.0000000000002274
 30
0.0
 40
67.5
 50
14.15845000000539
 51
114.74547000000381
  0
ARC
  5
2B2B
  8
0
 10
-0.0000000000000568
 20
0.0000000000002274
 30
0.0
 40
56.5
 50
6.7563300000154971
 51
116.5610399999987
  0
ARC
  5
2B2C
  8
0
 10
59.086790000000008
 20
7.0000000000002274
 30
0.0
 40
3.0
 50
186.75632000000579
 51
269.99999700000228
  0
ARC
  5
2B2D
  8
0
  6
CENTER
 10
-0.0000000000000568
 20
0.0000000000002274
 30
0.0
 40
68.5
 50
114.52569999999869
 51
126.87607999999641
  0
ARC
  5
2B2E
  8
0
 10
-0.0000000000000568
 20
0.0000000000002274
 30
0.0
 40
59.5
 50
14.29695000000037
 51
105.4087100000021
  0
ARC
  5
2B2F
  8
0
 10
-16.606450000000049
 20
60.253430000000201
 30
0.0
 40
3.0
 50
244.99999999999471
 51
285.40871299999822
  0
ARC
  5
2B30
  8
0
 10
-0.0000000000000568
 20
0.0000000000002274
 30
0.0
 40
67.5
 50
131.35191999999009
 51
228.6480800000073
  0
ARC
  5
2B31
  8
0
 10
-23.182219999999969
 20
68.693768000000318
 30
0.0
 40
5.0
 50
264.9999980000008
 51
288.64808700000032
  0
ARC
  5
2B32
  8
0
 10
60.564299999999953
 20
15.434200000000139
 30
0.0
 40
3.0
 50
194.29695000000029
 51
299.9999979999987
  0
ARC
  5
2B33
  8
0
 10
67.388759999999991
 20
17.00000000000022
 30
0.0
 40
2.0
 50
194.15845999999991
 51
269.99999700000228
  0
ARC
  5
2B34
  8
0
 10
-47.899470000000001
 20
54.423260000000262
 30
0.0
 40
5.0
 50
311.35191600000599
 51
334.99999999999272
  0
ARC
  5
2B35
  8
0
 10
-32.787380000000041
 20
49.651160000000338
 30
0.0
 40
3.0
 50
303.43895399999832
 51
355.00000009998928
  0
ARC
  5
2B36
  8
0
 10
-34.250029999999981
 20
59.32273000000032
 30
0.0
 40
5.3000002000000004
 50
355.00000009998928
 51
155.00001500354119
  0
ARC
  5
2B37
  8
0
 10
-0.0000000000000568
 20
0.0000000000002274
 30
0.0
 40
59.5
 50
128.4790399999971
 51
231.52096000000151
  0
ARC
  5
2B38
  8
0
 10
-37.644839999999988
 20
47.361550000000307
 30
0.0
 40
1.0
 50
308.47905700000041
 51
64.999999999994742
  0
ARC
  5
2B39
  8
0
 10
-28.090420000000051
 20
51.705940000000282
 30
0.0
 40
1.0
 50
175.0000000000002
 51
244.99999999999471
  0
ARC
  5
2B3A
  8
0
 10
-26.60549999999995
 20
53.22026000000028
 30
0.0
 40
3.0
 50
244.99999999999471
 51
296.56104600000612
  0
ARC
  5
2B3B
  8
0
 10
-0.0000000000000568
 20
0.0000000000002274
 30
0.0
 40
56.5
 50
123.4389399999972
 51
236.56106000000131
  0
LINE
  5
2B3D
  8
0
 10
62.064289999999971
 20
12.836130000000139
 30
0.0
 11
66.333569999999952
 21
15.30100000000038
 31
0.0
  0
CIRCLE
  5
2B41
  8
0
 10
-34.250029999999981
 20
-59.322729999999872
 30
0.0
 40
2.5999998999999989
  0
CIRCLE
  5
2B42
  8
0
 10
-34.250029999999981
 20
59.32273000000032
 30
0.0
 40
2.5999998999999989
  0
LINE
  5
2B7C
  8
0
 10
69.249970000000019
 20
29.200020000000219
 30
0.0
 11
80.749970000000005
 21
29.200020000000219
 31
0.0
  0
ARC
  5
2B7D
  8
0
 10
69.249969999999848
 20
27.20002000000067
 30
0.0
 40
2.0
 50
89.999999999995111
 51
180.00000000001299
  0
ARC
  5
2B7E
  8
0
 10
80.749970000000047
 20
27.20002000000067
 30
0.0
 40
2.0
 50
359.99999999998693
 51
90.000000000001606
  0
CIRCLE
  5
2C61
  8
0
 10
74.999970000000019
 20
-9.4999999999997726
 30
0.0
 40
3.2500001000000789
  0
TEXT
  5
2C97
  8
0
 10
47.849007800845577
 20
86.774716276064268
 30
0.0
 40
5.0
  1
13MHHM-3LW 4S
  0
VIEWPORT
  5
79
 67
     1
  8
0
 10
5.2499996395561617
 20
3.9999998836066761
 30
0.0
 40
15.015580297613511
 41
8.5939224089826052
 68
     1
 69
     1
1001
ACAD
1000
MVIEW
1002
{
1070
    16
1010
0.0
1020
0.0
1030
0.0
1010
0.0
1020
0.0
1030
1.0
1040
0.0
1040
8.5939224089826052
1040
5.2499996395561617
1040
3.9999998836066761
1040
50.0
1040
0.0
1040
0.0
1070
     0
1070
   100
1070
     1
1070
     1
1070
     0
1070
     0
1070
     0
1070
     0
1040
0.0
1040
0.0
1040
0.0
1040
10.0
1040
10.0
1040
10.0
1040
10.0
1070
     0
1002
{
1002
}
1002
}
1001
GENIUS_GENOBJ-N-SDF_13
1002
{
1000
OWNER
1000
GEN
1002
}
1001
GENIUS_GENODEF_13
1002
{
1000
HIER
1070
     0
1002
}
1002
{
1000
MANEDIT
1070
     0
1002
}
1002
{
1000
NOSEL
1070
     0
1002
}
1002
{
1000
BEHIND
1070
     0
1002
}
1002
{
1000
OTHER
1070
     0
1002
}
1002
{
1000
REACTOR
1002
}
1001
GENIUS_GENSCREG_15
1000
PF
1040
1.0
1000
DF
1040
1.0
1000
MIN
1011
-2.2577905092505972
1021
-9.9272622308362814E+027
1031
-1.5511347214064411E+026
1021
-0.2969613208846251
1031
0.0
1000
MAX
1011
12.757789788362921
1021
-9.9272622308362814E+027
1031
-1.5511347214064411E+026
1021
8.2969610880979801
1031
0.0
1000
FLAGS
1070
     4
  0
VIEWPORT
  5
7B
 67
     1
  8
0
 10
5.24999976158142
 20
3.99999976158142
 30
0.0
 40
8.3999996185302717
 41
6.3999996185302717
 68
     2
 69
     2
1001
ACAD
1000
MVIEW
1002
{
1070
    16
1010
0.0
1020
0.0
1030
0.0
1010
0.0
1020
0.0
1030
1.0
1040
0.0
1040
9.2590797717467002
1040
6.0
1040
4.5
1040
50.0
1040
0.0
1040
0.0
1070
     0
1070
   100
1070
     1
1070
     3
1070
     0
1070
     0
1070
     0
1070
     0
1040
0.0
1040
0.0
1040
0.0
1040
0.5
1040
0.5
1040
0.5
1040
0.5
1070
     0
1002
{
1002
}
1002
}
1001
GENIUS_GENODEF_13
1002
{
1000
HIER
1070
     0
1002
}
1002
{
1000
MANEDIT
1070
     0
1002
}
1002
{
1000
NOSEL
1070
     0
1002
}
1002
{
1000
BEHIND
1070
     0
1002
}
1002
{
1000
OTHER
1070
     0
1002
}
1002
{
1000
REACTOR
1002
}
1001
GENIUS_GENOBJ-N-SDF_13
1002
{
1000
OWNER
1000
GEN
1002
}
1001
GENIUS_GENSCREG_15
1000
PF
1040
0.0
1000
DF
1040
0.0
1000
MIN
1011
1.049999952316284
1021
-9.9272622308362814E+027
1031
-1.5511347214064411E+026
1021
0.7999999523162842
1031
0.0
1000
MAX
1011
9.4499995708465558
1021
-9.9272622308362814E+027
1031
-1.5511347214064411E+026
1021
7.1999995708465558
1031
0.0
1000
FLAGS
1070
     4
  0
ENDSEC
  0
EOF
