  0
SECTION
  2
HEADER
  9
$ACADVER
  1
AC1009
  9
$INSBASE
 10
0.0
 20
0.0
 30
0.0
  9
$EXTMIN
 10
-74.952334999999934
 20
-74.841593435353374
 30
0.0
  9
$EXTMAX
 10
151.18325800226259
 20
85.156241051705337
 30
0.0
  9
$LIMMIN
 10
0.0
 20
0.0
  9
$LIMMAX
 10
12.0
 20
9.0
  9
$ORTHOMODE
 70
     0
  9
$REGENMODE
 70
     1
  9
$FILLMODE
 70
     1
  9
$QTEXTMODE
 70
     0
  9
$MIRRTEXT
 70
     1
  9
$DRAGMODE
 70
     2
  9
$LTSCALE
 40
1.0
  9
$OSMODE
 70
    37
  9
$ATTMODE
 70
     1
  9
$TEXTSIZE
 40
0.2
  9
$TRACEWID
 40
0.05
  9
$TEXTSTYLE
  7
STANDARD
  9
$CLAYER
  8
0
  9
$CELTYPE
  6
BYLAYER
  9
$CECOLOR
 62
   256
  9
$DIMSCALE
 40
1.0
  9
$DIMASZ
 40
0.18
  9
$DIMEXO
 40
0.0625
  9
$DIMDLI
 40
0.38
  9
$DIMRND
 40
0.0
  9
$DIMDLE
 40
0.0
  9
$DIMEXE
 40
0.18
  9
$DIMTP
 40
0.0
  9
$DIMTM
 40
0.0
  9
$DIMTXT
 40
0.18
  9
$DIMCEN
 40
0.09
  9
$DIMTSZ
 40
0.0
  9
$DIMTOL
 70
     0
  9
$DIMLIM
 70
     0
  9
$DIMTIH
 70
     1
  9
$DIMTOH
 70
     1
  9
$DIMSE1
 70
     0
  9
$DIMSE2
 70
     0
  9
$DIMTAD
 70
     0
  9
$DIMZIN
 70
     0
  9
$DIMBLK
  1

  9
$DIMASO
 70
     1
  9
$DIMSHO
 70
     1
  9
$DIMPOST
  1

  9
$DIMAPOST
  1

  9
$DIMALT
 70
     0
  9
$DIMALTD
 70
     2
  9
$DIMALTF
 40
25.399999999999999
  9
$DIMLFAC
 40
1.0
  9
$DIMTOFL
 70
     0
  9
$DIMTVP
 40
0.0
  9
$DIMTIX
 70
     0
  9
$DIMSOXD
 70
     0
  9
$DIMSAH
 70
     0
  9
$DIMBLK1
  1

  9
$DIMBLK2
  1

  9
$DIMSTYLE
  2
STANDARD
  9
$DIMCLRD
 70
     0
  9
$DIMCLRE
 70
     0
  9
$DIMCLRT
 70
     0
  9
$DIMTFAC
 40
1.0
  9
$DIMGAP
 40
0.09
  9
$LUNITS
 70
     2
  9
$LUPREC
 70
     4
  9
$SKETCHINC
 40
0.1
  9
$FILLETRAD
 40
1.0
  9
$AUNITS
 70
     0
  9
$AUPREC
 70
     0
  9
$MENU
  1
.
  9
$ELEVATION
 40
0.0
  9
$PELEVATION
 40
0.0
  9
$THICKNESS
 40
0.0
  9
$LIMCHECK
 70
     0
  9
$BLIPMODE
 70
     0
  9
$CHAMFERA
 40
0.5
  9
$CHAMFERB
 40
0.5
  9
$SKPOLY
 70
     0
  9
$TDCREATE
 40
2451955.1727028699
  9
$TDUPDATE
 40
2454732.67887478
  9
$TDINDWG
 40
0.1004645833
  9
$TDUSRTIMER
 40
0.1004644097
  9
$USRTIMER
 70
     1
  9
$ANGBASE
 50
0.0
  9
$ANGDIR
 70
     0
  9
$PDMODE
 70
     0
  9
$PDSIZE
 40
0.0
  9
$PLINEWID
 40
0.0
  9
$COORDS
 70
     1
  9
$SPLFRAME
 70
     0
  9
$SPLINETYPE
 70
     6
  9
$SPLINESEGS
 70
     8
  9
$ATTDIA
 70
     0
  9
$ATTREQ
 70
     1
  9
$HANDLING
 70
 22529
  9
$HANDSEED
  5
2FC1
  9
$SURFTAB1
 70
     6
  9
$SURFTAB2
 70
     6
  9
$SURFTYPE
 70
     6
  9
$SURFU
 70
     6
  9
$SURFV
 70
     6
  9
$UCSNAME
  2

  9
$UCSORG
 10
0.0
 20
0.0
 30
0.0
  9
$UCSXDIR
 10
1.0
 20
0.0
 30
0.0
  9
$UCSYDIR
 10
0.0
 20
1.0
 30
0.0
  9
$PUCSNAME
  2

  9
$PUCSORG
 10
0.0
 20
0.0
 30
0.0
  9
$PUCSXDIR
 10
1.0
 20
0.0
 30
0.0
  9
$PUCSYDIR
 10
0.0
 20
1.0
 30
0.0
  9
$USERI1
 70
     0
  9
$USERI2
 70
     0
  9
$USERI3
 70
     0
  9
$USERI4
 70
     0
  9
$USERI5
 70
     0
  9
$USERR1
 40
0.0
  9
$USERR2
 40
0.0
  9
$USERR3
 40
0.0
  9
$USERR4
 40
0.0
  9
$USERR5
 40
0.0
  9
$WORLDVIEW
 70
     1
  9
$SHADEDGE
 70
     3
  9
$SHADEDIF
 70
    70
  9
$TILEMODE
 70
     1
  9
$MAXACTVP
 70
    48
  9
$PLIMCHECK
 70
     0
  9
$PEXTMIN
 10
1.049636599258096
 20
0.7996597240971113
 30
-0.0015258207003583
  9
$PEXTMAX
 10
9.4503627310769716
 20
7.2003400826974584
 30
0.0000000349246037
  9
$PLIMMIN
 10
-0.2500002402958907
 20
-0.2499999962453767
  9
$PLIMMAX
 10
10.74999951940821
 20
8.2499997634587316
  9
$UNITMODE
 70
     0
  9
$VISRETAIN
 70
     1
  9
$PLINEGEN
 70
     0
  9
$PSLTSCALE
 70
     1
  0
ENDSEC
  0
SECTION
  2
TABLES
  0
TABLE
  2
VPORT
 70
     2
  0
VPORT
  2
*ACTIVE
 70
     0
 10
0.0
 20
0.0
 11
1.0
 21
1.0
 12
38.118514491769737
 22
5.157175781296047
 13
0.0
 23
0.0
 14
0.5
 24
0.5
 15
0.5
 25
0.5
 16
0.0
 26
0.0
 36
1.0
 17
0.0
 27
0.0
 37
0.0
 40
161.27126850221001
 41
1.531806615776081
 42
50.0
 43
0.0
 44
0.0
 50
0.0
 51
0.0
 71
     0
 72
   100
 73
     1
 74
     3
 75
     0
 76
     0
 77
     0
 78
     0
  0
ENDTAB
  0
TABLE
  2
LTYPE
 70
     2
  0
LTYPE
  2
CONTINUOUS
 70
     0
  3
Solid line
 72
    65
 73
     0
 40
0.0
  0
LTYPE
  2
CENTER
 70
     0
  3
__ . __
 72
    65
 73
     4
 40
7.0
 49
4.0
 49
-1.0
 49
1.0
 49
-1.0
  0
ENDTAB
  0
TABLE
  2
LAYER
 70
     1
  0
LAYER
  2
0
 70
     0
 62
     7
  6
CONTINUOUS
  0
ENDTAB
  0
TABLE
  2
STYLE
 70
     1
  0
STYLE
  2
STANDARD
 70
     0
 40
0.0
 41
1.0
 50
0.0
 71
     0
 42
0.2
  3
txt
  4

  0
ENDTAB
  0
TABLE
  2
VIEW
 70
     0
  0
ENDTAB
  0
TABLE
  2
UCS
 70
     0
  0
ENDTAB
  0
TABLE
  2
APPID
 70
    19
  0
APPID
  2
ACAD
 70
     0
  0
APPID
  2
GENIUS_GENODEF_13
 70
     0
  0
APPID
  2
ACAD_DSTYLE_DIMARC_LENGTH_
 70
     0
  0
APPID
  2
ACAD_DSTYLE_DIMJOGGED_JOGA
 70
     0
  0
APPID
  2
GENIUS_GENOBJ-N-FIL_13
 70
     0
  0
APPID
  2
ACAD_MLEADERVER
 70
     0
  0
APPID
  2
MCAD_NO_VIS
 70
     0
  0
APPID
  2
ACAD_TEMP_GRAPHIC
 70
     0
  0
APPID
  2
AD_DRAW
 70
     0
  0
APPID
  2
ACATTRIBSERVICES
 70
     0
  0
APPID
  2
DESIGNERASSEMBLIES
 70
     0
  0
APPID
  2
ACADM_DIM_EDIT
 70
     0
  0
APPID
  2
AMDT_DM_ADJ
 70
     0
  0
APPID
  2
GENIUS_GENSCREG_15
 70
     0
  0
APPID
  2
GENIUS_GENOBJ-N-SDF_13
 70
     0
  0
APPID
  2
ACAD_DSTYLE_DIM_LINETYPE
 70
     0
  0
APPID
  2
ACAD_DSTYLE_DIM_EXT1_LINETYPE
 70
     0
  0
APPID
  2
ACAD_DSTYLE_DIM_EXT2_LINETYPE
 70
     0
  0
APPID
  2
ACAD_EXEMPT_FROM_CAD_STANDARDS
 70
     0
  0
ENDTAB
  0
TABLE
  2
DIMSTYLE
 70
     1
  0
DIMSTYLE
  2
STANDARD
 70
     0
  3

  4

  5

  6

  7

 40
1.0
 41
0.18
 42
0.0625
 43
0.38
 44
0.18
 45
0.0
 46
0.0
 47
0.0
 48
0.0
140
0.18
141
0.09
142
0.0
143
25.399999999999999
144
1.0
145
0.0
146
1.0
147
0.09
 71
     0
 72
     0
 73
     1
 74
     1
 75
     0
 76
     0
 77
     0
 78
     0
170
     0
171
     2
172
     0
173
     0
174
     0
175
     0
176
     0
177
     0
178
     0
  0
ENDTAB
  0
ENDSEC
  0
SECTION
  2
BLOCKS
  0
BLOCK
  8
0
  2
$MODEL_SPACE
 70
     0
 10
0.0
 20
0.0
 30
0.0
  3
$MODEL_SPACE
  1

  0
ENDBLK
  5
21
  8
0
  0
BLOCK
 67
     1
  8
0
  2
$PAPER_SPACE
 70
     0
 10
0.0
 20
0.0
 30
0.0
  3
$PAPER_SPACE
  1

  0
ENDBLK
  5
60
 67
     1
  8
0
  0
ENDSEC
  0
SECTION
  2
ENTITIES
  0
LINE
  5
1D50
  8
0
  6
CENTER
 10
151.18325800226259
 20
0.0000000000002274
 30
0.0
 11
114.11879800226249
 21
0.0000000000002274
 31
0.0
  0
LINE
  5
1D53
  8
0
 10
74.99998000000005
 20
-13.999999999999771
 30
0.0
 11
74.99998000000005
 21
-4.9999999999997717
 31
0.0
  0
LINE
  5
1D54
  8
0
 10
74.99998000000005
 20
5.0000000000002274
 30
0.0
 11
74.99998000000005
 21
14.00000000000022
 31
0.0
  0
LINE
  5
1D55
  8
0
  6
CENTER
 10
0.0000000000001137
 20
0.0000000000002274
 30
0.0
 11
-36.278339999999957
 21
-62.835934999999843
 31
0.0
  0
LINE
  5
1D56
  8
0
  6
CENTER
 10
68.000000000000114
 20
-19.999999999999769
 30
0.0
 11
68.000000000000114
 21
58.447850000000237
 31
0.0
  0
LINE
  5
1D59
  8
0
 10
71.99998000000005
 20
-3.9999999999997722
 30
0.0
 11
71.99998000000005
 21
4.0000000000002274
 31
0.0
  0
LINE
  5
1D5B
  8
0
 10
64.000000000000114
 20
-3.9999999999997722
 30
0.0
 11
64.000000000000114
 21
4.0000000000002274
 31
0.0
  0
LINE
  5
1D62
  8
0
 10
63.000000000000107
 20
43.000030000000379
 30
0.0
 11
63.000000000000107
 21
31.200010000000251
 31
0.0
  0
LINE
  5
1D63
  8
0
 10
72.99998000000005
 20
43.000030000000379
 30
0.0
 11
72.99998000000005
 21
31.200010000000251
 31
0.0
  0
LINE
  5
1D64
  8
0
 10
60.250000000000107
 20
27.20001000000024
 30
0.0
 11
60.250000000000107
 21
17.900030000000239
 31
0.0
  0
LINE
  5
1D66
  8
0
 10
75.74998000000005
 20
27.20001000000024
 30
0.0
 11
75.74998000000005
 21
17.900030000000239
 31
0.0
  0
LINE
  5
1D67
  8
0
 10
81.939310000000091
 20
52.000030000000372
 30
0.0
 11
54.060660000000091
 21
52.000030000000372
 31
0.0
  0
LINE
  5
1D6A
  8
0
 10
73.99998000000005
 20
4.0000000000002274
 30
0.0
 11
52.535670000000103
 21
4.0000000000002274
 31
0.0
  0
LINE
  5
1D6C
  8
0
  6
CENTER
 10
132.02043800226261
 20
66.437810000000354
 30
0.0
 11
132.02043800226261
 21
-66.555149999999685
 31
0.0
  0
LINE
  5
1D6D
  8
0
  6
CENTER
 10
74.952335000000062
 20
0.0000000000002274
 30
0.0
 11
-74.952334999999934
 21
0.0000000000002274
 31
0.0
  0
LINE
  5
1D6E
  8
0
 10
141.02043800226261
 20
52.86838000000035
 30
0.0
 11
141.02043800226261
 21
-6.3999899999996606
 31
0.0
  0
LINE
  5
1D6F
  8
0
 10
123.02043800226259
 20
52.86838000000035
 30
0.0
 11
123.02043800226259
 21
-6.2662899999995707
 31
0.0
  0
LINE
  5
1D70
  8
0
 10
136.5748580022626
 20
-60.999996999999659
 30
0.0
 11
127.4660280022626
 21
-60.999996999999659
 31
0.0
  0
LINE
  5
1D74
  8
0
 10
127.77043800226259
 20
-3.9999999999997722
 30
0.0
 11
123.27043800226259
 21
-3.9999999999997722
 31
0.0
  0
LINE
  5
1D75
  8
0
  6
CENTER
 10
143.06050800226259
 20
-9.4999999999997726
 30
0.0
 11
118.75588800226259
 21
-9.4999999999997726
 31
0.0
  0
LINE
  5
1D76
  8
0
 10
136.5748580022626
 20
61.000030000000379
 30
0.0
 11
127.4660280022626
 21
61.000030000000379
 31
0.0
  0
LINE
  5
1D77
  8
0
 10
73.99998000000005
 20
-3.9999999999997722
 30
0.0
 11
52.535670000000103
 21
-3.9999999999997722
 31
0.0
  0
LINE
  5
1D78
  8
0
 10
73.99998000000005
 20
-14.999999999999771
 30
0.0
 11
60.388790000000078
 21
-14.999999999999771
 31
0.0
  0
LINE
  5
1D79
  8
0
 10
123.05450800226259
 20
53.127170000000199
 30
0.0
 11
124.5682280022625
 21
58.77646000000027
 31
0.0
  0
LINE
  5
1D7A
  8
0
 10
140.98635800226259
 20
53.127170000000199
 30
0.0
 11
139.47263800226261
 21
58.77646000000027
 31
0.0
  0
LINE
  5
1D7B
  8
0
 10
139.47264800226259
 20
-58.776449999999841
 30
0.0
 11
140.98636800226259
 21
-53.127159999999549
 31
0.0
  0
LINE
  5
1D7C
  8
0
 10
125.1640280022626
 20
-14.999999999999771
 30
0.0
 11
125.1640280022626
 21
-58.849639999999681
 31
0.0
  0
LINE
  5
1D7D
  8
0
 10
138.87685800226259
 20
-14.999999999999771
 30
0.0
 11
138.87685800226259
 21
-58.849639999999681
 31
0.0
  0
LINE
  5
1D7F
  8
0
 10
127.5205580022626
 20
11.2850000000003
 30
0.0
 11
124.5439280022626
 21
14.66133000000036
 31
0.0
  0
LINE
  5
1D80
  8
0
 10
136.5203180022626
 20
11.28503000000023
 30
0.0
 11
139.49693800226251
 21
14.66135000000031
 31
0.0
  0
LINE
  5
1D81
  8
0
 10
130.1704680022626
 20
52.000000000000448
 30
0.0
 11
133.87044800226249
 21
52.000000000000448
 31
0.0
  0
LINE
  5
1D82
  8
0
 10
129.1704680022626
 20
51.000000000000448
 30
0.0
 11
129.1704680022626
 21
31.200010000000251
 31
0.0
  0
LINE
  5
1D83
  8
0
 10
123.7938180022625
 20
15.00000000000022
 30
0.0
 11
123.27043800226259
 21
15.00000000000022
 31
0.0
  0
LINE
  5
1D84
  8
0
 10
127.77043800226259
 20
4.0000000000002274
 30
0.0
 11
123.27043800226259
 21
4.0000000000002274
 31
0.0
  0
LINE
  5
1D85
  8
0
 10
127.77043800226259
 20
-3.9999999999997722
 30
0.0
 11
127.77043800226259
 21
-14.999999999999771
 31
0.0
  0
LINE
  5
1D86
  8
0
 10
127.77043800226259
 20
-14.999999999999771
 30
0.0
 11
123.27043800226259
 21
-14.999999999999771
 31
0.0
  0
LINE
  5
1D87
  8
0
 10
127.77043800226259
 20
10.62369000000035
 30
0.0
 11
127.77043800226259
 21
4.0000000000002274
 31
0.0
  0
LINE
  5
1D8C
  8
0
 10
128.02043800226261
 20
12.00000000000022
 30
0.0
 11
128.02043800226261
 21
-14.428189999999629
 31
0.0
  0
LINE
  5
1D8D
  8
0
 10
128.02043800226261
 20
39.428230000000212
 30
0.0
 11
128.02043800226261
 21
29.38962000000037
 31
0.0
  0
LINE
  5
1D8E
  8
0
 10
124.27043800226259
 20
27.20001000000024
 30
0.0
 11
124.27043800226259
 21
17.900000000000318
 31
0.0
  0
LINE
  5
1D8F
  8
0
 10
126.27043800226259
 20
29.20001000000024
 30
0.0
 11
137.77043800226261
 21
29.20001000000024
 31
0.0
  0
LINE
  5
1D90
  8
0
 10
126.99526800226261
 20
12.00000000000022
 30
0.0
 11
137.0456480022626
 21
12.00000000000022
 31
0.0
  0
LINE
  5
1D91
  8
0
 10
140.77043800226261
 20
-12.59999999999968
 30
0.0
 11
141.27043800226261
 21
-12.59999999999968
 31
0.0
  0
LINE
  5
1D92
  8
0
 10
140.77043800226261
 20
-6.3999899999996606
 30
0.0
 11
141.27043800226261
 21
-6.3999899999996606
 31
0.0
  0
LINE
  5
1D94
  8
0
 10
134.87044800226249
 20
51.000000000000448
 30
0.0
 11
134.87044800226249
 21
31.200010000000251
 31
0.0
  0
LINE
  5
1D95
  8
0
 10
140.24706800226261
 20
15.00000000000022
 30
0.0
 11
140.77043800226261
 21
15.00000000000022
 31
0.0
  0
LINE
  5
1D96
  8
0
 10
136.27043800226261
 20
4.0000000000002274
 30
0.0
 11
140.77043800226261
 21
4.0000000000002274
 31
0.0
  0
LINE
  5
1D97
  8
0
 10
136.27043800226261
 20
-3.9999999999997722
 30
0.0
 11
136.27043800226261
 21
-14.999999999999771
 31
0.0
  0
LINE
  5
1D98
  8
0
 10
136.27043800226261
 20
-3.9999999999997722
 30
0.0
 11
140.77043800226261
 21
-3.9999999999997722
 31
0.0
  0
LINE
  5
1D99
  8
0
 10
136.27043800226261
 20
-14.999999999999771
 30
0.0
 11
140.77043800226261
 21
-14.999999999999771
 31
0.0
  0
LINE
  5
1D9A
  8
0
 10
136.27043800226261
 20
10.62369000000035
 30
0.0
 11
136.27043800226261
 21
4.0000000000002274
 31
0.0
  0
LINE
  5
1D9F
  8
0
 10
136.02043800226261
 20
12.00000000000022
 30
0.0
 11
136.02043800226261
 21
-14.428189999999629
 31
0.0
  0
LINE
  5
1DA0
  8
0
 10
136.02043800226261
 20
39.428230000000212
 30
0.0
 11
136.02043800226261
 21
29.38962000000037
 31
0.0
  0
LINE
  5
1DA1
  8
0
 10
139.77043800226261
 20
27.20001000000024
 30
0.0
 11
139.77043800226261
 21
17.900000000000318
 31
0.0
  0
LINE
  5
1DA4
  8
0
 10
138.87685800226259
 20
28.866093666446879
 30
0.0
 11
138.87685800226259
 21
59.18318000000022
 31
0.0
  0
LINE
  5
1DA5
  8
0
 10
125.1640280022626
 20
28.86610030724659
 30
0.0
 11
125.1640280022626
 21
59.3567400000004
 31
0.0
  0
LINE
  5
1DA7
  8
0
  6
CENTER
 10
0.0
 20
-74.283718999999792
 30
0.0
 11
0.0
 21
74.283719000000247
 31
0.0
  0
LINE
  5
1DA8
  8
0
 10
141.77043800226261
 20
-6.8999899999996606
 30
0.0
 11
141.77043800226261
 21
-12.09999999999968
 31
0.0
  0
LINE
  5
1DA9
  8
0
 10
142.02043800226261
 20
-49.226059999999727
 30
0.0
 11
142.02043800226261
 21
-54.42606999999952
 31
0.0
  0
LINE
  5
1DAA
  8
0
 10
140.52043800226261
 20
-54.926069999999527
 30
0.0
 11
141.52043800226261
 21
-54.926069999999527
 31
0.0
  0
LINE
  5
1DAB
  8
0
 10
141.02043800226261
 20
-48.726059999999727
 30
0.0
 11
141.52043800226261
 21
-48.726059999999727
 31
0.0
  0
LINE
  5
1DAC
  8
0
 10
142.02043800226261
 20
49.226060000000409
 30
0.0
 11
142.02043800226261
 21
54.426070000000209
 31
0.0
  0
LINE
  5
1DAD
  8
0
  6
CENTER
 10
143.06050800226259
 20
51.8260700000003
 30
0.0
 11
118.75588800226259
 21
51.8260700000003
 31
0.0
  0
LINE
  5
1DAE
  8
0
 10
141.02043800226261
 20
48.726060000000409
 30
0.0
 11
141.52043800226261
 21
48.726060000000409
 31
0.0
  0
LINE
  5
1DAF
  8
0
 10
140.50435800226259
 20
54.926070000000202
 30
0.0
 11
141.52043800226261
 21
54.926070000000202
 31
0.0
  0
LINE
  5
1DB0
  8
0
 10
123.27043800226259
 20
15.00000000000022
 30
0.0
 11
123.27043800226259
 21
-14.999999999999771
 31
0.0
  0
LINE
  5
1DB1
  8
0
 10
140.77043800226261
 20
15.00000000000022
 30
0.0
 11
140.77043800226261
 21
-14.999999999999771
 31
0.0
  0
LINE
  5
1DB3
  8
0
 10
123.02043800226259
 20
-12.73369999999977
 30
0.0
 11
123.02043800226259
 21
-52.868339999999527
 31
0.0
  0
LINE
  5
1DB4
  8
0
 10
141.02043800226261
 20
-12.59999999999968
 30
0.0
 11
141.02043800226261
 21
-52.868339999999527
 31
0.0
  0
LINE
  5
1DB5
  8
0
 10
123.02043800226259
 20
-55.076059999999643
 30
0.0
 11
123.52043800226259
 21
-55.076059999999643
 31
0.0
  0
LINE
  5
1DB6
  8
0
 10
123.02043800226259
 20
55.0760700000003
 30
0.0
 11
123.52043800226259
 21
55.0760700000003
 31
0.0
  0
LINE
  5
1DB7
  8
0
 10
124.02043800226259
 20
-56.826059999999643
 30
0.0
 11
124.04563800226261
 21
-56.826059999999643
 31
0.0
  0
LINE
  5
1DB8
  8
0
 10
123.02043800226259
 20
-55.076059999999643
 30
0.0
 11
123.02043800226259
 21
-55.826059999999643
 31
0.0
  0
LINE
  5
1DB9
  8
0
 10
141.02043800226261
 20
-54.926069999999527
 30
0.0
 11
141.02043800226261
 21
-55.826059999999643
 31
0.0
  0
LINE
  5
1DBA
  8
0
 10
124.5682380022625
 20
-58.776449999999841
 30
0.0
 11
123.0545180022626
 21
-53.127149999999801
 31
0.0
  0
LINE
  5
1DBB
  8
0
 10
123.02043800226259
 20
55.0760700000003
 30
0.0
 11
123.02043800226259
 21
55.8260700000003
 31
0.0
  0
LINE
  5
1DBC
  8
0
 10
141.02043800226261
 20
54.926070000000202
 30
0.0
 11
141.02043800226261
 21
55.8260700000003
 31
0.0
  0
LINE
  5
1DBD
  8
0
  6
CENTER
 10
57.435210000000097
 20
-9.4999999999997726
 30
0.0
 11
80.971200000000067
 21
-9.4999999999997726
 31
0.0
  0
LINE
  5
1DBF
  8
0
 10
55.29302000000007
 20
-12.96818999999959
 30
0.0
 11
59.333590000000072
 21
-15.30100999999968
 31
0.0
  0
LINE
  5
1DC9
  8
0
 10
-25.836639999999871
 20
-46.163929999999709
 30
0.0
 11
-25.007749999999991
 21
-55.638239999999769
 31
0.0
  0
LINE
  5
1DCA
  8
0
 10
-20.003149999999891
 20
-58.051709999999723
 30
0.0
 11
-30.538099999999979
 21
-58.973399999999849
 31
0.0
  0
LINE
  5
1DCB
  8
0
 10
-26.550289999999901
 20
-43.743709999999737
 30
0.0
 11
-25.720209999999948
 21
-53.231639999999743
 31
0.0
  0
LINE
  5
1DCD
  8
0
 10
-40.272739999999878
 20
-46.34900999999968
 30
0.0
 11
-35.803449999999877
 21
-55.933439999999791
 31
0.0
  0
LINE
  5
1DCF
  8
0
 10
-24.608079999999848
 20
-44.865039999999681
 30
0.0
 11
-25.263059999999989
 21
-45.170459999999807
 31
0.0
  0
LINE
  5
1DD1
  8
0
 10
-23.779149999999841
 20
-56.174299999999668
 30
0.0
 11
-14.2850699999999
 21
-51.747139999999717
 31
0.0
  0
LINE
  5
1DD2
  8
0
 10
-40.696699999999957
 20
-45.439829999999802
 30
0.0
 11
-34.150779999999941
 21
-42.387419999999558
 31
0.0
  0
LINE
  5
1DD3
  8
0
  6
CENTER
 10
143.06050800226259
 20
-51.826059999999643
 30
0.0
 11
118.75588800226259
 21
-51.826059999999643
 31
0.0
  0
ARC
  5
1DD5
  8
0
 10
73.99998000000005
 20
-13.999999999999771
 30
0.0
 40
1.0
 50
270.0
 51
0.0
  0
ARC
  5
1DD6
  8
0
 10
73.99998000000005
 20
-4.9999999999997717
 30
0.0
 40
1.0
 50
0.0
 51
90.00000299999769
  0
ARC
  5
1DD7
  8
0
 10
73.99998000000005
 20
5.0000000000002274
 30
0.0
 40
1.0
 50
270.0
 51
0.0
  0
ARC
  5
1DDA
  8
0
 10
68.000000000000114
 20
32.500030000000379
 30
0.0
 40
8.0
 50
59.999995000006798
 51
119.99999999999579
  0
ARC
  5
1DDB
  8
0
 10
70.99998000000005
 20
31.200010000000251
 30
0.0
 40
2.0
 50
270.0
 51
0.0000086514148811
  0
ARC
  5
1DDC
  8
0
 10
65.000000000000114
 20
31.200010000000251
 30
0.0
 40
2.0
 50
180.000010000001
 51
270.0
  0
ARC
  5
1DDD
  8
0
 10
68.000000000000114
 20
43.000030000000379
 30
0.0
 40
5.0
 50
359.999989999999
 51
180.000010000001
  0
ARC
  5
1DDE
  8
0
 10
49.000000000000107
 20
48.000030000000379
 30
0.0
 40
35.0
 50
324.75248999999542
 51
3.4745943000043429
  0
ARC
  5
1DDF
  8
0
 10
85.749980000000065
 20
22.0300900000002
 30
0.0
 40
10.0
 50
144.75250000000301
 51
180.000010000001
  0
ARC
  5
1DE0
  8
0
 10
50.250000000000107
 20
22.0300900000002
 30
0.0
 40
10.0
 50
359.999989999999
 51
35.247501999992153
  0
ARC
  5
1DE1
  8
0
 10
86.999980000000065
 20
48.000030000000379
 30
0.0
 40
35.0
 50
176.52540999999641
 51
215.2475100000045
  0
ARC
  5
1DE2
  8
0
 10
68.000000000000114
 20
17.900030000000239
 30
0.0
 40
7.75
 50
180.000010000001
 51
201.97471714183729
  0
ARC
  5
1DE3
  8
0
 10
68.000000000000114
 20
17.900030000000239
 30
0.0
 40
7.75
 50
333.16879806194339
 51
359.999989999999
  0
ARC
  5
1DE4
  8
0
 10
68.000000000000114
 20
-9.4999999999997726
 30
0.0
 40
6.0
 50
246.44354000000081
 51
293.5564643090994
  0
ARC
  5
1DE7
  8
0
 10
81.939310000000091
 20
50.000030000000379
 30
0.0
 40
2.0
 50
3.4745943000043429
 51
89.999996000000905
  0
ARC
  5
1DE8
  8
0
 10
54.060660000000091
 20
50.000030000000379
 30
0.0
 40
2.0
 50
89.999996000000905
 51
176.52540999999641
  0
ARC
  5
1DE9
  8
0
 10
124.02043800226259
 20
52.86838000000035
 30
0.0
 40
1.0
 50
164.99998999999781
 51
180.000010000001
  0
ARC
  5
1DEA
  8
0
 10
140.02043800226261
 20
52.86838000000035
 30
0.0
 40
1.0
 50
0.0
 51
14.999999999994451
  0
ARC
  5
1DEB
  8
0
 10
124.02043800226259
 20
-52.868339999999527
 30
0.0
 40
1.0
 50
179.99998999999889
 51
194.9999999999944
  0
ARC
  5
1DEC
  8
0
 10
140.02043800226261
 20
-52.868339999999527
 30
0.0
 40
1.0
 50
345.00000000000551
 51
0.0
  0
ARC
  5
1DED
  8
0
 10
127.4660280022626
 20
58.000030000000379
 30
0.0
 40
3.0
 50
90.00000299999769
 51
164.99998999999781
  0
ARC
  5
1DEE
  8
0
 10
136.5748580022626
 20
58.000030000000379
 30
0.0
 40
3.0
 50
14.999999999994451
 51
90.00000299999769
  0
ARC
  5
1DEF
  8
0
 10
127.4660280022626
 20
-57.999999999999538
 30
0.0
 40
3.0
 50
195.00001000000211
 51
270.0
  0
ARC
  5
1DF0
  8
0
 10
136.5748580022626
 20
-57.999999999999538
 30
0.0
 40
3.0
 50
270.0
 51
345.00000000000551
  0
ARC
  5
1DF1
  8
0
 10
126.77043800226259
 20
10.62369000000035
 30
0.0
 40
1.0
 50
0.0
 51
41.399999999997348
  0
ARC
  5
1DF2
  8
0
 10
137.27043800226261
 20
10.62369000000035
 30
0.0
 40
1.0
 50
138.60000000000261
 51
180.000010000001
  0
ARC
  5
1DF3
  8
0
 10
123.7938180022625
 20
14.00000000000022
 30
0.0
 40
1.0
 50
41.399999999997348
 51
90.00000299999769
  0
ARC
  5
1DF4
  8
0
 10
126.27043800226259
 20
27.20001000000024
 30
0.0
 40
2.0
 50
89.999996000000905
 51
180.000010000001
  0
ARC
  5
1DF5
  8
0
 10
132.02043800226261
 20
32.500000000000227
 30
0.0
 40
8.0
 50
110.8700699999996
 51
119.99999999999579
  0
ARC
  5
1DF6
  8
0
 10
132.02043800226261
 20
17.900000000000318
 30
0.0
 40
7.75
 50
180.000010000001
 51
229.57810000000299
  0
ARC
  5
1DF7
  8
0
 10
132.02043800226261
 20
-7.4999999999997717
 30
0.0
 40
8.0
 50
240.00000000000401
 51
299.99999999999591
  0
ARC
  5
1DF8
  8
0
 10
127.1704680022626
 20
31.200010000000251
 30
0.0
 40
2.0
 50
270.0
 51
0.0000050089504314
  0
ARC
  5
1DF9
  8
0
 10
130.1704680022626
 20
51.000000000000448
 30
0.0
 40
1.0
 50
89.999996000000905
 51
180.000010000001
  0
ARC
  5
1DFB
  8
0
 10
133.87044800226249
 20
51.000000000000448
 30
0.0
 40
1.0
 50
0.0
 51
90.00000299999769
  0
ARC
  5
1DFC
  8
0
 10
136.87044800226261
 20
31.200010000000251
 30
0.0
 40
2.0
 50
179.99998999999889
 51
270.0
  0
ARC
  5
1DFD
  8
0
 10
137.77043800226261
 20
27.20001000000024
 30
0.0
 40
2.0
 50
0.0
 51
90.00000299999769
  0
ARC
  5
1DFE
  8
0
 10
132.02043800226261
 20
32.500000000000227
 30
0.0
 40
8.0
 50
60.000002000001302
 51
69.129929000002221
  0
ARC
  5
1DFF
  8
0
 10
132.02043800226261
 20
17.900000000000318
 30
0.0
 40
7.75
 50
310.42192000000142
 51
0.0
  0
ARC
  5
1E00
  8
0
 10
141.27043800226261
 20
-12.09999999999968
 30
0.0
 40
0.5
 50
270.0
 51
0.0
  0
ARC
  5
1E01
  8
0
 10
141.27043800226261
 20
-6.8999899999996606
 30
0.0
 40
0.5
 50
0.0
 51
90.00000299999769
  0
ARC
  5
1E02
  8
0
 10
140.24706800226261
 20
14.00000000000022
 30
0.0
 40
1.0
 50
90.00000299999769
 51
138.60000000000261
  0
ARC
  5
1E03
  8
0
 10
141.52043800226261
 20
-49.226059999999727
 30
0.0
 40
0.5
 50
0.0
 51
90.00000299999769
  0
ARC
  5
1E04
  8
0
 10
141.52043800226261
 20
-54.42606999999952
 30
0.0
 40
0.5
 50
270.0
 51
0.0
  0
ARC
  5
1E05
  8
0
 10
141.52043800226261
 20
49.226060000000409
 30
0.0
 40
0.5
 50
270.0
 51
0.0
  0
ARC
  5
1E06
  8
0
 10
141.52043800226261
 20
54.426070000000209
 30
0.0
 40
0.5
 50
0.0
 51
90.00000299999769
  0
ARC
  5
1E07
  8
0
 10
124.02043800226259
 20
-55.826059999999643
 30
0.0
 40
1.0
 50
179.99998999999889
 51
270.0
  0
ARC
  5
1E08
  8
0
 10
140.02043800226261
 20
-55.826059999999643
 30
0.0
 40
1.0
 50
270.0
 51
0.0
  0
ARC
  5
1E09
  8
0
 10
124.02043800226259
 20
55.8260700000003
 30
0.0
 40
1.0
 50
90.00000299999769
 51
180.000010000001
  0
ARC
  5
1E0A
  8
0
 10
140.02043800226261
 20
55.8260700000003
 30
0.0
 40
1.0
 50
0.0
 51
90.00000299999769
  0
ARC
  5
1E0F
  8
0
  6
CENTER
 10
0.0000000000001137
 20
0.0000000000002274
 30
0.0
 40
62.0
 50
230.2256800000043
 51
249.77425999999971
  0
ARC
  5
1E1B
  8
0
 10
60.662990000000043
 20
17.00000000000022
 30
0.0
 40
2.0
 50
195.65482000000651
 51
270.0
  0
ARC
  5
1E1C
  8
0
 10
52.535670000000103
 20
7.0000000000002274
 30
0.0
 40
3.0
 50
187.5895400000033
 51
270.0
  0
ARC
  5
1E1D
  8
0
 10
-19.567359999999891
 20
-63.032673999999588
 30
0.0
 40
5.0
 50
72.753992999999525
 51
95.000001999999157
  0
ARC
  5
1E1F
  8
0
 10
-23.340239999999881
 20
-47.583969999999681
 30
0.0
 40
3.0
 50
63.871775999999009
 51
114.9999999999993
  0
ARC
  5
1E20
  8
0
 10
-24.84045999999989
 20
-46.076769999999662
 30
0.0
 40
1.0
 50
114.9999999999993
 51
184.99999999999969
  0
ARC
  5
1E21
  8
0
 10
-44.804289999999916
 20
-48.462119999999693
 30
0.0
 40
5.0
 50
25.000000000006629
 51
47.245951999999143
  0
ARC
  5
1E22
  8
0
 10
-29.538879999999828
 20
-44.005179999999648
 30
0.0
 40
3.0
 50
4.999999899997543
 51
56.128172000008341
  0
ARC
  5
1E23
  8
0
 10
60.662990000000043
 20
-16.999999999999769
 30
0.0
 40
2.0
 50
90.00000299999769
 51
164.34517999999341
  0
ARC
  5
1E25
  8
0
 10
-31.000029999999921
 20
-53.693559999999707
 30
0.0
 40
5.3000002000000004
 50
205.00008297325749
 51
4.999999899997543
  0
ARC
  5
1E27
  8
0
 10
0.0000000000001137
 20
0.0000000000002274
 30
0.0
 40
50.0
 50
243.8717899999973
 51
352.41045999999659
  0
ARC
  5
1E28
  8
0
 10
52.535670000000103
 20
-6.9999999999997717
 30
0.0
 40
3.0
 50
90.00000299999769
 51
172.41045999999659
  0
ARC
  5
1E29
  8
0
 10
0.0000000000001137
 20
0.0000000000002274
 30
0.0
 40
61.0
 50
245.79750999999791
 51
344.34517999999338
  0
ARC
  5
1E2D
  8
0
 10
-13.01721999999995
 20
-54.466069999999711
 30
0.0
 40
3.0
 50
76.558654999997245
 51
114.9999999999993
  0
ARC
  5
1E2E
  8
0
 10
0.0000000000001137
 20
0.0000000000002274
 30
0.0
 40
53.0
 50
256.55865999999799
 51
343.86097000000041
  0
ARC
  5
1E2F
  8
0
 10
-34.573399999999872
 20
-41.481099999999742
 30
0.0
 40
1.0
 50
294.99999999999932
 51
50.18971599999621
  0
ARC
  5
1E30
  8
0
 10
53.793030000000037
 20
-15.5662699999998
 30
0.0
 40
3.0
 50
60.000002000001302
 51
163.86095999999549
  0
POLYLINE
  5
1E31
  8
0
 10
123.27043800226259
 20
-6.2499998999997732
 30
0.0
 66
     1
 70
     8
  0
VERTEX
  8
0
  5
2E3B
 10
123.270
 20
-6.25000
 30
0.000000
  70
    32
  0
VERTEX
  8
0
  5
2E3C
 10
123.209
 20
-6.25098
 30
0.000000
  70
    32
  0
VERTEX
  8
0
  5
2E3D
 10
123.148
 20
-6.25391
 30
0.000000
  70
    32
  0
VERTEX
  8
0
  5
2E3E
 10
123.087
 20
-6.25881
 30
0.000000
  70
    32
  0
VERTEX
  8
0
  5
2E3F
 10
123.025
 20
-6.26565
 30
0.000000
  70
    32
  0
VERTEX
  8
0
  5
2E40
 10
122.964
 20
-6.27444
 30
0.000000
  70
    32
  0
VERTEX
  8
0
  5
2E41
 10
122.904
 20
-6.28518
 30
0.000000
  70
    32
  0
VERTEX
  8
0
  5
2E42
 10
122.843
 20
-6.29785
 30
0.000000
  70
    32
  0
VERTEX
  8
0
  5
2E43
 10
122.783
 20
-6.31245
 30
0.000000
  70
    32
  0
VERTEX
  8
0
  5
2E44
 10
122.723
 20
-6.32897
 30
0.000000
  70
    32
  0
VERTEX
  8
0
  5
2E45
 10
122.663
 20
-6.34740
 30
0.000000
  70
    32
  0
VERTEX
  8
0
  5
2E46
 10
122.604
 20
-6.36773
 30
0.000000
  70
    32
  0
VERTEX
  8
0
  5
2E47
 10
122.545
 20
-6.38994
 30
0.000000
  70
    32
  0
VERTEX
  8
0
  5
2E48
 10
122.486
 20
-6.41403
 30
0.000000
  70
    32
  0
VERTEX
  8
0
  5
2E49
 10
122.428
 20
-6.43998
 30
0.000000
  70
    32
  0
VERTEX
  8
0
  5
2E4A
 10
122.371
 20
-6.46777
 30
0.000000
  70
    32
  0
VERTEX
  8
0
  5
2E4B
 10
122.314
 20
-6.49739
 30
0.000000
  70
    32
  0
VERTEX
  8
0
  5
2E4C
 10
122.257
 20
-6.52882
 30
0.000000
  70
    32
  0
VERTEX
  8
0
  5
2E4D
 10
122.202
 20
-6.56203
 30
0.000000
  70
    32
  0
VERTEX
  8
0
  5
2E4E
 10
122.146
 20
-6.59702
 30
0.000000
  70
    32
  0
VERTEX
  8
0
  5
2E4F
 10
122.092
 20
-6.63376
 30
0.000000
  70
    32
  0
VERTEX
  8
0
  5
2E50
 10
122.038
 20
-6.67222
 30
0.000000
  70
    32
  0
VERTEX
  8
0
  5
2E51
 10
121.985
 20
-6.71238
 30
0.000000
  70
    32
  0
VERTEX
  8
0
  5
2E52
 10
121.933
 20
-6.75423
 30
0.000000
  70
    32
  0
VERTEX
  8
0
  5
2E53
 10
121.882
 20
-6.79772
 30
0.000000
  70
    32
  0
VERTEX
  8
0
  5
2E54
 10
121.831
 20
-6.84285
 30
0.000000
  70
    32
  0
VERTEX
  8
0
  5
2E55
 10
121.781
 20
-6.88958
 30
0.000000
  70
    32
  0
VERTEX
  8
0
  5
2E56
 10
121.732
 20
-6.93787
 30
0.000000
  70
    32
  0
VERTEX
  8
0
  5
2E57
 10
121.684
 20
-6.98772
 30
0.000000
  70
    32
  0
VERTEX
  8
0
  5
2E58
 10
121.638
 20
-7.03907
 30
0.000000
  70
    32
  0
VERTEX
  8
0
  5
2E59
 10
121.592
 20
-7.09191
 30
0.000000
  70
    32
  0
VERTEX
  8
0
  5
2E5A
 10
121.547
 20
-7.14620
 30
0.000000
  70
    32
  0
VERTEX
  8
0
  5
2E5B
 10
121.503
 20
-7.20190
 30
0.000000
  70
    32
  0
VERTEX
  8
0
  5
2E5C
 10
121.460
 20
-7.25899
 30
0.000000
  70
    32
  0
VERTEX
  8
0
  5
2E5D
 10
121.418
 20
-7.31743
 30
0.000000
  70
    32
  0
VERTEX
  8
0
  5
2E5E
 10
121.377
 20
-7.37719
 30
0.000000
  70
    32
  0
VERTEX
  8
0
  5
2E5F
 10
121.338
 20
-7.43822
 30
0.000000
  70
    32
  0
VERTEX
  8
0
  5
2E60
 10
121.300
 20
-7.50050
 30
0.000000
  70
    32
  0
VERTEX
  8
0
  5
2E61
 10
121.262
 20
-7.56398
 30
0.000000
  70
    32
  0
VERTEX
  8
0
  5
2E62
 10
121.226
 20
-7.62862
 30
0.000000
  70
    32
  0
VERTEX
  8
0
  5
2E63
 10
121.192
 20
-7.69440
 30
0.000000
  70
    32
  0
VERTEX
  8
0
  5
2E64
 10
121.158
 20
-7.76126
 30
0.000000
  70
    32
  0
VERTEX
  8
0
  5
2E65
 10
121.126
 20
-7.82917
 30
0.000000
  70
    32
  0
VERTEX
  8
0
  5
2E66
 10
121.095
 20
-7.89808
 30
0.000000
  70
    32
  0
VERTEX
  8
0
  5
2E67
 10
121.066
 20
-7.96796
 30
0.000000
  70
    32
  0
VERTEX
  8
0
  5
2E68
 10
121.037
 20
-8.03876
 30
0.000000
  70
    32
  0
VERTEX
  8
0
  5
2E69
 10
121.010
 20
-8.11045
 30
0.000000
  70
    32
  0
VERTEX
  8
0
  5
2E6A
 10
120.985
 20
-8.18297
 30
0.000000
  70
    32
  0
VERTEX
  8
0
  5
2E6B
 10
120.961
 20
-8.25628
 30
0.000000
  70
    32
  0
VERTEX
  8
0
  5
2E6C
 10
120.938
 20
-8.33034
 30
0.000000
  70
    32
  0
VERTEX
  8
0
  5
2E6D
 10
120.917
 20
-8.40511
 30
0.000000
  70
    32
  0
VERTEX
  8
0
  5
2E6E
 10
120.897
 20
-8.48053
 30
0.000000
  70
    32
  0
VERTEX
  8
0
  5
2E6F
 10
120.878
 20
-8.55657
 30
0.000000
  70
    32
  0
VERTEX
  8
0
  5
2E70
 10
120.861
 20
-8.63318
 30
0.000000
  70
    32
  0
VERTEX
  8
0
  5
2E71
 10
120.845
 20
-8.71031
 30
0.000000
  70
    32
  0
VERTEX
  8
0
  5
2E72
 10
120.831
 20
-8.78792
 30
0.000000
  70
    32
  0
VERTEX
  8
0
  5
2E73
 10
120.818
 20
-8.86596
 30
0.000000
  70
    32
  0
VERTEX
  8
0
  5
2E74
 10
120.807
 20
-8.94437
 30
0.000000
  70
    32
  0
VERTEX
  8
0
  5
2E75
 10
120.797
 20
-9.02313
 30
0.000000
  70
    32
  0
VERTEX
  8
0
  5
2E76
 10
120.789
 20
-9.10217
 30
0.000000
  70
    32
  0
VERTEX
  8
0
  5
2E77
 10
120.782
 20
-9.18144
 30
0.000000
  70
    32
  0
VERTEX
  8
0
  5
2E78
 10
120.777
 20
-9.26092
 30
0.000000
  70
    32
  0
VERTEX
  8
0
  5
2E79
 10
120.773
 20
-9.34053
 30
0.000000
  70
    32
  0
VERTEX
  8
0
  5
2E7A
 10
120.771
 20
-9.42024
 30
0.000000
  70
    32
  0
VERTEX
  8
0
  5
2E7B
 10
120.770
 20
-9.50000
 30
0.000000
  70
    32
  0
VERTEX
  8
0
  5
2E7C
 10
120.771
 20
-9.57976
 30
0.000000
  70
    32
  0
VERTEX
  8
0
  5
2E7D
 10
120.773
 20
-9.65947
 30
0.000000
  70
    32
  0
VERTEX
  8
0
  5
2E7E
 10
120.777
 20
-9.73908
 30
0.000000
  70
    32
  0
VERTEX
  8
0
  5
2E7F
 10
120.782
 20
-9.81856
 30
0.000000
  70
    32
  0
VERTEX
  8
0
  5
2E80
 10
120.789
 20
-9.89783
 30
0.000000
  70
    32
  0
VERTEX
  8
0
  5
2E81
 10
120.797
 20
-9.97687
 30
0.000000
  70
    32
  0
VERTEX
  8
0
  5
2E82
 10
120.807
 20
-10.0556
 30
0.000000
  70
    32
  0
VERTEX
  8
0
  5
2E83
 10
120.818
 20
-10.1340
 30
0.000000
  70
    32
  0
VERTEX
  8
0
  5
2E84
 10
120.831
 20
-10.2121
 30
0.000000
  70
    32
  0
VERTEX
  8
0
  5
2E85
 10
120.845
 20
-10.2897
 30
0.000000
  70
    32
  0
VERTEX
  8
0
  5
2E86
 10
120.861
 20
-10.3668
 30
0.000000
  70
    32
  0
VERTEX
  8
0
  5
2E87
 10
120.878
 20
-10.4434
 30
0.000000
  70
    32
  0
VERTEX
  8
0
  5
2E88
 10
120.897
 20
-10.5195
 30
0.000000
  70
    32
  0
VERTEX
  8
0
  5
2E89
 10
120.917
 20
-10.5949
 30
0.000000
  70
    32
  0
VERTEX
  8
0
  5
2E8A
 10
120.938
 20
-10.6697
 30
0.000000
  70
    32
  0
VERTEX
  8
0
  5
2E8B
 10
120.961
 20
-10.7437
 30
0.000000
  70
    32
  0
VERTEX
  8
0
  5
2E8C
 10
120.985
 20
-10.8170
 30
0.000000
  70
    32
  0
VERTEX
  8
0
  5
2E8D
 10
121.010
 20
-10.8896
 30
0.000000
  70
    32
  0
VERTEX
  8
0
  5
2E8E
 10
121.037
 20
-10.9612
 30
0.000000
  70
    32
  0
VERTEX
  8
0
  5
2E8F
 10
121.066
 20
-11.0320
 30
0.000000
  70
    32
  0
VERTEX
  8
0
  5
2E90
 10
121.095
 20
-11.1019
 30
0.000000
  70
    32
  0
VERTEX
  8
0
  5
2E91
 10
121.126
 20
-11.1708
 30
0.000000
  70
    32
  0
VERTEX
  8
0
  5
2E92
 10
121.158
 20
-11.2387
 30
0.000000
  70
    32
  0
VERTEX
  8
0
  5
2E93
 10
121.192
 20
-11.3056
 30
0.000000
  70
    32
  0
VERTEX
  8
0
  5
2E94
 10
121.226
 20
-11.3714
 30
0.000000
  70
    32
  0
VERTEX
  8
0
  5
2E95
 10
121.262
 20
-11.4360
 30
0.000000
  70
    32
  0
VERTEX
  8
0
  5
2E96
 10
121.300
 20
-11.4995
 30
0.000000
  70
    32
  0
VERTEX
  8
0
  5
2E97
 10
121.338
 20
-11.5618
 30
0.000000
  70
    32
  0
VERTEX
  8
0
  5
2E98
 10
121.377
 20
-11.6228
 30
0.000000
  70
    32
  0
VERTEX
  8
0
  5
2E99
 10
121.418
 20
-11.6826
 30
0.000000
  70
    32
  0
VERTEX
  8
0
  5
2E9A
 10
121.460
 20
-11.7410
 30
0.000000
  70
    32
  0
VERTEX
  8
0
  5
2E9B
 10
121.503
 20
-11.7981
 30
0.000000
  70
    32
  0
VERTEX
  8
0
  5
2E9C
 10
121.547
 20
-11.8538
 30
0.000000
  70
    32
  0
VERTEX
  8
0
  5
2E9D
 10
121.592
 20
-11.9081
 30
0.000000
  70
    32
  0
VERTEX
  8
0
  5
2E9E
 10
121.638
 20
-11.9609
 30
0.000000
  70
    32
  0
VERTEX
  8
0
  5
2E9F
 10
121.684
 20
-12.0123
 30
0.000000
  70
    32
  0
VERTEX
  8
0
  5
2EA0
 10
121.732
 20
-12.0621
 30
0.000000
  70
    32
  0
VERTEX
  8
0
  5
2EA1
 10
121.781
 20
-12.1104
 30
0.000000
  70
    32
  0
VERTEX
  8
0
  5
2EA2
 10
121.831
 20
-12.1572
 30
0.000000
  70
    32
  0
VERTEX
  8
0
  5
2EA3
 10
121.882
 20
-12.2023
 30
0.000000
  70
    32
  0
VERTEX
  8
0
  5
2EA4
 10
121.933
 20
-12.2458
 30
0.000000
  70
    32
  0
VERTEX
  8
0
  5
2EA5
 10
121.985
 20
-12.2876
 30
0.000000
  70
    32
  0
VERTEX
  8
0
  5
2EA6
 10
122.038
 20
-12.3278
 30
0.000000
  70
    32
  0
VERTEX
  8
0
  5
2EA7
 10
122.092
 20
-12.3662
 30
0.000000
  70
    32
  0
VERTEX
  8
0
  5
2EA8
 10
122.146
 20
-12.4030
 30
0.000000
  70
    32
  0
VERTEX
  8
0
  5
2EA9
 10
122.202
 20
-12.4380
 30
0.000000
  70
    32
  0
VERTEX
  8
0
  5
2EAA
 10
122.257
 20
-12.4712
 30
0.000000
  70
    32
  0
VERTEX
  8
0
  5
2EAB
 10
122.314
 20
-12.5026
 30
0.000000
  70
    32
  0
VERTEX
  8
0
  5
2EAC
 10
122.371
 20
-12.5322
 30
0.000000
  70
    32
  0
VERTEX
  8
0
  5
2EAD
 10
122.428
 20
-12.5600
 30
0.000000
  70
    32
  0
VERTEX
  8
0
  5
2EAE
 10
122.486
 20
-12.5860
 30
0.000000
  70
    32
  0
VERTEX
  8
0
  5
2EAF
 10
122.545
 20
-12.6101
 30
0.000000
  70
    32
  0
VERTEX
  8
0
  5
2EB0
 10
122.604
 20
-12.6323
 30
0.000000
  70
    32
  0
VERTEX
  8
0
  5
2EB1
 10
122.663
 20
-12.6526
 30
0.000000
  70
    32
  0
VERTEX
  8
0
  5
2EB2
 10
122.723
 20
-12.6710
 30
0.000000
  70
    32
  0
VERTEX
  8
0
  5
2EB3
 10
122.783
 20
-12.6876
 30
0.000000
  70
    32
  0
VERTEX
  8
0
  5
2EB4
 10
122.843
 20
-12.7022
 30
0.000000
  70
    32
  0
VERTEX
  8
0
  5
2EB5
 10
122.904
 20
-12.7148
 30
0.000000
  70
    32
  0
VERTEX
  8
0
  5
2EB6
 10
122.964
 20
-12.7256
 30
0.000000
  70
    32
  0
VERTEX
  8
0
  5
2EB7
 10
123.025
 20
-12.7344
 30
0.000000
  70
    32
  0
VERTEX
  8
0
  5
2EB8
 10
123.087
 20
-12.7412
 30
0.000000
  70
    32
  0
VERTEX
  8
0
  5
2EB9
 10
123.148
 20
-12.7461
 30
0.000000
  70
    32
  0
VERTEX
  8
0
  5
2EBA
 10
123.209
 20
-12.7490
 30
0.000000
  70
    32
  0
VERTEX
  8
0
  5
2EBB
 10
123.270
 20
-12.7500
 30
0.000000
  70
    32
  0
SEQEND
  8
0
  5
2EBC
  0
POLYLINE
  5
1E32
  8
0
 10
123.02043800226259
 20
-48.576059899999642
 30
0.0
 66
     1
 70
     8
  0
VERTEX
  8
0
  5
2EBD
 10
123.020
 20
-48.5761
 30
0.000000
  70
    32
  0
VERTEX
  8
0
  5
2EBE
 10
122.959
 20
-48.5770
 30
0.000000
  70
    32
  0
VERTEX
  8
0
  5
2EBF
 10
122.898
 20
-48.5800
 30
0.000000
  70
    32
  0
VERTEX
  8
0
  5
2EC0
 10
122.837
 20
-48.5849
 30
0.000000
  70
    32
  0
VERTEX
  8
0
  5
2EC1
 10
122.775
 20
-48.5917
 30
0.000000
  70
    32
  0
VERTEX
  8
0
  5
2EC2
 10
122.714
 20
-48.6005
 30
0.000000
  70
    32
  0
VERTEX
  8
0
  5
2EC3
 10
122.654
 20
-48.6112
 30
0.000000
  70
    32
  0
VERTEX
  8
0
  5
2EC4
 10
122.593
 20
-48.6239
 30
0.000000
  70
    32
  0
VERTEX
  8
0
  5
2EC5
 10
122.533
 20
-48.6385
 30
0.000000
  70
    32
  0
VERTEX
  8
0
  5
2EC6
 10
122.473
 20
-48.6550
 30
0.000000
  70
    32
  0
VERTEX
  8
0
  5
2EC7
 10
122.413
 20
-48.6735
 30
0.000000
  70
    32
  0
VERTEX
  8
0
  5
2EC8
 10
122.354
 20
-48.6938
 30
0.000000
  70
    32
  0
VERTEX
  8
0
  5
2EC9
 10
122.295
 20
-48.7160
 30
0.000000
  70
    32
  0
VERTEX
  8
0
  5
2ECA
 10
122.236
 20
-48.7401
 30
0.000000
  70
    32
  0
VERTEX
  8
0
  5
2ECB
 10
122.178
 20
-48.7660
 30
0.000000
  70
    32
  0
VERTEX
  8
0
  5
2ECC
 10
122.121
 20
-48.7938
 30
0.000000
  70
    32
  0
VERTEX
  8
0
  5
2ECD
 10
122.064
 20
-48.8235
 30
0.000000
  70
    32
  0
VERTEX
  8
0
  5
2ECE
 10
122.007
 20
-48.8549
 30
0.000000
  70
    32
  0
VERTEX
  8
0
  5
2ECF
 10
121.952
 20
-48.8881
 30
0.000000
  70
    32
  0
VERTEX
  8
0
  5
2ED0
 10
121.896
 20
-48.9231
 30
0.000000
  70
    32
  0
VERTEX
  8
0
  5
2ED1
 10
121.842
 20
-48.9598
 30
0.000000
  70
    32
  0
VERTEX
  8
0
  5
2ED2
 10
121.788
 20
-48.9983
 30
0.000000
  70
    32
  0
VERTEX
  8
0
  5
2ED3
 10
121.735
 20
-49.0384
 30
0.000000
  70
    32
  0
VERTEX
  8
0
  5
2ED4
 10
121.683
 20
-49.0803
 30
0.000000
  70
    32
  0
VERTEX
  8
0
  5
2ED5
 10
121.632
 20
-49.1238
 30
0.000000
  70
    32
  0
VERTEX
  8
0
  5
2ED6
 10
121.581
 20
-49.1689
 30
0.000000
  70
    32
  0
VERTEX
  8
0
  5
2ED7
 10
121.531
 20
-49.2156
 30
0.000000
  70
    32
  0
VERTEX
  8
0
  5
2ED8
 10
121.482
 20
-49.2639
 30
0.000000
  70
    32
  0
VERTEX
  8
0
  5
2ED9
 10
121.434
 20
-49.3138
 30
0.000000
  70
    32
  0
VERTEX
  8
0
  5
2EDA
 10
121.388
 20
-49.3651
 30
0.000000
  70
    32
  0
VERTEX
  8
0
  5
2EDB
 10
121.342
 20
-49.4180
 30
0.000000
  70
    32
  0
VERTEX
  8
0
  5
2EDC
 10
121.297
 20
-49.4723
 30
0.000000
  70
    32
  0
VERTEX
  8
0
  5
2EDD
 10
121.253
 20
-49.5280
 30
0.000000
  70
    32
  0
VERTEX
  8
0
  5
2EDE
 10
121.210
 20
-49.5851
 30
0.000000
  70
    32
  0
VERTEX
  8
0
  5
2EDF
 10
121.168
 20
-49.6435
 30
0.000000
  70
    32
  0
VERTEX
  8
0
  5
2EE0
 10
121.127
 20
-49.7032
 30
0.000000
  70
    32
  0
VERTEX
  8
0
  5
2EE1
 10
121.088
 20
-49.7643
 30
0.000000
  70
    32
  0
VERTEX
  8
0
  5
2EE2
 10
121.050
 20
-49.8266
 30
0.000000
  70
    32
  0
VERTEX
  8
0
  5
2EE3
 10
121.012
 20
-49.8900
 30
0.000000
  70
    32
  0
VERTEX
  8
0
  5
2EE4
 10
120.976
 20
-49.9547
 30
0.000000
  70
    32
  0
VERTEX
  8
0
  5
2EE5
 10
120.942
 20
-50.0205
 30
0.000000
  70
    32
  0
VERTEX
  8
0
  5
2EE6
 10
120.908
 20
-50.0873
 30
0.000000
  70
    32
  0
VERTEX
  8
0
  5
2EE7
 10
120.876
 20
-50.1552
 30
0.000000
  70
    32
  0
VERTEX
  8
0
  5
2EE8
 10
120.845
 20
-50.2241
 30
0.000000
  70
    32
  0
VERTEX
  8
0
  5
2EE9
 10
120.816
 20
-50.2940
 30
0.000000
  70
    32
  0
VERTEX
  8
0
  5
2EEA
 10
120.787
 20
-50.3648
 30
0.000000
  70
    32
  0
VERTEX
  8
0
  5
2EEB
 10
120.760
 20
-50.4365
 30
0.000000
  70
    32
  0
VERTEX
  8
0
  5
2EEC
 10
120.735
 20
-50.5090
 30
0.000000
  70
    32
  0
VERTEX
  8
0
  5
2EED
 10
120.711
 20
-50.5823
 30
0.000000
  70
    32
  0
VERTEX
  8
0
  5
2EEE
 10
120.688
 20
-50.6564
 30
0.000000
  70
    32
  0
VERTEX
  8
0
  5
2EEF
 10
120.667
 20
-50.7312
 30
0.000000
  70
    32
  0
VERTEX
  8
0
  5
2EF0
 10
120.647
 20
-50.8066
 30
0.000000
  70
    32
  0
VERTEX
  8
0
  5
2EF1
 10
120.628
 20
-50.8826
 30
0.000000
  70
    32
  0
VERTEX
  8
0
  5
2EF2
 10
120.611
 20
-50.9592
 30
0.000000
  70
    32
  0
VERTEX
  8
0
  5
2EF3
 10
120.595
 20
-51.0364
 30
0.000000
  70
    32
  0
VERTEX
  8
0
  5
2EF4
 10
120.581
 20
-51.1140
 30
0.000000
  70
    32
  0
VERTEX
  8
0
  5
2EF5
 10
120.568
 20
-51.1920
 30
0.000000
  70
    32
  0
VERTEX
  8
0
  5
2EF6
 10
120.557
 20
-51.2704
 30
0.000000
  70
    32
  0
VERTEX
  8
0
  5
2EF7
 10
120.547
 20
-51.3492
 30
0.000000
  70
    32
  0
VERTEX
  8
0
  5
2EF8
 10
120.539
 20
-51.4282
 30
0.000000
  70
    32
  0
VERTEX
  8
0
  5
2EF9
 10
120.532
 20
-51.5075
 30
0.000000
  70
    32
  0
VERTEX
  8
0
  5
2EFA
 10
120.527
 20
-51.5870
 30
0.000000
  70
    32
  0
VERTEX
  8
0
  5
2EFB
 10
120.523
 20
-51.6666
 30
0.000000
  70
    32
  0
VERTEX
  8
0
  5
2EFC
 10
120.521
 20
-51.7463
 30
0.000000
  70
    32
  0
VERTEX
  8
0
  5
2EFD
 10
120.520
 20
-51.8261
 30
0.000000
  70
    32
  0
VERTEX
  8
0
  5
2EFE
 10
120.521
 20
-51.9058
 30
0.000000
  70
    32
  0
VERTEX
  8
0
  5
2EFF
 10
120.523
 20
-51.9855
 30
0.000000
  70
    32
  0
VERTEX
  8
0
  5
2F00
 10
120.527
 20
-52.0651
 30
0.000000
  70
    32
  0
VERTEX
  8
0
  5
2F01
 10
120.532
 20
-52.1446
 30
0.000000
  70
    32
  0
VERTEX
  8
0
  5
2F02
 10
120.539
 20
-52.2239
 30
0.000000
  70
    32
  0
VERTEX
  8
0
  5
2F03
 10
120.547
 20
-52.3029
 30
0.000000
  70
    32
  0
VERTEX
  8
0
  5
2F04
 10
120.557
 20
-52.3817
 30
0.000000
  70
    32
  0
VERTEX
  8
0
  5
2F05
 10
120.568
 20
-52.4601
 30
0.000000
  70
    32
  0
VERTEX
  8
0
  5
2F06
 10
120.581
 20
-52.5381
 30
0.000000
  70
    32
  0
VERTEX
  8
0
  5
2F07
 10
120.595
 20
-52.6157
 30
0.000000
  70
    32
  0
VERTEX
  8
0
  5
2F08
 10
120.611
 20
-52.6929
 30
0.000000
  70
    32
  0
VERTEX
  8
0
  5
2F09
 10
120.628
 20
-52.7695
 30
0.000000
  70
    32
  0
VERTEX
  8
0
  5
2F0A
 10
120.647
 20
-52.8455
 30
0.000000
  70
    32
  0
VERTEX
  8
0
  5
2F0B
 10
120.667
 20
-52.9210
 30
0.000000
  70
    32
  0
VERTEX
  8
0
  5
2F0C
 10
120.688
 20
-52.9957
 30
0.000000
  70
    32
  0
VERTEX
  8
0
  5
2F0D
 10
120.711
 20
-53.0698
 30
0.000000
  70
    32
  0
VERTEX
  8
0
  5
2F0E
 10
120.735
 20
-53.1431
 30
0.000000
  70
    32
  0
VERTEX
  8
0
  5
2F0F
 10
120.760
 20
-53.2156
 30
0.000000
  70
    32
  0
VERTEX
  8
0
  5
2F10
 10
120.787
 20
-53.2873
 30
0.000000
  70
    32
  0
VERTEX
  8
0
  5
2F11
 10
120.816
 20
-53.3581
 30
0.000000
  70
    32
  0
VERTEX
  8
0
  5
2F12
 10
120.845
 20
-53.4280
 30
0.000000
  70
    32
  0
VERTEX
  8
0
  5
2F13
 10
120.876
 20
-53.4969
 30
0.000000
  70
    32
  0
VERTEX
  8
0
  5
2F14
 10
120.908
 20
-53.5648
 30
0.000000
  70
    32
  0
VERTEX
  8
0
  5
2F15
 10
120.942
 20
-53.6317
 30
0.000000
  70
    32
  0
VERTEX
  8
0
  5
2F16
 10
120.976
 20
-53.6974
 30
0.000000
  70
    32
  0
VERTEX
  8
0
  5
2F17
 10
121.012
 20
-53.7621
 30
0.000000
  70
    32
  0
VERTEX
  8
0
  5
2F18
 10
121.050
 20
-53.8256
 30
0.000000
  70
    32
  0
VERTEX
  8
0
  5
2F19
 10
121.088
 20
-53.8878
 30
0.000000
  70
    32
  0
VERTEX
  8
0
  5
2F1A
 10
121.127
 20
-53.9489
 30
0.000000
  70
    32
  0
VERTEX
  8
0
  5
2F1B
 10
121.168
 20
-54.0086
 30
0.000000
  70
    32
  0
VERTEX
  8
0
  5
2F1C
 10
121.210
 20
-54.0671
 30
0.000000
  70
    32
  0
VERTEX
  8
0
  5
2F1D
 10
121.253
 20
-54.1242
 30
0.000000
  70
    32
  0
VERTEX
  8
0
  5
2F1E
 10
121.297
 20
-54.1799
 30
0.000000
  70
    32
  0
VERTEX
  8
0
  5
2F1F
 10
121.342
 20
-54.2342
 30
0.000000
  70
    32
  0
VERTEX
  8
0
  5
2F20
 10
121.388
 20
-54.2870
 30
0.000000
  70
    32
  0
VERTEX
  8
0
  5
2F21
 10
121.434
 20
-54.3383
 30
0.000000
  70
    32
  0
VERTEX
  8
0
  5
2F22
 10
121.482
 20
-54.3882
 30
0.000000
  70
    32
  0
VERTEX
  8
0
  5
2F23
 10
121.531
 20
-54.4365
 30
0.000000
  70
    32
  0
VERTEX
  8
0
  5
2F24
 10
121.581
 20
-54.4832
 30
0.000000
  70
    32
  0
VERTEX
  8
0
  5
2F25
 10
121.632
 20
-54.5283
 30
0.000000
  70
    32
  0
VERTEX
  8
0
  5
2F26
 10
121.683
 20
-54.5718
 30
0.000000
  70
    32
  0
VERTEX
  8
0
  5
2F27
 10
121.735
 20
-54.6137
 30
0.000000
  70
    32
  0
VERTEX
  8
0
  5
2F28
 10
121.788
 20
-54.6538
 30
0.000000
  70
    32
  0
VERTEX
  8
0
  5
2F29
 10
121.842
 20
-54.6923
 30
0.000000
  70
    32
  0
VERTEX
  8
0
  5
2F2A
 10
121.896
 20
-54.7290
 30
0.000000
  70
    32
  0
VERTEX
  8
0
  5
2F2B
 10
121.952
 20
-54.7640
 30
0.000000
  70
    32
  0
VERTEX
  8
0
  5
2F2C
 10
122.007
 20
-54.7972
 30
0.000000
  70
    32
  0
VERTEX
  8
0
  5
2F2D
 10
122.064
 20
-54.8287
 30
0.000000
  70
    32
  0
VERTEX
  8
0
  5
2F2E
 10
122.121
 20
-54.8583
 30
0.000000
  70
    32
  0
VERTEX
  8
0
  5
2F2F
 10
122.178
 20
-54.8861
 30
0.000000
  70
    32
  0
VERTEX
  8
0
  5
2F30
 10
122.236
 20
-54.9120
 30
0.000000
  70
    32
  0
VERTEX
  8
0
  5
2F31
 10
122.295
 20
-54.9361
 30
0.000000
  70
    32
  0
VERTEX
  8
0
  5
2F32
 10
122.354
 20
-54.9583
 30
0.000000
  70
    32
  0
VERTEX
  8
0
  5
2F33
 10
122.413
 20
-54.9787
 30
0.000000
  70
    32
  0
VERTEX
  8
0
  5
2F34
 10
122.473
 20
-54.9971
 30
0.000000
  70
    32
  0
VERTEX
  8
0
  5
2F35
 10
122.533
 20
-55.0136
 30
0.000000
  70
    32
  0
VERTEX
  8
0
  5
2F36
 10
122.593
 20
-55.0282
 30
0.000000
  70
    32
  0
VERTEX
  8
0
  5
2F37
 10
122.654
 20
-55.0409
 30
0.000000
  70
    32
  0
VERTEX
  8
0
  5
2F38
 10
122.714
 20
-55.0516
 30
0.000000
  70
    32
  0
VERTEX
  8
0
  5
2F39
 10
122.775
 20
-55.0604
 30
0.000000
  70
    32
  0
VERTEX
  8
0
  5
2F3A
 10
122.837
 20
-55.0673
 30
0.000000
  70
    32
  0
VERTEX
  8
0
  5
2F3B
 10
122.898
 20
-55.0721
 30
0.000000
  70
    32
  0
VERTEX
  8
0
  5
2F3C
 10
122.959
 20
-55.0751
 30
0.000000
  70
    32
  0
VERTEX
  8
0
  5
2F3D
 10
123.020
 20
-55.0761
 30
0.000000
  70
    32
  0
SEQEND
  8
0
  5
2F3E
  0
POLYLINE
  5
1E33
  8
0
 10
123.0204379130122
 20
55.076070100000294
 30
0.0
 66
     1
 70
     8
  0
VERTEX
  8
0
  5
2F3F
 10
123.020
 20
55.0761
 30
0.000000
  70
    32
  0
VERTEX
  8
0
  5
2F40
 10
122.959
 20
55.0751
 30
0.000000
  70
    32
  0
VERTEX
  8
0
  5
2F41
 10
122.898
 20
55.0722
 30
0.000000
  70
    32
  0
VERTEX
  8
0
  5
2F42
 10
122.837
 20
55.0673
 30
0.000000
  70
    32
  0
VERTEX
  8
0
  5
2F43
 10
122.775
 20
55.0604
 30
0.000000
  70
    32
  0
VERTEX
  8
0
  5
2F44
 10
122.714
 20
55.0516
 30
0.000000
  70
    32
  0
VERTEX
  8
0
  5
2F45
 10
122.654
 20
55.0409
 30
0.000000
  70
    32
  0
VERTEX
  8
0
  5
2F46
 10
122.593
 20
55.0282
 30
0.000000
  70
    32
  0
VERTEX
  8
0
  5
2F47
 10
122.533
 20
55.0136
 30
0.000000
  70
    32
  0
VERTEX
  8
0
  5
2F48
 10
122.473
 20
54.9971
 30
0.000000
  70
    32
  0
VERTEX
  8
0
  5
2F49
 10
122.413
 20
54.9787
 30
0.000000
  70
    32
  0
VERTEX
  8
0
  5
2F4A
 10
122.354
 20
54.9583
 30
0.000000
  70
    32
  0
VERTEX
  8
0
  5
2F4B
 10
122.295
 20
54.9361
 30
0.000000
  70
    32
  0
VERTEX
  8
0
  5
2F4C
 10
122.236
 20
54.9120
 30
0.000000
  70
    32
  0
VERTEX
  8
0
  5
2F4D
 10
122.178
 20
54.8861
 30
0.000000
  70
    32
  0
VERTEX
  8
0
  5
2F4E
 10
122.121
 20
54.8583
 30
0.000000
  70
    32
  0
VERTEX
  8
0
  5
2F4F
 10
122.064
 20
54.8287
 30
0.000000
  70
    32
  0
VERTEX
  8
0
  5
2F50
 10
122.007
 20
54.7973
 30
0.000000
  70
    32
  0
VERTEX
  8
0
  5
2F51
 10
121.952
 20
54.7640
 30
0.000000
  70
    32
  0
VERTEX
  8
0
  5
2F52
 10
121.896
 20
54.7290
 30
0.000000
  70
    32
  0
VERTEX
  8
0
  5
2F53
 10
121.842
 20
54.6923
 30
0.000000
  70
    32
  0
VERTEX
  8
0
  5
2F54
 10
121.788
 20
54.6539
 30
0.000000
  70
    32
  0
VERTEX
  8
0
  5
2F55
 10
121.735
 20
54.6137
 30
0.000000
  70
    32
  0
VERTEX
  8
0
  5
2F56
 10
121.683
 20
54.5718
 30
0.000000
  70
    32
  0
VERTEX
  8
0
  5
2F57
 10
121.632
 20
54.5283
 30
0.000000
  70
    32
  0
VERTEX
  8
0
  5
2F58
 10
121.581
 20
54.4832
 30
0.000000
  70
    32
  0
VERTEX
  8
0
  5
2F59
 10
121.531
 20
54.4365
 30
0.000000
  70
    32
  0
VERTEX
  8
0
  5
2F5A
 10
121.482
 20
54.3882
 30
0.000000
  70
    32
  0
VERTEX
  8
0
  5
2F5B
 10
121.434
 20
54.3384
 30
0.000000
  70
    32
  0
VERTEX
  8
0
  5
2F5C
 10
121.388
 20
54.2870
 30
0.000000
  70
    32
  0
VERTEX
  8
0
  5
2F5D
 10
121.342
 20
54.2342
 30
0.000000
  70
    32
  0
VERTEX
  8
0
  5
2F5E
 10
121.297
 20
54.1799
 30
0.000000
  70
    32
  0
VERTEX
  8
0
  5
2F5F
 10
121.253
 20
54.1242
 30
0.000000
  70
    32
  0
VERTEX
  8
0
  5
2F60
 10
121.210
 20
54.0671
 30
0.000000
  70
    32
  0
VERTEX
  8
0
  5
2F61
 10
121.168
 20
54.0086
 30
0.000000
  70
    32
  0
VERTEX
  8
0
  5
2F62
 10
121.127
 20
53.9489
 30
0.000000
  70
    32
  0
VERTEX
  8
0
  5
2F63
 10
121.088
 20
53.8878
 30
0.000000
  70
    32
  0
VERTEX
  8
0
  5
2F64
 10
121.050
 20
53.8256
 30
0.000000
  70
    32
  0
VERTEX
  8
0
  5
2F65
 10
121.012
 20
53.7621
 30
0.000000
  70
    32
  0
VERTEX
  8
0
  5
2F66
 10
120.976
 20
53.6974
 30
0.000000
  70
    32
  0
VERTEX
  8
0
  5
2F67
 10
120.942
 20
53.6317
 30
0.000000
  70
    32
  0
VERTEX
  8
0
  5
2F68
 10
120.908
 20
53.5648
 30
0.000000
  70
    32
  0
VERTEX
  8
0
  5
2F69
 10
120.876
 20
53.4969
 30
0.000000
  70
    32
  0
VERTEX
  8
0
  5
2F6A
 10
120.845
 20
53.4280
 30
0.000000
  70
    32
  0
VERTEX
  8
0
  5
2F6B
 10
120.816
 20
53.3581
 30
0.000000
  70
    32
  0
VERTEX
  8
0
  5
2F6C
 10
120.787
 20
53.2873
 30
0.000000
  70
    32
  0
VERTEX
  8
0
  5
2F6D
 10
120.760
 20
53.2156
 30
0.000000
  70
    32
  0
VERTEX
  8
0
  5
2F6E
 10
120.735
 20
53.1431
 30
0.000000
  70
    32
  0
VERTEX
  8
0
  5
2F6F
 10
120.711
 20
53.0698
 30
0.000000
  70
    32
  0
VERTEX
  8
0
  5
2F70
 10
120.688
 20
52.9957
 30
0.000000
  70
    32
  0
VERTEX
  8
0
  5
2F71
 10
120.667
 20
52.9210
 30
0.000000
  70
    32
  0
VERTEX
  8
0
  5
2F72
 10
120.647
 20
52.8455
 30
0.000000
  70
    32
  0
VERTEX
  8
0
  5
2F73
 10
120.628
 20
52.7695
 30
0.000000
  70
    32
  0
VERTEX
  8
0
  5
2F74
 10
120.611
 20
52.6929
 30
0.000000
  70
    32
  0
VERTEX
  8
0
  5
2F75
 10
120.595
 20
52.6158
 30
0.000000
  70
    32
  0
VERTEX
  8
0
  5
2F76
 10
120.581
 20
52.5381
 30
0.000000
  70
    32
  0
VERTEX
  8
0
  5
2F77
 10
120.568
 20
52.4601
 30
0.000000
  70
    32
  0
VERTEX
  8
0
  5
2F78
 10
120.557
 20
52.3817
 30
0.000000
  70
    32
  0
VERTEX
  8
0
  5
2F79
 10
120.547
 20
52.3029
 30
0.000000
  70
    32
  0
VERTEX
  8
0
  5
2F7A
 10
120.539
 20
52.2239
 30
0.000000
  70
    32
  0
VERTEX
  8
0
  5
2F7B
 10
120.532
 20
52.1446
 30
0.000000
  70
    32
  0
VERTEX
  8
0
  5
2F7C
 10
120.527
 20
52.0652
 30
0.000000
  70
    32
  0
VERTEX
  8
0
  5
2F7D
 10
120.523
 20
51.9855
 30
0.000000
  70
    32
  0
VERTEX
  8
0
  5
2F7E
 10
120.521
 20
51.9058
 30
0.000000
  70
    32
  0
VERTEX
  8
0
  5
2F7F
 10
120.520
 20
51.8261
 30
0.000000
  70
    32
  0
VERTEX
  8
0
  5
2F80
 10
120.521
 20
51.7463
 30
0.000000
  70
    32
  0
VERTEX
  8
0
  5
2F81
 10
120.523
 20
51.6666
 30
0.000000
  70
    32
  0
VERTEX
  8
0
  5
2F82
 10
120.527
 20
51.5870
 30
0.000000
  70
    32
  0
VERTEX
  8
0
  5
2F83
 10
120.532
 20
51.5075
 30
0.000000
  70
    32
  0
VERTEX
  8
0
  5
2F84
 10
120.539
 20
51.4282
 30
0.000000
  70
    32
  0
VERTEX
  8
0
  5
2F85
 10
120.547
 20
51.3492
 30
0.000000
  70
    32
  0
VERTEX
  8
0
  5
2F86
 10
120.557
 20
51.2704
 30
0.000000
  70
    32
  0
VERTEX
  8
0
  5
2F87
 10
120.568
 20
51.1920
 30
0.000000
  70
    32
  0
VERTEX
  8
0
  5
2F88
 10
120.581
 20
51.1140
 30
0.000000
  70
    32
  0
VERTEX
  8
0
  5
2F89
 10
120.595
 20
51.0364
 30
0.000000
  70
    32
  0
VERTEX
  8
0
  5
2F8A
 10
120.611
 20
50.9593
 30
0.000000
  70
    32
  0
VERTEX
  8
0
  5
2F8B
 10
120.628
 20
50.8826
 30
0.000000
  70
    32
  0
VERTEX
  8
0
  5
2F8C
 10
120.647
 20
50.8066
 30
0.000000
  70
    32
  0
VERTEX
  8
0
  5
2F8D
 10
120.667
 20
50.7312
 30
0.000000
  70
    32
  0
VERTEX
  8
0
  5
2F8E
 10
120.688
 20
50.6564
 30
0.000000
  70
    32
  0
VERTEX
  8
0
  5
2F8F
 10
120.711
 20
50.5823
 30
0.000000
  70
    32
  0
VERTEX
  8
0
  5
2F90
 10
120.735
 20
50.5090
 30
0.000000
  70
    32
  0
VERTEX
  8
0
  5
2F91
 10
120.760
 20
50.4365
 30
0.000000
  70
    32
  0
VERTEX
  8
0
  5
2F92
 10
120.787
 20
50.3648
 30
0.000000
  70
    32
  0
VERTEX
  8
0
  5
2F93
 10
120.816
 20
50.2940
 30
0.000000
  70
    32
  0
VERTEX
  8
0
  5
2F94
 10
120.845
 20
50.2242
 30
0.000000
  70
    32
  0
VERTEX
  8
0
  5
2F95
 10
120.876
 20
50.1552
 30
0.000000
  70
    32
  0
VERTEX
  8
0
  5
2F96
 10
120.908
 20
50.0873
 30
0.000000
  70
    32
  0
VERTEX
  8
0
  5
2F97
 10
120.942
 20
50.0205
 30
0.000000
  70
    32
  0
VERTEX
  8
0
  5
2F98
 10
120.976
 20
49.9547
 30
0.000000
  70
    32
  0
VERTEX
  8
0
  5
2F99
 10
121.012
 20
49.8900
 30
0.000000
  70
    32
  0
VERTEX
  8
0
  5
2F9A
 10
121.050
 20
49.8266
 30
0.000000
  70
    32
  0
VERTEX
  8
0
  5
2F9B
 10
121.088
 20
49.7643
 30
0.000000
  70
    32
  0
VERTEX
  8
0
  5
2F9C
 10
121.127
 20
49.7033
 30
0.000000
  70
    32
  0
VERTEX
  8
0
  5
2F9D
 10
121.168
 20
49.6435
 30
0.000000
  70
    32
  0
VERTEX
  8
0
  5
2F9E
 10
121.210
 20
49.5851
 30
0.000000
  70
    32
  0
VERTEX
  8
0
  5
2F9F
 10
121.253
 20
49.5280
 30
0.000000
  70
    32
  0
VERTEX
  8
0
  5
2FA0
 10
121.297
 20
49.4723
 30
0.000000
  70
    32
  0
VERTEX
  8
0
  5
2FA1
 10
121.342
 20
49.4180
 30
0.000000
  70
    32
  0
VERTEX
  8
0
  5
2FA2
 10
121.388
 20
49.3651
 30
0.000000
  70
    32
  0
VERTEX
  8
0
  5
2FA3
 10
121.434
 20
49.3138
 30
0.000000
  70
    32
  0
VERTEX
  8
0
  5
2FA4
 10
121.482
 20
49.2639
 30
0.000000
  70
    32
  0
VERTEX
  8
0
  5
2FA5
 10
121.531
 20
49.2156
 30
0.000000
  70
    32
  0
VERTEX
  8
0
  5
2FA6
 10
121.581
 20
49.1689
 30
0.000000
  70
    32
  0
VERTEX
  8
0
  5
2FA7
 10
121.632
 20
49.1238
 30
0.000000
  70
    32
  0
VERTEX
  8
0
  5
2FA8
 10
121.683
 20
49.0803
 30
0.000000
  70
    32
  0
VERTEX
  8
0
  5
2FA9
 10
121.735
 20
49.0385
 30
0.000000
  70
    32
  0
VERTEX
  8
0
  5
2FAA
 10
121.788
 20
48.9983
 30
0.000000
  70
    32
  0
VERTEX
  8
0
  5
2FAB
 10
121.842
 20
48.9598
 30
0.000000
  70
    32
  0
VERTEX
  8
0
  5
2FAC
 10
121.896
 20
48.9231
 30
0.000000
  70
    32
  0
VERTEX
  8
0
  5
2FAD
 10
121.952
 20
48.8881
 30
0.000000
  70
    32
  0
VERTEX
  8
0
  5
2FAE
 10
122.007
 20
48.8549
 30
0.000000
  70
    32
  0
VERTEX
  8
0
  5
2FAF
 10
122.064
 20
48.8235
 30
0.000000
  70
    32
  0
VERTEX
  8
0
  5
2FB0
 10
122.121
 20
48.7938
 30
0.000000
  70
    32
  0
VERTEX
  8
0
  5
2FB1
 10
122.178
 20
48.7661
 30
0.000000
  70
    32
  0
VERTEX
  8
0
  5
2FB2
 10
122.236
 20
48.7401
 30
0.000000
  70
    32
  0
VERTEX
  8
0
  5
2FB3
 10
122.295
 20
48.7160
 30
0.000000
  70
    32
  0
VERTEX
  8
0
  5
2FB4
 10
122.354
 20
48.6938
 30
0.000000
  70
    32
  0
VERTEX
  8
0
  5
2FB5
 10
122.413
 20
48.6735
 30
0.000000
  70
    32
  0
VERTEX
  8
0
  5
2FB6
 10
122.473
 20
48.6550
 30
0.000000
  70
    32
  0
VERTEX
  8
0
  5
2FB7
 10
122.533
 20
48.6385
 30
0.000000
  70
    32
  0
VERTEX
  8
0
  5
2FB8
 10
122.593
 20
48.6239
 30
0.000000
  70
    32
  0
VERTEX
  8
0
  5
2FB9
 10
122.654
 20
48.6112
 30
0.000000
  70
    32
  0
VERTEX
  8
0
  5
2FBA
 10
122.714
 20
48.6005
 30
0.000000
  70
    32
  0
VERTEX
  8
0
  5
2FBB
 10
122.775
 20
48.5917
 30
0.000000
  70
    32
  0
VERTEX
  8
0
  5
2FBC
 10
122.837
 20
48.5849
 30
0.000000
  70
    32
  0
VERTEX
  8
0
  5
2FBD
 10
122.898
 20
48.5800
 30
0.000000
  70
    32
  0
VERTEX
  8
0
  5
2FBE
 10
122.959
 20
48.5770
 30
0.000000
  70
    32
  0
VERTEX
  8
0
  5
2FBF
 10
123.020
 20
48.5761
 30
0.000000
  70
    32
  0
SEQEND
  8
0
  5
2FC0
  0
LINE
  5
2B51
  8
0
  6
CENTER
 10
0.0000000000001137
 20
0.0000000000002274
 30
0.0
 11
-36.278339999999957
 21
62.835935000000291
 31
0.0
  0
LINE
  5
2B53
  8
0
 10
55.29302000000007
 20
12.96819000000005
 30
0.0
 11
59.333590000000072
 21
15.301010000000129
 31
0.0
  0
LINE
  5
2B54
  8
0
 10
-25.836639999999871
 20
46.163930000000157
 30
0.0
 11
-25.007749999999991
 21
55.638240000000224
 31
0.0
  0
LINE
  5
2B55
  8
0
 10
-20.003149999999891
 20
58.051710000000192
 30
0.0
 11
-30.538099999999979
 21
58.973400000000311
 31
0.0
  0
LINE
  5
2B56
  8
0
 10
-26.550289999999901
 20
43.743710000000192
 30
0.0
 11
-25.720209999999948
 21
53.231640000000191
 31
0.0
  0
LINE
  5
2B57
  8
0
 10
-40.272739999999878
 20
46.349010000000128
 30
0.0
 11
-35.831133979637542
 21
55.874071472793958
 31
0.0
  0
LINE
  5
2B58
  8
0
 10
-24.608079999999848
 20
44.865040000000128
 30
0.0
 11
-25.263059999999989
 21
45.170460000000283
 31
0.0
  0
LINE
  5
2B59
  8
0
 10
-23.779149999999841
 20
56.17430000000013
 30
0.0
 11
-14.2850699999999
 21
51.747140000000172
 31
0.0
  0
LINE
  5
2B5A
  8
0
 10
-40.696699999999957
 20
45.439830000000249
 30
0.0
 11
-34.150779999999941
 21
42.38742000000002
 31
0.0
  0
ARC
  5
2B5B
  8
0
  6
CENTER
 10
0.0000000000001137
 20
0.0000000000002274
 30
0.0
 40
62.0
 50
110.22574000000481
 51
129.77431999999939
  0
ARC
  5
2B5C
  8
0
 10
0.0000000000001137
 20
0.0000000000002274
 30
0.0
 40
50.0
 50
123.87183999999471
 51
236.12816000000251
  0
ARC
  5
2B5D
  8
0
 10
-19.567359999999891
 20
63.032674000000043
 30
0.0
 40
5.0
 50
264.9999980000008
 51
287.24600700000042
  0
ARC
  5
2B5E
  8
0
 10
-23.340239999999881
 20
47.583970000000129
 30
0.0
 40
3.0
 50
244.99999999999909
 51
296.12822400000391
  0
ARC
  5
2B5F
  8
0
 10
-24.84045999999989
 20
46.076770000000117
 30
0.0
 40
1.0
 50
175.0000000000002
 51
244.99999999999909
  0
ARC
  5
2B60
  8
0
 10
-44.804289999999916
 20
48.462120000000141
 30
0.0
 40
5.0
 50
312.75404800000081
 51
334.99999999999329
  0
ARC
  5
2B61
  8
0
 10
-29.538879999999828
 20
44.005180000000109
 30
0.0
 40
3.0
 50
303.87182800000562
 51
355.00000009998928
  0
ARC
  5
2B62
  8
0
 10
0.0000000000001137
 20
0.0000000000002274
 30
0.0
 40
61.0
 50
132.7540500000006
 51
227.24594999999809
  0
ARC
  5
2B63
  8
0
 10
-31.000029999999921
 20
53.693560000000161
 30
0.0
 40
5.3000002000000004
 50
355.00000009998928
 51
155.70808830604881
  0
ARC
  5
2B64
  8
0
 10
0.0000000000001137
 20
0.0000000000002274
 30
0.0
 40
50.0
 50
7.5895400000164797
 51
116.1282100000026
  0
ARC
  5
2B65
  8
0
 10
0.0000000000001137
 20
0.0000000000002274
 30
0.0
 40
61.0
 50
15.65481999999267
 51
114.20249000000059
  0
ARC
  5
2B66
  8
0
 10
0.0000000000001137
 20
0.0000000000002274
 30
0.0
 40
53.0
 50
129.81029000000629
 51
230.1897099999949
  0
ARC
  5
2B67
  8
0
 10
-13.01721999999995
 20
54.466070000000173
 30
0.0
 40
3.0
 50
244.99999999999909
 51
283.4413449999995
  0
ARC
  5
2B68
  8
0
 10
0.0000000000001137
 20
0.0000000000002274
 30
0.0
 40
53.0
 50
16.13902999999954
 51
103.4413400000019
  0
ARC
  5
2B69
  8
0
 10
-34.573399999999872
 20
41.48110000000019
 30
0.0
 40
1.0
 50
309.81028400000372
 51
64.999999999999176
  0
ARC
  5
2B6A
  8
0
 10
53.793030000000037
 20
15.56627000000025
 30
0.0
 40
3.0
 50
196.1390399999905
 51
299.9999979999987
  0
LINE
  5
2B72
  8
0
 10
73.99998000000005
 20
15.00000000000022
 30
0.0
 11
60.662990000000043
 21
15.00000000000022
 31
0.0
  0
ARC
  5
2B73
  8
0
 10
73.999979999999823
 20
13.999999999999771
 30
0.0
 40
1.0
 50
0.0000000000260551
 51
89.999999999986969
  0
LINE
  5
2B74
  8
0
 10
71.99998000000005
 20
29.467959192431401
 30
0.0
 11
71.99998000000005
 21
39.428230000000212
 31
0.0
  0
LINE
  5
2B75
  8
0
 10
64.000000000000114
 20
29.467959192431401
 30
0.0
 11
64.000000000000114
 21
39.428230000000212
 31
0.0
  0
LINE
  5
2B79
  8
0
 10
62.250000000000121
 20
29.20001000000024
 30
0.0
 11
73.74998000000005
 21
29.20001000000024
 31
0.0
  0
ARC
  5
2B7A
  8
0
 10
62.250000000000121
 20
27.20001000000024
 30
0.0
 40
2.0
 50
90.0
 51
180.0
  0
ARC
  5
2B7B
  8
0
 10
73.74998000000005
 20
27.20001000000024
 30
0.0
 40
2.0
 50
0.0
 51
90.0
  0
TEXT
  5
2C98
  8
0
 10
35.469669336927382
 20
80.156241051705251
 30
0.0
 40
5.0
  1
13MHHM-3LW 3.5S
  0
CIRCLE
  5
2D7B
  8
0
 10
-31.000029999999921
 20
-53.693559999999707
 30
0.0
 40
2.5999998999999989
  0
CIRCLE
  5
2D7C
  8
0
 10
-31.000029999999921
 20
53.693560000000161
 30
0.0
 40
2.5999998999999989
  0
CIRCLE
  5
2D7D
  8
0
 10
68.000000000000114
 20
-9.4999999999997726
 30
0.0
 40
3.250000100000078
  0
VIEWPORT
  5
79
 67
     1
  8
0
 10
5.2499996395561617
 20
3.9999998836066761
 30
0.0
 40
15.015580297613511
 41
8.5939224089826052
 68
     1
 69
     1
1001
ACAD
1000
MVIEW
1002
{
1070
    16
1010
0.0
1020
0.0
1030
0.0
1010
0.0
1020
0.0
1030
1.0
1040
0.0
1040
8.5939224089826052
1040
5.2499996395561617
1040
3.9999998836066761
1040
50.0
1040
0.0
1040
0.0
1070
     0
1070
   100
1070
     1
1070
     1
1070
     0
1070
     0
1070
     0
1070
     0
1040
0.0
1040
0.0
1040
0.0
1040
10.0
1040
10.0
1040
10.0
1040
10.0
1070
     0
1002
{
1002
}
1002
}
1001
GENIUS_GENOBJ-N-SDF_13
1002
{
1000
OWNER
1000
GEN
1002
}
1001
GENIUS_GENODEF_13
1002
{
1000
HIER
1070
     0
1002
}
1002
{
1000
MANEDIT
1070
     0
1002
}
1002
{
1000
NOSEL
1070
     0
1002
}
1002
{
1000
BEHIND
1070
     0
1002
}
1002
{
1000
OTHER
1070
     0
1002
}
1002
{
1000
REACTOR
1002
}
1001
GENIUS_GENSCREG_15
1000
PF
1040
1.0
1000
DF
1040
1.0
1000
MIN
1011
-2.2577905092505972
1021
0.0
1031
-8.6388564287654657E+214
1021
-0.2969613208846251
1031
0.0
1000
MAX
1011
12.757789788362921
1021
0.0
1031
-8.6388564287654657E+214
1021
8.2969610880979801
1031
0.0
1000
FLAGS
1070
     4
  0
VIEWPORT
  5
7B
 67
     1
  8
0
 10
5.24999976158142
 20
3.99999976158142
 30
0.0
 40
8.3999996185302717
 41
6.3999996185302717
 68
     2
 69
     2
1001
ACAD
1000
MVIEW
1002
{
1070
    16
1010
0.0
1020
0.0
1030
0.0
1010
0.0
1020
0.0
1030
1.0
1040
0.0
1040
9.2590797717467002
1040
6.0
1040
4.5
1040
50.0
1040
0.0
1040
0.0
1070
     0
1070
   100
1070
     1
1070
     3
1070
     0
1070
     0
1070
     0
1070
     0
1040
0.0
1040
0.0
1040
0.0
1040
0.5
1040
0.5
1040
0.5
1040
0.5
1070
     0
1002
{
1002
}
1002
}
1001
GENIUS_GENODEF_13
1002
{
1000
HIER
1070
     0
1002
}
1002
{
1000
MANEDIT
1070
     0
1002
}
1002
{
1000
NOSEL
1070
     0
1002
}
1002
{
1000
BEHIND
1070
     0
1002
}
1002
{
1000
OTHER
1070
     0
1002
}
1002
{
1000
REACTOR
1002
}
1001
GENIUS_GENOBJ-N-SDF_13
1002
{
1000
OWNER
1000
GEN
1002
}
1001
GENIUS_GENSCREG_15
1000
PF
1040
0.0
1000
DF
1040
0.0
1000
MIN
1011
1.049999952316284
1021
0.0
1031
-8.6388564287654657E+214
1021
0.7999999523162842
1031
0.0
1000
MAX
1011
9.4499995708465558
1021
0.0
1031
-8.6388564287654657E+214
1021
7.1999995708465558
1031
0.0
1000
FLAGS
1070
     4
  0
ENDSEC
  0
EOF
