  0
SECTION
  2
HEADER
  9
$ACADVER
  1
AC1009
  9
$INSBASE
 10
0.0
 20
0.0
 30
0.0
  9
$EXTMIN
 10
-67.587120000000013
 20
-56.302144573180378
 30
0.0
  9
$EXTMAX
 10
137.5968891209873
 20
80.312893595281139
 30
0.0
  9
$LIMMIN
 10
0.0
 20
0.0
  9
$LIMMAX
 10
12.0
 20
9.0
  9
$ORTHOMODE
 70
     0
  9
$REGENMODE
 70
     1
  9
$FILLMODE
 70
     1
  9
$QTEXTMODE
 70
     0
  9
$MIRRTEXT
 70
     1
  9
$DRAGMODE
 70
     2
  9
$LTSCALE
 40
1.0
  9
$OSMODE
 70
    37
  9
$ATTMODE
 70
     1
  9
$TEXTSIZE
 40
0.2
  9
$TRACEWID
 40
0.05
  9
$TEXTSTYLE
  7
STANDARD
  9
$CLAYER
  8
0
  9
$CELTYPE
  6
BYLAYER
  9
$CECOLOR
 62
   256
  9
$DIMSCALE
 40
1.0
  9
$DIMASZ
 40
0.18
  9
$DIMEXO
 40
0.0625
  9
$DIMDLI
 40
0.38
  9
$DIMRND
 40
0.0
  9
$DIMDLE
 40
0.0
  9
$DIMEXE
 40
0.18
  9
$DIMTP
 40
0.0
  9
$DIMTM
 40
0.0
  9
$DIMTXT
 40
0.18
  9
$DIMCEN
 40
0.09
  9
$DIMTSZ
 40
0.0
  9
$DIMTOL
 70
     0
  9
$DIMLIM
 70
     0
  9
$DIMTIH
 70
     1
  9
$DIMTOH
 70
     1
  9
$DIMSE1
 70
     0
  9
$DIMSE2
 70
     0
  9
$DIMTAD
 70
     0
  9
$DIMZIN
 70
     0
  9
$DIMBLK
  1

  9
$DIMASO
 70
     1
  9
$DIMSHO
 70
     1
  9
$DIMPOST
  1

  9
$DIMAPOST
  1

  9
$DIMALT
 70
     0
  9
$DIMALTD
 70
     2
  9
$DIMALTF
 40
25.399999999999999
  9
$DIMLFAC
 40
1.0
  9
$DIMTOFL
 70
     0
  9
$DIMTVP
 40
0.0
  9
$DIMTIX
 70
     0
  9
$DIMSOXD
 70
     0
  9
$DIMSAH
 70
     0
  9
$DIMBLK1
  1

  9
$DIMBLK2
  1

  9
$DIMSTYLE
  2
STANDARD
  9
$DIMCLRD
 70
     0
  9
$DIMCLRE
 70
     0
  9
$DIMCLRT
 70
     0
  9
$DIMTFAC
 40
1.0
  9
$DIMGAP
 40
0.09
  9
$LUNITS
 70
     2
  9
$LUPREC
 70
     4
  9
$SKETCHINC
 40
0.1
  9
$FILLETRAD
 40
1.0
  9
$AUNITS
 70
     0
  9
$AUPREC
 70
     0
  9
$MENU
  1
.
  9
$ELEVATION
 40
0.0
  9
$PELEVATION
 40
0.0
  9
$THICKNESS
 40
0.0
  9
$LIMCHECK
 70
     0
  9
$BLIPMODE
 70
     0
  9
$CHAMFERA
 40
0.5
  9
$CHAMFERB
 40
0.5
  9
$SKPOLY
 70
     0
  9
$TDCREATE
 40
2451955.1727028699
  9
$TDUPDATE
 40
2454732.6788921412
  9
$TDINDWG
 40
0.1004672917
  9
$TDUSRTIMER
 40
0.1004671181
  9
$USRTIMER
 70
     1
  9
$ANGBASE
 50
0.0
  9
$ANGDIR
 70
     0
  9
$PDMODE
 70
     0
  9
$PDSIZE
 40
0.0
  9
$PLINEWID
 40
0.0
  9
$COORDS
 70
     1
  9
$SPLFRAME
 70
     0
  9
$SPLINETYPE
 70
     6
  9
$SPLINESEGS
 70
     8
  9
$ATTDIA
 70
     0
  9
$ATTREQ
 70
     1
  9
$HANDLING
 70
 22529
  9
$HANDSEED
  5
2FDA
  9
$SURFTAB1
 70
     6
  9
$SURFTAB2
 70
     6
  9
$SURFTYPE
 70
     6
  9
$SURFU
 70
     6
  9
$SURFV
 70
     6
  9
$UCSNAME
  2

  9
$UCSORG
 10
0.0
 20
0.0
 30
0.0
  9
$UCSXDIR
 10
1.0
 20
0.0
 30
0.0
  9
$UCSYDIR
 10
0.0
 20
1.0
 30
0.0
  9
$PUCSNAME
  2

  9
$PUCSORG
 10
0.0
 20
0.0
 30
0.0
  9
$PUCSXDIR
 10
1.0
 20
0.0
 30
0.0
  9
$PUCSYDIR
 10
0.0
 20
1.0
 30
0.0
  9
$USERI1
 70
     0
  9
$USERI2
 70
     0
  9
$USERI3
 70
     0
  9
$USERI4
 70
     0
  9
$USERI5
 70
     0
  9
$USERR1
 40
0.0
  9
$USERR2
 40
0.0
  9
$USERR3
 40
0.0
  9
$USERR4
 40
0.0
  9
$USERR5
 40
0.0
  9
$WORLDVIEW
 70
     1
  9
$SHADEDGE
 70
     3
  9
$SHADEDIF
 70
    70
  9
$TILEMODE
 70
     1
  9
$MAXACTVP
 70
    48
  9
$PLIMCHECK
 70
     0
  9
$PEXTMIN
 10
1.049636599258096
 20
0.7996597240971113
 30
-0.0015258207003583
  9
$PEXTMAX
 10
9.4503627310769716
 20
7.2003400826974584
 30
0.0000000349246037
  9
$PLIMMIN
 10
-0.2500002402958907
 20
-0.2499999962453767
  9
$PLIMMAX
 10
10.74999951940821
 20
8.2499997634587316
  9
$UNITMODE
 70
     0
  9
$VISRETAIN
 70
     1
  9
$PLINEGEN
 70
     0
  9
$PSLTSCALE
 70
     1
  0
ENDSEC
  0
SECTION
  2
TABLES
  0
TABLE
  2
VPORT
 70
     2
  0
VPORT
  2
*ACTIVE
 70
     0
 10
0.0
 20
0.0
 11
1.0
 21
1.0
 12
35.006927411483133
 22
12.002998257145009
 13
0.0
 23
0.0
 14
0.5
 24
0.5
 15
0.5
 25
0.5
 16
0.0
 26
0.0
 36
1.0
 17
0.0
 27
0.0
 37
0.0
 40
137.6934351999717
 41
1.531806615776081
 42
50.0
 43
0.0
 44
0.0
 50
0.0
 51
0.0
 71
     0
 72
   100
 73
     1
 74
     3
 75
     0
 76
     0
 77
     0
 78
     0
  0
ENDTAB
  0
TABLE
  2
LTYPE
 70
     2
  0
LTYPE
  2
CONTINUOUS
 70
     0
  3
Solid line
 72
    65
 73
     0
 40
0.0
  0
LTYPE
  2
CENTER
 70
     0
  3
__ . __
 72
    65
 73
     4
 40
7.0
 49
4.0
 49
-1.0
 49
1.0
 49
-1.0
  0
ENDTAB
  0
TABLE
  2
LAYER
 70
     1
  0
LAYER
  2
0
 70
     0
 62
     7
  6
CONTINUOUS
  0
ENDTAB
  0
TABLE
  2
STYLE
 70
     1
  0
STYLE
  2
STANDARD
 70
     0
 40
0.0
 41
1.0
 50
0.0
 71
     0
 42
0.2
  3
txt
  4

  0
ENDTAB
  0
TABLE
  2
VIEW
 70
     0
  0
ENDTAB
  0
TABLE
  2
UCS
 70
     0
  0
ENDTAB
  0
TABLE
  2
APPID
 70
    19
  0
APPID
  2
ACAD
 70
     0
  0
APPID
  2
GENIUS_GENODEF_13
 70
     0
  0
APPID
  2
ACAD_DSTYLE_DIMARC_LENGTH_
 70
     0
  0
APPID
  2
ACAD_DSTYLE_DIMJOGGED_JOGA
 70
     0
  0
APPID
  2
GENIUS_GENOBJ-N-FIL_13
 70
     0
  0
APPID
  2
ACAD_MLEADERVER
 70
     0
  0
APPID
  2
MCAD_NO_VIS
 70
     0
  0
APPID
  2
ACAD_TEMP_GRAPHIC
 70
     0
  0
APPID
  2
AD_DRAW
 70
     0
  0
APPID
  2
ACATTRIBSERVICES
 70
     0
  0
APPID
  2
DESIGNERASSEMBLIES
 70
     0
  0
APPID
  2
ACADM_DIM_EDIT
 70
     0
  0
APPID
  2
AMDT_DM_ADJ
 70
     0
  0
APPID
  2
GENIUS_GENSCREG_15
 70
     0
  0
APPID
  2
GENIUS_GENOBJ-N-SDF_13
 70
     0
  0
APPID
  2
ACAD_DSTYLE_DIM_LINETYPE
 70
     0
  0
APPID
  2
ACAD_DSTYLE_DIM_EXT1_LINETYPE
 70
     0
  0
APPID
  2
ACAD_DSTYLE_DIM_EXT2_LINETYPE
 70
     0
  0
APPID
  2
ACAD_EXEMPT_FROM_CAD_STANDARDS
 70
     0
  0
ENDTAB
  0
TABLE
  2
DIMSTYLE
 70
     1
  0
DIMSTYLE
  2
STANDARD
 70
     0
  3

  4

  5

  6

  7

 40
1.0
 41
0.18
 42
0.0625
 43
0.38
 44
0.18
 45
0.0
 46
0.0
 47
0.0
 48
0.0
140
0.18
141
0.09
142
0.0
143
25.399999999999999
144
1.0
145
0.0
146
1.0
147
0.09
 71
     0
 72
     0
 73
     1
 74
     1
 75
     0
 76
     0
 77
     0
 78
     0
170
     0
171
     2
172
     0
173
     0
174
     0
175
     0
176
     0
177
     0
178
     0
  0
ENDTAB
  0
ENDSEC
  0
SECTION
  2
BLOCKS
  0
BLOCK
  8
0
  2
$MODEL_SPACE
 70
     0
 10
0.0
 20
0.0
 30
0.0
  3
$MODEL_SPACE
  1

  0
ENDBLK
  5
21
  8
0
  0
BLOCK
 67
     1
  8
0
  2
$PAPER_SPACE
 70
     0
 10
0.0
 20
0.0
 30
0.0
  3
$PAPER_SPACE
  1

  0
ENDBLK
  5
60
 67
     1
  8
0
  0
ENDSEC
  0
SECTION
  2
ENTITIES
  0
LINE
  5
1B84
  8
0
  6
CENTER
 10
137.5968891209873
 20
0.0
 30
0.0
 11
100.5324291209873
 21
0.0
 31
0.0
  0
LINE
  5
1B87
  8
0
 10
60.5
 20
-14.0
 30
0.0
 11
60.5
 21
-5.0
 31
0.0
  0
LINE
  5
1B88
  8
0
 10
60.5
 20
5.0
 30
0.0
 11
60.5
 21
14.0
 31
0.0
  0
LINE
  5
1B89
  8
0
  6
CENTER
 10
0.0
 20
0.0
 30
0.0
 11
-29.64276000000007
 21
-51.342770000000201
 31
0.0
  0
LINE
  5
1B8C
  8
0
 10
57.5
 20
-4.0
 30
0.0
 11
57.5
 21
4.0
 31
0.0
  0
LINE
  5
1B8E
  8
0
 10
49.5
 20
-4.0
 30
0.0
 11
49.5
 21
4.0
 31
0.0
  0
LINE
  5
1B90
  8
0
 10
57.5
 20
39.428229999999978
 30
0.0
 11
49.5
 21
39.428229999999978
 31
0.0
  0
LINE
  5
1B95
  8
0
 10
48.5
 20
43.000029999999697
 30
0.0
 11
48.5
 21
31.20001000000002
 31
0.0
  0
LINE
  5
1B96
  8
0
 10
58.5
 20
43.000029999999697
 30
0.0
 11
58.5
 21
31.20001000000002
 31
0.0
  0
LINE
  5
1B97
  8
0
 10
45.75
 20
27.20001000000002
 30
0.0
 11
45.75
 21
17.900029999999781
 31
0.0
  0
LINE
  5
1B99
  8
0
 10
61.25
 20
27.20001000000002
 30
0.0
 11
61.25
 21
17.900029999999781
 31
0.0
  0
LINE
  5
1B9A
  8
0
 10
67.439329999999927
 20
52.000029999999697
 30
0.0
 11
39.560659999999977
 21
52.000029999999697
 31
0.0
  0
LINE
  5
1B9D
  8
0
 10
59.5
 20
4.0
 30
0.0
 11
38.112479999999998
 21
4.0
 31
0.0
  0
LINE
  5
1B9F
  8
0
  6
CENTER
 10
118.4340691209873
 20
55.703909999999723
 30
0.0
 11
118.4340691209873
 21
-51.535640000000058
 31
0.0
  0
LINE
  5
1BA0
  8
0
  6
CENTER
 10
-67.587120000000013
 20
0.0
 30
0.0
 11
67.587120000000013
 21
0.0
 31
0.0
  0
LINE
  5
1BA1
  8
0
 10
126.9340691209873
 20
38.618379999999888
 30
0.0
 11
126.9340691209873
 21
-6.3999900000003427
 31
0.0
  0
LINE
  5
1BA2
  8
0
 10
109.9340691209873
 20
38.618379999999888
 30
0.0
 11
109.9340691209873
 21
-6.2662900000000263
 31
0.0
  0
LINE
  5
1BA3
  8
0
 10
122.4884891209873
 20
-46.749999999999993
 30
0.0
 11
114.3796591209874
 21
-46.749999999999993
 31
0.0
  0
LINE
  5
1BA7
  8
0
 10
114.1840691209873
 20
-4.0
 30
0.0
 11
110.1840691209873
 21
-4.0
 31
0.0
  0
LINE
  5
1BA8
  8
0
  6
CENTER
 10
129.4741391209873
 20
-9.5
 30
0.0
 11
105.1695191209873
 21
-9.5
 31
0.0
  0
LINE
  5
1BA9
  8
0
 10
122.4884891209873
 20
46.750029999999697
 30
0.0
 11
121.2840791209873
 21
46.750029999999697
 31
0.0
  0
LINE
  5
1BAA
  8
0
 10
59.5
 20
-4.0
 30
0.0
 11
38.112479999999998
 21
-4.0
 31
0.0
  0
LINE
  5
1BAB
  8
0
 10
59.5
 20
-15.0
 30
0.0
 11
45.689849999999971
 21
-15.0
 31
0.0
  0
LINE
  5
1BAC
  8
0
 10
109.9681391209874
 20
38.877179999999953
 30
0.0
 11
111.48185912098729
 21
44.526459999999581
 31
0.0
  0
LINE
  5
1BAD
  8
0
 10
126.8999891209873
 20
38.8771899999997
 30
0.0
 11
125.38626912098729
 21
44.52646999999979
 31
0.0
  0
LINE
  5
1BAE
  8
0
 10
125.3862791209873
 20
-44.526450000000288
 30
0.0
 11
126.90000912098731
 21
-38.877170000000199
 31
0.0
  0
LINE
  5
1BAF
  8
0
 10
112.07765912098731
 20
-15.0
 30
0.0
 11
112.07765912098731
 21
-43.383460000000007
 31
0.0
  0
LINE
  5
1BB0
  8
0
 10
124.7904891209873
 20
-15.0
 30
0.0
 11
124.7904891209873
 21
-43.211230000000342
 31
0.0
  0
LINE
  5
1BB2
  8
0
 10
113.9341891209874
 20
11.284999999999849
 30
0.0
 11
110.9575591209874
 21
14.6613199999997
 31
0.0
  0
LINE
  5
1BB3
  8
0
 10
122.93394912098729
 20
11.285030000000001
 30
0.0
 11
125.9105691209873
 21
14.66134999999985
 31
0.0
  0
LINE
  5
1BB4
  8
0
 10
116.5840991209873
 20
52.0
 30
0.0
 11
120.2840791209873
 21
52.0
 31
0.0
  0
LINE
  5
1BB5
  8
0
 10
115.5840991209873
 20
51.0
 30
0.0
 11
115.5840991209873
 21
31.20001000000002
 31
0.0
  0
LINE
  5
1BB6
  8
0
 10
110.20744912098731
 20
15.0
 30
0.0
 11
110.1840691209873
 21
15.0
 31
0.0
  0
LINE
  5
1BB7
  8
0
 10
114.1840691209873
 20
4.0
 30
0.0
 11
110.1840691209873
 21
4.0
 31
0.0
  0
LINE
  5
1BB8
  8
0
 10
114.1840691209873
 20
-4.0
 30
0.0
 11
114.1840691209873
 21
-15.0
 31
0.0
  0
LINE
  5
1BB9
  8
0
 10
114.1840691209873
 20
-15.0
 30
0.0
 11
110.1840691209873
 21
-15.0
 31
0.0
  0
LINE
  5
1BBA
  8
0
 10
114.1840691209873
 20
10.62368999999989
 30
0.0
 11
114.1840691209873
 21
4.0
 31
0.0
  0
LINE
  5
1BBF
  8
0
 10
114.4340691209873
 20
12.0
 30
0.0
 11
114.4340691209873
 21
-14.428190000000081
 31
0.0
  0
LINE
  5
1BC0
  8
0
 10
114.4340691209873
 20
39.428229999999978
 30
0.0
 11
114.4340691209873
 21
29.389619999999919
 31
0.0
  0
LINE
  5
1BC1
  8
0
 10
110.6840691209873
 20
27.20001000000002
 30
0.0
 11
110.6840691209873
 21
17.900000000000091
 31
0.0
  0
LINE
  5
1BC2
  8
0
 10
112.6840691209873
 20
29.20001000000002
 30
0.0
 11
124.1840691209873
 21
29.20001000000002
 31
0.0
  0
LINE
  5
1BC3
  8
0
 10
113.4088991209873
 20
12.0
 30
0.0
 11
123.4592791209873
 21
12.0
 31
0.0
  0
LINE
  5
1BC4
  8
0
 10
126.6840691209873
 20
-12.5999999999999
 30
0.0
 11
127.1840691209873
 21
-12.5999999999999
 31
0.0
  0
LINE
  5
1BC5
  8
0
 10
126.6840691209873
 20
-6.3999900000003427
 30
0.0
 11
127.1840691209873
 21
-6.3999900000003427
 31
0.0
  0
LINE
  5
1BC7
  8
0
 10
121.2840791209873
 20
51.0
 30
0.0
 11
121.2840791209873
 21
31.20001000000002
 31
0.0
  0
LINE
  5
1BC8
  8
0
 10
126.6606991209873
 20
15.0
 30
0.0
 11
126.6840691209873
 21
15.0
 31
0.0
  0
LINE
  5
1BC9
  8
0
 10
122.6840691209873
 20
4.0
 30
0.0
 11
126.6840691209873
 21
4.0
 31
0.0
  0
LINE
  5
1BCA
  8
0
 10
122.6840691209873
 20
-4.0
 30
0.0
 11
122.6840691209873
 21
-15.0
 31
0.0
  0
LINE
  5
1BCB
  8
0
 10
122.6840691209873
 20
-4.0
 30
0.0
 11
126.6840691209873
 21
-4.0
 31
0.0
  0
LINE
  5
1BCC
  8
0
 10
122.6840691209873
 20
-15.0
 30
0.0
 11
126.6840691209873
 21
-15.0
 31
0.0
  0
LINE
  5
1BCD
  8
0
 10
122.6840691209873
 20
10.62368999999989
 30
0.0
 11
122.6840691209873
 21
4.0
 31
0.0
  0
LINE
  5
1BD2
  8
0
 10
122.4340691209873
 20
12.0
 30
0.0
 11
122.4340691209873
 21
-14.428190000000081
 31
0.0
  0
LINE
  5
1BD3
  8
0
 10
122.4340691209873
 20
39.428229999999978
 30
0.0
 11
122.4340691209873
 21
29.389619999999919
 31
0.0
  0
LINE
  5
1BD4
  8
0
 10
126.1840691209873
 20
27.20001000000002
 30
0.0
 11
126.1840691209873
 21
17.900000000000091
 31
0.0
  0
LINE
  5
1BD7
  8
0
 10
124.7904891209873
 20
29.00736999999981
 30
0.0
 11
124.7904891209873
 21
44.213119999999883
 31
0.0
  0
LINE
  5
1BD8
  8
0
 10
112.07765912098731
 20
29.00736999999981
 30
0.0
 11
112.07765912098731
 21
44.062719999999892
 31
0.0
  0
LINE
  5
1BD9
  8
0
 10
45.689849999999971
 20
15.0
 30
0.0
 11
59.5
 21
15.0
 31
0.0
  0
LINE
  5
1BDA
  8
0
  6
CENTER
 10
0.0
 20
-53.053529999999682
 30
0.0
 11
0.0
 21
53.053529999999682
 31
0.0
  0
LINE
  5
1BDC
  8
0
 10
127.6840691209873
 20
-6.8999900000003427
 30
0.0
 11
127.6840691209873
 21
-12.099999999999911
 31
0.0
  0
LINE
  5
1BDD
  8
0
 10
127.9340691209873
 20
-34.976060000000409
 30
0.0
 11
127.9340691209873
 21
-40.176069999999982
 31
0.0
  0
LINE
  5
1BDE
  8
0
 10
126.4340691209873
 20
-40.676069999999967
 30
0.0
 11
127.4340691209873
 21
-40.676069999999967
 31
0.0
  0
LINE
  5
1BDF
  8
0
 10
126.9340691209873
 20
-34.476060000000409
 30
0.0
 11
127.4340691209873
 21
-34.476060000000409
 31
0.0
  0
LINE
  5
1BE0
  8
0
 10
127.9340691209873
 20
34.976059999999961
 30
0.0
 11
127.9340691209873
 21
40.176069999999982
 31
0.0
  0
LINE
  5
1BE1
  8
0
  6
CENTER
 10
129.4741391209873
 20
37.576069999999611
 30
0.0
 11
105.1695191209873
 21
37.576069999999611
 31
0.0
  0
LINE
  5
1BE2
  8
0
 10
126.9340691209873
 20
34.476059999999961
 30
0.0
 11
127.4340691209873
 21
34.476059999999961
 31
0.0
  0
LINE
  5
1BE3
  8
0
 10
126.4179891209873
 20
40.676069999999967
 30
0.0
 11
127.4340691209873
 21
40.676069999999967
 31
0.0
  0
LINE
  5
1BE4
  8
0
 10
110.1840691209873
 20
15.0
 30
0.0
 11
110.1840691209873
 21
-15.0
 31
0.0
  0
LINE
  5
1BE5
  8
0
 10
126.6840691209873
 20
15.0
 30
0.0
 11
126.6840691209873
 21
-15.0
 31
0.0
  0
LINE
  5
1BE7
  8
0
 10
109.9340691209873
 20
-12.733700000000219
 30
0.0
 11
109.9340691209873
 21
-38.618339999999989
 31
0.0
  0
LINE
  5
1BE8
  8
0
 10
126.9340691209873
 20
-12.5999999999999
 30
0.0
 11
126.9340691209873
 21
-38.618339999999989
 31
0.0
  0
LINE
  5
1BE9
  8
0
 10
109.9340691209873
 20
-40.826059999999863
 30
0.0
 11
110.4340691209873
 21
-40.826059999999863
 31
0.0
  0
LINE
  5
1BEA
  8
0
 10
109.9340691209873
 20
40.826069999999618
 30
0.0
 11
110.4340691209873
 21
40.826069999999618
 31
0.0
  0
LINE
  5
1BEB
  8
0
 10
110.9340691209873
 20
-42.57605999999987
 30
0.0
 11
110.9592691209874
 21
-42.57605999999987
 31
0.0
  0
LINE
  5
1BEC
  8
0
 10
109.9340691209873
 20
-40.826059999999863
 30
0.0
 11
109.9340691209873
 21
-41.57605999999987
 31
0.0
  0
LINE
  5
1BED
  8
0
 10
126.9340691209873
 20
-40.676069999999967
 30
0.0
 11
126.9340691209873
 21
-41.57605999999987
 31
0.0
  0
LINE
  5
1BEE
  8
0
 10
111.4818791209873
 20
-44.526450000000288
 30
0.0
 11
109.96814912098741
 21
-38.877150000000249
 31
0.0
  0
LINE
  5
1BEF
  8
0
 10
109.9340691209873
 20
40.826069999999618
 30
0.0
 11
109.9340691209873
 21
41.576069999999618
 31
0.0
  0
LINE
  5
1BF0
  8
0
 10
126.9340691209873
 20
40.676069999999967
 30
0.0
 11
126.9340691209873
 21
41.576069999999618
 31
0.0
  0
LINE
  5
1BF1
  8
0
  6
CENTER
 10
42.935209999999977
 20
-9.5
 30
0.0
 11
66.471189999999979
 21
-9.5
 31
0.0
  0
LINE
  5
1BF3
  8
0
  6
CENTER
 10
129.4741391209873
 20
-37.57605999999987
 30
0.0
 11
105.1695191209873
 21
-37.57605999999987
 31
0.0
  0
LINE
  5
1BFB
  8
0
 10
-17.430250000000001
 20
-32.499549999999992
 30
0.0
 11
-18.138079999999938
 21
-32.82961000000023
 31
0.0
  0
LINE
  5
1BFD
  8
0
 10
-18.711639999999981
 20
-33.823060000000169
 30
0.0
 11
-17.892080000000071
 21
-43.190700000000099
 31
0.0
  0
LINE
  5
1BFE
  8
0
 10
-19.430370000000028
 20
-31.344760000000399
 30
0.0
 11
-18.595209999999948
 21
-40.89077000000043
 31
0.0
  0
LINE
  5
1BFF
  8
0
 10
-33.75719000000003
 20
-32.701250000000073
 30
0.0
 11
-28.678470000000061
 21
-43.592600000000402
 31
0.0
  0
LINE
  5
1C01
  8
0
 10
-11.44162000000005
 20
-45.58516000000008
 30
0.0
 11
-23.413099999999979
 21
-46.632530000000322
 31
0.0
  0
LINE
  5
1C02
  8
0
 10
-5.821329999999989
 20
-38.782010000000348
 30
0.0
 11
-16.476130000000008
 21
-43.750430000000051
 31
0.0
  0
LINE
  5
1C03
  8
0
 10
-27.687740000000069
 20
-29.010960000000068
 30
0.0
 11
-34.086610000000057
 21
-31.994799999999941
 31
0.0
  0
LINE
  5
1C04
  8
0
 10
40.336639999999989
 20
-12.72432000000026
 30
0.0
 11
44.278209999999937
 21
-14.999990000000251
 31
0.0
  0
LINE
  5
1C05
  8
0
 10
115.5840991209873
 20
46.750029999999697
 30
0.0
 11
114.3796591209874
 21
46.750029999999697
 31
0.0
  0
ARC
  5
1C07
  8
0
 10
59.5
 20
-14.0
 30
0.0
 40
1.0
 50
270.0
 51
0.0
  0
ARC
  5
1C08
  8
0
 10
59.5
 20
-5.0
 30
0.0
 40
1.0
 50
0.0
 51
90.00000299999769
  0
ARC
  5
1C09
  8
0
 10
59.5
 20
5.0
 30
0.0
 40
1.0
 50
270.0
 51
0.0
  0
ARC
  5
1C0C
  8
0
 10
53.5
 20
32.50002999999969
 30
0.0
 40
8.0
 50
59.99999500000029
 51
119.99999999999579
  0
ARC
  5
1C0D
  8
0
 10
56.5
 20
31.20001000000002
 30
0.0
 40
2.0
 50
299.99999999999591
 51
0.0000086514148811
  0
ARC
  5
1C0E
  8
0
 10
50.5
 20
31.20001000000002
 30
0.0
 40
2.0
 50
180.000010000001
 51
240.00001000000009
  0
ARC
  5
1C0F
  8
0
 10
53.5
 20
43.000029999999697
 30
0.0
 40
5.0
 50
359.999989999999
 51
180.000010000001
  0
ARC
  5
1C10
  8
0
 10
34.5
 20
48.000029999999697
 30
0.0
 40
35.0
 50
324.7524900000069
 51
3.4745943000042439
  0
ARC
  5
1C11
  8
0
 10
71.25
 20
22.030089999999738
 30
0.0
 40
10.0
 50
144.75250000000301
 51
180.000010000001
  0
ARC
  5
1C12
  8
0
 10
35.75
 20
22.030089999999738
 30
0.0
 40
10.0
 50
359.999989999999
 51
35.247502000003728
  0
ARC
  5
1C13
  8
0
 10
72.5
 20
48.000029999999697
 30
0.0
 40
35.0
 50
176.5254100000094
 51
215.24750999999301
  0
ARC
  5
1C14
  8
0
 10
53.5
 20
17.900029999999781
 30
0.0
 40
7.75
 50
180.000010000001
 51
201.97471714183729
  0
ARC
  5
1C15
  8
0
 10
53.5
 20
17.900029999999781
 30
0.0
 40
7.75
 50
333.16897343824621
 51
359.999989999999
  0
ARC
  5
1C16
  8
0
 10
53.5
 20
-9.5
 30
0.0
 40
6.0
 50
246.44354000000601
 51
293.55646430910298
  0
ARC
  5
1C19
  8
0
 10
67.439329999999927
 20
50.000029999999697
 30
0.0
 40
2.0
 50
3.4745943000042439
 51
89.999996000000905
  0
ARC
  5
1C1A
  8
0
 10
39.560659999999977
 20
50.000029999999697
 30
0.0
 40
2.0
 50
89.999996000000905
 51
176.5254100000094
  0
ARC
  5
1C1B
  8
0
 10
110.9340691209873
 20
38.618379999999888
 30
0.0
 40
1.0
 50
164.9999899999853
 51
180.000010000001
  0
ARC
  5
1C1C
  8
0
 10
125.9340691209873
 20
38.618379999999888
 30
0.0
 40
1.0
 50
0.0
 51
14.999999999994451
  0
ARC
  5
1C1D
  8
0
 10
110.9340691209873
 20
-38.618339999999989
 30
0.0
 40
1.0
 50
179.99998999999889
 51
194.9999999999944
  0
ARC
  5
1C1E
  8
0
 10
125.9340691209873
 20
-38.618339999999989
 30
0.0
 40
1.0
 50
345.00000000000551
 51
0.0
  0
ARC
  5
1C1F
  8
0
 10
114.3796591209874
 20
43.750029999999697
 30
0.0
 40
3.0
 50
90.00000299999769
 51
164.9999899999853
  0
ARC
  5
1C20
  8
0
 10
122.4884891209873
 20
43.750029999999697
 30
0.0
 40
3.0
 50
14.999999999994451
 51
90.00000299999769
  0
ARC
  5
1C21
  8
0
 10
114.3796591209874
 20
-43.75
 30
0.0
 40
3.0
 50
195.0000100000147
 51
270.0
  0
ARC
  5
1C22
  8
0
 10
122.4884891209873
 20
-43.75
 30
0.0
 40
3.0
 50
270.0
 51
345.00000000000551
  0
ARC
  5
1C23
  8
0
 10
113.1840691209873
 20
10.62368999999989
 30
0.0
 40
1.0
 50
0.0
 51
41.399999999999501
  0
ARC
  5
1C24
  8
0
 10
123.6840691209873
 20
10.62368999999989
 30
0.0
 40
1.0
 50
138.60000000000039
 51
180.000010000001
  0
ARC
  5
1C25
  8
0
 10
110.20744912098731
 20
14.0
 30
0.0
 40
1.0
 50
41.399999999999501
 51
90.00000299999769
  0
ARC
  5
1C26
  8
0
 10
112.6840691209873
 20
27.20001000000002
 30
0.0
 40
2.0
 50
89.999996000000905
 51
180.000010000001
  0
ARC
  5
1C27
  8
0
 10
118.4340691209873
 20
32.5
 30
0.0
 40
8.0
 50
110.87006999999809
 51
119.99999999999579
  0
ARC
  5
1C28
  8
0
 10
118.4340691209873
 20
17.900000000000091
 30
0.0
 40
7.75
 50
180.000010000001
 51
229.57809999999461
  0
ARC
  5
1C29
  8
0
 10
118.4340691209873
 20
-7.5
 30
0.0
 40
8.0
 50
240.00000000000401
 51
299.99999999999591
  0
ARC
  5
1C2A
  8
0
 10
113.5840991209873
 20
31.20001000000002
 30
0.0
 40
2.0
 50
270.0
 51
0.0000050089374039
  0
ARC
  5
1C2B
  8
0
 10
116.5840991209873
 20
51.0
 30
0.0
 40
1.0
 50
89.999996000000905
 51
180.000010000001
  0
ARC
  5
1C2D
  8
0
 10
120.2840791209873
 20
51.0
 30
0.0
 40
1.0
 50
0.0
 51
90.00000299999769
  0
ARC
  5
1C2E
  8
0
 10
123.2840791209873
 20
31.20001000000002
 30
0.0
 40
2.0
 50
179.99998999999889
 51
270.0
  0
ARC
  5
1C2F
  8
0
 10
124.1840691209873
 20
27.20001000000002
 30
0.0
 40
2.0
 50
0.0
 51
90.00000299999769
  0
ARC
  5
1C30
  8
0
 10
118.4340691209873
 20
32.5
 30
0.0
 40
8.0
 50
60.000002000001302
 51
69.129929000002221
  0
ARC
  5
1C31
  8
0
 10
118.4340691209873
 20
17.900000000000091
 30
0.0
 40
7.75
 50
310.42192000000978
 51
0.0
  0
ARC
  5
1C32
  8
0
 10
127.1840691209873
 20
-12.099999999999911
 30
0.0
 40
0.5
 50
270.0
 51
0.0
  0
ARC
  5
1C33
  8
0
 10
127.1840691209873
 20
-6.8999900000003427
 30
0.0
 40
0.5
 50
0.0
 51
90.00000299999769
  0
ARC
  5
1C34
  8
0
 10
126.6606991209873
 20
14.0
 30
0.0
 40
1.0
 50
90.00000299999769
 51
138.60000000000039
  0
ARC
  5
1C35
  8
0
 10
127.4340691209873
 20
-34.976060000000409
 30
0.0
 40
0.5
 50
0.0
 51
90.00000299999769
  0
ARC
  5
1C36
  8
0
 10
127.4340691209873
 20
-40.176069999999982
 30
0.0
 40
0.5
 50
270.0
 51
0.0
  0
ARC
  5
1C37
  8
0
 10
127.4340691209873
 20
34.976059999999961
 30
0.0
 40
0.5
 50
270.0
 51
0.0
  0
ARC
  5
1C38
  8
0
 10
127.4340691209873
 20
40.176069999999982
 30
0.0
 40
0.5
 50
0.0
 51
90.00000299999769
  0
ARC
  5
1C39
  8
0
 10
110.9340691209873
 20
-41.57605999999987
 30
0.0
 40
1.0
 50
179.99998999999889
 51
270.0
  0
ARC
  5
1C3A
  8
0
 10
125.9340691209873
 20
-41.57605999999987
 30
0.0
 40
1.0
 50
270.0
 51
0.0
  0
ARC
  5
1C3B
  8
0
 10
110.9340691209873
 20
41.576069999999618
 30
0.0
 40
1.0
 50
90.00000299999769
 51
180.000010000001
  0
ARC
  5
1C3C
  8
0
 10
125.9340691209873
 20
41.576069999999618
 30
0.0
 40
1.0
 50
0.0
 51
90.00000299999769
  0
ARC
  5
1C41
  8
0
 10
0.0
 20
0.0
 30
0.0
 40
47.75
 50
225.71042999999511
 51
253.2306899999962
  0
ARC
  5
1C4B
  8
0
 10
-23.875029999999921
 20
-41.352699999999913
 30
0.0
 40
5.3000002000000004
 50
205.00018755124461
 51
5.000007499996971
  0
ARC
  5
1C4D
  8
0
 10
-11.00583000000006
 20
-50.56614000000036
 30
0.0
 40
5.0
 50
77.720961999997712
 51
95.000001999999157
  0
ARC
  5
1C4F
  8
0
 10
-22.418949999999992
 20
-31.606229999999861
 30
0.0
 40
3.0
 50
4.999999899984565
 51
54.65115099999754
  0
ARC
  5
1C50
  8
0
 10
-17.71546
 20
-33.735909999999869
 30
0.0
 40
1.0
 50
115.0000000000048
 51
184.99999999999969
  0
ARC
  5
1C51
  8
0
 10
-38.28872999999998
 20
-34.814330000000147
 30
0.0
 40
5.0
 50
25.000000000004562
 51
42.278949999991589
  0
ARC
  5
1C52
  8
0
 10
-16.162389999999949
 20
-35.218470000000252
 30
0.0
 40
3.0
 50
65.348783999998034
 51
115.0000000000048
  0
ARC
  5
1C53
  8
0
 10
0.0
 20
0.0
 30
0.0
 40
35.75
 50
245.3487899999991
 51
349.5926600000098
  0
ARC
  5
1C54
  8
0
 10
0.0
 20
0.0
 30
0.0
 40
46.749999999999993
 50
247.49785999999611
 51
339.59108000001493
  0
ARC
  5
1C57
  8
0
 10
-28.110360000000011
 20
-28.104660000000418
 30
0.0
 40
1.0
 50
295.00000000000477
 51
44.994213000000698
  0
ARC
  5
1C58
  8
0
 10
-4.5534700000000612
 20
-41.500940000000348
 30
0.0
 40
3.0
 50
83.738591000001733
 51
115.0000000000048
  0
ARC
  5
1C5A
  8
0
 10
38.112479999999998
 20
7.0
 30
0.0
 40
3.0
 50
190.4073499999956
 51
270.0
  0
ARC
  5
1C5B
  8
0
 10
38.112479999999998
 20
-7.0
 30
0.0
 40
3.0
 50
90.00000299999769
 51
169.59265000000431
  0
ARC
  5
1C5C
  8
0
 10
0.0
 20
0.0
 30
0.0
 40
38.75
 50
263.7385900000013
 51
338.46905000000532
  0
ARC
  5
1C60
  8
0
 10
38.836639999999989
 20
-15.322400000000011
 30
0.0
 40
3.0
 50
60.000002000001302
 51
158.4690500000053
  0
ARC
  5
1C61
  8
0
 10
45.689849999999971
 20
17.0
 30
0.0
 40
2.0
 50
200.40891000000551
 51
270.0
  0
ARC
  5
1C62
  8
0
 10
45.689849999999971
 20
-17.0
 30
0.0
 40
2.0
 50
90.00000299999769
 51
159.59108999999441
  0
POLYLINE
  5
1C63
  8
0
 10
110.1840691209873
 20
-6.2499999000000006
 30
0.0
 66
     1
 70
     8
  0
VERTEX
  8
0
  5
2E54
 10
110.184
 20
-6.25000
 30
0.000000
  70
    32
  0
VERTEX
  8
0
  5
2E55
 10
110.123
 20
-6.25098
 30
0.000000
  70
    32
  0
VERTEX
  8
0
  5
2E56
 10
110.061
 20
-6.25391
 30
0.000000
  70
    32
  0
VERTEX
  8
0
  5
2E57
 10
110.000
 20
-6.25881
 30
0.000000
  70
    32
  0
VERTEX
  8
0
  5
2E58
 10
109.939
 20
-6.26565
 30
0.000000
  70
    32
  0
VERTEX
  8
0
  5
2E59
 10
109.878
 20
-6.27444
 30
0.000000
  70
    32
  0
VERTEX
  8
0
  5
2E5A
 10
109.817
 20
-6.28518
 30
0.000000
  70
    32
  0
VERTEX
  8
0
  5
2E5B
 10
109.757
 20
-6.29785
 30
0.000000
  70
    32
  0
VERTEX
  8
0
  5
2E5C
 10
109.696
 20
-6.31245
 30
0.000000
  70
    32
  0
VERTEX
  8
0
  5
2E5D
 10
109.636
 20
-6.32897
 30
0.000000
  70
    32
  0
VERTEX
  8
0
  5
2E5E
 10
109.577
 20
-6.34740
 30
0.000000
  70
    32
  0
VERTEX
  8
0
  5
2E5F
 10
109.517
 20
-6.36773
 30
0.000000
  70
    32
  0
VERTEX
  8
0
  5
2E60
 10
109.458
 20
-6.38994
 30
0.000000
  70
    32
  0
VERTEX
  8
0
  5
2E61
 10
109.400
 20
-6.41403
 30
0.000000
  70
    32
  0
VERTEX
  8
0
  5
2E62
 10
109.342
 20
-6.43998
 30
0.000000
  70
    32
  0
VERTEX
  8
0
  5
2E63
 10
109.284
 20
-6.46777
 30
0.000000
  70
    32
  0
VERTEX
  8
0
  5
2E64
 10
109.227
 20
-6.49739
 30
0.000000
  70
    32
  0
VERTEX
  8
0
  5
2E65
 10
109.171
 20
-6.52882
 30
0.000000
  70
    32
  0
VERTEX
  8
0
  5
2E66
 10
109.115
 20
-6.56203
 30
0.000000
  70
    32
  0
VERTEX
  8
0
  5
2E67
 10
109.060
 20
-6.59702
 30
0.000000
  70
    32
  0
VERTEX
  8
0
  5
2E68
 10
109.006
 20
-6.63376
 30
0.000000
  70
    32
  0
VERTEX
  8
0
  5
2E69
 10
108.952
 20
-6.67222
 30
0.000000
  70
    32
  0
VERTEX
  8
0
  5
2E6A
 10
108.899
 20
-6.71238
 30
0.000000
  70
    32
  0
VERTEX
  8
0
  5
2E6B
 10
108.847
 20
-6.75423
 30
0.000000
  70
    32
  0
VERTEX
  8
0
  5
2E6C
 10
108.795
 20
-6.79772
 30
0.000000
  70
    32
  0
VERTEX
  8
0
  5
2E6D
 10
108.745
 20
-6.84285
 30
0.000000
  70
    32
  0
VERTEX
  8
0
  5
2E6E
 10
108.695
 20
-6.88958
 30
0.000000
  70
    32
  0
VERTEX
  8
0
  5
2E6F
 10
108.646
 20
-6.93787
 30
0.000000
  70
    32
  0
VERTEX
  8
0
  5
2E70
 10
108.598
 20
-6.98772
 30
0.000000
  70
    32
  0
VERTEX
  8
0
  5
2E71
 10
108.551
 20
-7.03907
 30
0.000000
  70
    32
  0
VERTEX
  8
0
  5
2E72
 10
108.505
 20
-7.09191
 30
0.000000
  70
    32
  0
VERTEX
  8
0
  5
2E73
 10
108.460
 20
-7.14620
 30
0.000000
  70
    32
  0
VERTEX
  8
0
  5
2E74
 10
108.416
 20
-7.20190
 30
0.000000
  70
    32
  0
VERTEX
  8
0
  5
2E75
 10
108.373
 20
-7.25899
 30
0.000000
  70
    32
  0
VERTEX
  8
0
  5
2E76
 10
108.332
 20
-7.31743
 30
0.000000
  70
    32
  0
VERTEX
  8
0
  5
2E77
 10
108.291
 20
-7.37719
 30
0.000000
  70
    32
  0
VERTEX
  8
0
  5
2E78
 10
108.252
 20
-7.43822
 30
0.000000
  70
    32
  0
VERTEX
  8
0
  5
2E79
 10
108.213
 20
-7.50050
 30
0.000000
  70
    32
  0
VERTEX
  8
0
  5
2E7A
 10
108.176
 20
-7.56398
 30
0.000000
  70
    32
  0
VERTEX
  8
0
  5
2E7B
 10
108.140
 20
-7.62862
 30
0.000000
  70
    32
  0
VERTEX
  8
0
  5
2E7C
 10
108.105
 20
-7.69440
 30
0.000000
  70
    32
  0
VERTEX
  8
0
  5
2E7D
 10
108.072
 20
-7.76126
 30
0.000000
  70
    32
  0
VERTEX
  8
0
  5
2E7E
 10
108.040
 20
-7.82917
 30
0.000000
  70
    32
  0
VERTEX
  8
0
  5
2E7F
 10
108.009
 20
-7.89808
 30
0.000000
  70
    32
  0
VERTEX
  8
0
  5
2E80
 10
107.979
 20
-7.96796
 30
0.000000
  70
    32
  0
VERTEX
  8
0
  5
2E81
 10
107.951
 20
-8.03876
 30
0.000000
  70
    32
  0
VERTEX
  8
0
  5
2E82
 10
107.924
 20
-8.11045
 30
0.000000
  70
    32
  0
VERTEX
  8
0
  5
2E83
 10
107.899
 20
-8.18297
 30
0.000000
  70
    32
  0
VERTEX
  8
0
  5
2E84
 10
107.874
 20
-8.25628
 30
0.000000
  70
    32
  0
VERTEX
  8
0
  5
2E85
 10
107.852
 20
-8.33034
 30
0.000000
  70
    32
  0
VERTEX
  8
0
  5
2E86
 10
107.830
 20
-8.40511
 30
0.000000
  70
    32
  0
VERTEX
  8
0
  5
2E87
 10
107.810
 20
-8.48053
 30
0.000000
  70
    32
  0
VERTEX
  8
0
  5
2E88
 10
107.792
 20
-8.55657
 30
0.000000
  70
    32
  0
VERTEX
  8
0
  5
2E89
 10
107.775
 20
-8.63318
 30
0.000000
  70
    32
  0
VERTEX
  8
0
  5
2E8A
 10
107.759
 20
-8.71031
 30
0.000000
  70
    32
  0
VERTEX
  8
0
  5
2E8B
 10
107.745
 20
-8.78792
 30
0.000000
  70
    32
  0
VERTEX
  8
0
  5
2E8C
 10
107.732
 20
-8.86596
 30
0.000000
  70
    32
  0
VERTEX
  8
0
  5
2E8D
 10
107.721
 20
-8.94437
 30
0.000000
  70
    32
  0
VERTEX
  8
0
  5
2E8E
 10
107.711
 20
-9.02313
 30
0.000000
  70
    32
  0
VERTEX
  8
0
  5
2E8F
 10
107.703
 20
-9.10217
 30
0.000000
  70
    32
  0
VERTEX
  8
0
  5
2E90
 10
107.696
 20
-9.18144
 30
0.000000
  70
    32
  0
VERTEX
  8
0
  5
2E91
 10
107.691
 20
-9.26092
 30
0.000000
  70
    32
  0
VERTEX
  8
0
  5
2E92
 10
107.687
 20
-9.34053
 30
0.000000
  70
    32
  0
VERTEX
  8
0
  5
2E93
 10
107.685
 20
-9.42024
 30
0.000000
  70
    32
  0
VERTEX
  8
0
  5
2E94
 10
107.684
 20
-9.50000
 30
0.000000
  70
    32
  0
VERTEX
  8
0
  5
2E95
 10
107.685
 20
-9.57976
 30
0.000000
  70
    32
  0
VERTEX
  8
0
  5
2E96
 10
107.687
 20
-9.65947
 30
0.000000
  70
    32
  0
VERTEX
  8
0
  5
2E97
 10
107.691
 20
-9.73908
 30
0.000000
  70
    32
  0
VERTEX
  8
0
  5
2E98
 10
107.696
 20
-9.81856
 30
0.000000
  70
    32
  0
VERTEX
  8
0
  5
2E99
 10
107.703
 20
-9.89783
 30
0.000000
  70
    32
  0
VERTEX
  8
0
  5
2E9A
 10
107.711
 20
-9.97687
 30
0.000000
  70
    32
  0
VERTEX
  8
0
  5
2E9B
 10
107.721
 20
-10.0556
 30
0.000000
  70
    32
  0
VERTEX
  8
0
  5
2E9C
 10
107.732
 20
-10.1340
 30
0.000000
  70
    32
  0
VERTEX
  8
0
  5
2E9D
 10
107.745
 20
-10.2121
 30
0.000000
  70
    32
  0
VERTEX
  8
0
  5
2E9E
 10
107.759
 20
-10.2897
 30
0.000000
  70
    32
  0
VERTEX
  8
0
  5
2E9F
 10
107.775
 20
-10.3668
 30
0.000000
  70
    32
  0
VERTEX
  8
0
  5
2EA0
 10
107.792
 20
-10.4434
 30
0.000000
  70
    32
  0
VERTEX
  8
0
  5
2EA1
 10
107.810
 20
-10.5195
 30
0.000000
  70
    32
  0
VERTEX
  8
0
  5
2EA2
 10
107.830
 20
-10.5949
 30
0.000000
  70
    32
  0
VERTEX
  8
0
  5
2EA3
 10
107.852
 20
-10.6697
 30
0.000000
  70
    32
  0
VERTEX
  8
0
  5
2EA4
 10
107.874
 20
-10.7437
 30
0.000000
  70
    32
  0
VERTEX
  8
0
  5
2EA5
 10
107.899
 20
-10.8170
 30
0.000000
  70
    32
  0
VERTEX
  8
0
  5
2EA6
 10
107.924
 20
-10.8896
 30
0.000000
  70
    32
  0
VERTEX
  8
0
  5
2EA7
 10
107.951
 20
-10.9612
 30
0.000000
  70
    32
  0
VERTEX
  8
0
  5
2EA8
 10
107.979
 20
-11.0320
 30
0.000000
  70
    32
  0
VERTEX
  8
0
  5
2EA9
 10
108.009
 20
-11.1019
 30
0.000000
  70
    32
  0
VERTEX
  8
0
  5
2EAA
 10
108.040
 20
-11.1708
 30
0.000000
  70
    32
  0
VERTEX
  8
0
  5
2EAB
 10
108.072
 20
-11.2387
 30
0.000000
  70
    32
  0
VERTEX
  8
0
  5
2EAC
 10
108.105
 20
-11.3056
 30
0.000000
  70
    32
  0
VERTEX
  8
0
  5
2EAD
 10
108.140
 20
-11.3714
 30
0.000000
  70
    32
  0
VERTEX
  8
0
  5
2EAE
 10
108.176
 20
-11.4360
 30
0.000000
  70
    32
  0
VERTEX
  8
0
  5
2EAF
 10
108.213
 20
-11.4995
 30
0.000000
  70
    32
  0
VERTEX
  8
0
  5
2EB0
 10
108.252
 20
-11.5618
 30
0.000000
  70
    32
  0
VERTEX
  8
0
  5
2EB1
 10
108.291
 20
-11.6228
 30
0.000000
  70
    32
  0
VERTEX
  8
0
  5
2EB2
 10
108.332
 20
-11.6826
 30
0.000000
  70
    32
  0
VERTEX
  8
0
  5
2EB3
 10
108.373
 20
-11.7410
 30
0.000000
  70
    32
  0
VERTEX
  8
0
  5
2EB4
 10
108.416
 20
-11.7981
 30
0.000000
  70
    32
  0
VERTEX
  8
0
  5
2EB5
 10
108.460
 20
-11.8538
 30
0.000000
  70
    32
  0
VERTEX
  8
0
  5
2EB6
 10
108.505
 20
-11.9081
 30
0.000000
  70
    32
  0
VERTEX
  8
0
  5
2EB7
 10
108.551
 20
-11.9609
 30
0.000000
  70
    32
  0
VERTEX
  8
0
  5
2EB8
 10
108.598
 20
-12.0123
 30
0.000000
  70
    32
  0
VERTEX
  8
0
  5
2EB9
 10
108.646
 20
-12.0621
 30
0.000000
  70
    32
  0
VERTEX
  8
0
  5
2EBA
 10
108.695
 20
-12.1104
 30
0.000000
  70
    32
  0
VERTEX
  8
0
  5
2EBB
 10
108.745
 20
-12.1572
 30
0.000000
  70
    32
  0
VERTEX
  8
0
  5
2EBC
 10
108.795
 20
-12.2023
 30
0.000000
  70
    32
  0
VERTEX
  8
0
  5
2EBD
 10
108.847
 20
-12.2458
 30
0.000000
  70
    32
  0
VERTEX
  8
0
  5
2EBE
 10
108.899
 20
-12.2876
 30
0.000000
  70
    32
  0
VERTEX
  8
0
  5
2EBF
 10
108.952
 20
-12.3278
 30
0.000000
  70
    32
  0
VERTEX
  8
0
  5
2EC0
 10
109.006
 20
-12.3662
 30
0.000000
  70
    32
  0
VERTEX
  8
0
  5
2EC1
 10
109.060
 20
-12.4030
 30
0.000000
  70
    32
  0
VERTEX
  8
0
  5
2EC2
 10
109.115
 20
-12.4380
 30
0.000000
  70
    32
  0
VERTEX
  8
0
  5
2EC3
 10
109.171
 20
-12.4712
 30
0.000000
  70
    32
  0
VERTEX
  8
0
  5
2EC4
 10
109.227
 20
-12.5026
 30
0.000000
  70
    32
  0
VERTEX
  8
0
  5
2EC5
 10
109.284
 20
-12.5322
 30
0.000000
  70
    32
  0
VERTEX
  8
0
  5
2EC6
 10
109.342
 20
-12.5600
 30
0.000000
  70
    32
  0
VERTEX
  8
0
  5
2EC7
 10
109.400
 20
-12.5860
 30
0.000000
  70
    32
  0
VERTEX
  8
0
  5
2EC8
 10
109.458
 20
-12.6101
 30
0.000000
  70
    32
  0
VERTEX
  8
0
  5
2EC9
 10
109.517
 20
-12.6323
 30
0.000000
  70
    32
  0
VERTEX
  8
0
  5
2ECA
 10
109.577
 20
-12.6526
 30
0.000000
  70
    32
  0
VERTEX
  8
0
  5
2ECB
 10
109.636
 20
-12.6710
 30
0.000000
  70
    32
  0
VERTEX
  8
0
  5
2ECC
 10
109.696
 20
-12.6876
 30
0.000000
  70
    32
  0
VERTEX
  8
0
  5
2ECD
 10
109.757
 20
-12.7022
 30
0.000000
  70
    32
  0
VERTEX
  8
0
  5
2ECE
 10
109.817
 20
-12.7148
 30
0.000000
  70
    32
  0
VERTEX
  8
0
  5
2ECF
 10
109.878
 20
-12.7256
 30
0.000000
  70
    32
  0
VERTEX
  8
0
  5
2ED0
 10
109.939
 20
-12.7344
 30
0.000000
  70
    32
  0
VERTEX
  8
0
  5
2ED1
 10
110.000
 20
-12.7412
 30
0.000000
  70
    32
  0
VERTEX
  8
0
  5
2ED2
 10
110.061
 20
-12.7461
 30
0.000000
  70
    32
  0
VERTEX
  8
0
  5
2ED3
 10
110.123
 20
-12.7490
 30
0.000000
  70
    32
  0
VERTEX
  8
0
  5
2ED4
 10
110.184
 20
-12.7500
 30
0.000000
  70
    32
  0
SEQEND
  8
0
  5
2ED5
  0
POLYLINE
  5
1C64
  8
0
 10
109.9340691209873
 20
-34.326059899999869
 30
0.0
 66
     1
 70
     8
  0
VERTEX
  8
0
  5
2ED6
 10
109.934
 20
-34.3261
 30
0.000000
  70
    32
  0
VERTEX
  8
0
  5
2ED7
 10
109.873
 20
-34.3270
 30
0.000000
  70
    32
  0
VERTEX
  8
0
  5
2ED8
 10
109.811
 20
-34.3300
 30
0.000000
  70
    32
  0
VERTEX
  8
0
  5
2ED9
 10
109.750
 20
-34.3349
 30
0.000000
  70
    32
  0
VERTEX
  8
0
  5
2EDA
 10
109.689
 20
-34.3417
 30
0.000000
  70
    32
  0
VERTEX
  8
0
  5
2EDB
 10
109.628
 20
-34.3505
 30
0.000000
  70
    32
  0
VERTEX
  8
0
  5
2EDC
 10
109.567
 20
-34.3612
 30
0.000000
  70
    32
  0
VERTEX
  8
0
  5
2EDD
 10
109.507
 20
-34.3739
 30
0.000000
  70
    32
  0
VERTEX
  8
0
  5
2EDE
 10
109.446
 20
-34.3885
 30
0.000000
  70
    32
  0
VERTEX
  8
0
  5
2EDF
 10
109.386
 20
-34.4050
 30
0.000000
  70
    32
  0
VERTEX
  8
0
  5
2EE0
 10
109.327
 20
-34.4235
 30
0.000000
  70
    32
  0
VERTEX
  8
0
  5
2EE1
 10
109.267
 20
-34.4438
 30
0.000000
  70
    32
  0
VERTEX
  8
0
  5
2EE2
 10
109.208
 20
-34.4660
 30
0.000000
  70
    32
  0
VERTEX
  8
0
  5
2EE3
 10
109.150
 20
-34.4901
 30
0.000000
  70
    32
  0
VERTEX
  8
0
  5
2EE4
 10
109.092
 20
-34.5160
 30
0.000000
  70
    32
  0
VERTEX
  8
0
  5
2EE5
 10
109.034
 20
-34.5438
 30
0.000000
  70
    32
  0
VERTEX
  8
0
  5
2EE6
 10
108.977
 20
-34.5735
 30
0.000000
  70
    32
  0
VERTEX
  8
0
  5
2EE7
 10
108.921
 20
-34.6049
 30
0.000000
  70
    32
  0
VERTEX
  8
0
  5
2EE8
 10
108.865
 20
-34.6381
 30
0.000000
  70
    32
  0
VERTEX
  8
0
  5
2EE9
 10
108.810
 20
-34.6731
 30
0.000000
  70
    32
  0
VERTEX
  8
0
  5
2EEA
 10
108.756
 20
-34.7098
 30
0.000000
  70
    32
  0
VERTEX
  8
0
  5
2EEB
 10
108.702
 20
-34.7483
 30
0.000000
  70
    32
  0
VERTEX
  8
0
  5
2EEC
 10
108.649
 20
-34.7884
 30
0.000000
  70
    32
  0
VERTEX
  8
0
  5
2EED
 10
108.597
 20
-34.8303
 30
0.000000
  70
    32
  0
VERTEX
  8
0
  5
2EEE
 10
108.545
 20
-34.8738
 30
0.000000
  70
    32
  0
VERTEX
  8
0
  5
2EEF
 10
108.495
 20
-34.9189
 30
0.000000
  70
    32
  0
VERTEX
  8
0
  5
2EF0
 10
108.445
 20
-34.9656
 30
0.000000
  70
    32
  0
VERTEX
  8
0
  5
2EF1
 10
108.396
 20
-35.0139
 30
0.000000
  70
    32
  0
VERTEX
  8
0
  5
2EF2
 10
108.348
 20
-35.0638
 30
0.000000
  70
    32
  0
VERTEX
  8
0
  5
2EF3
 10
108.301
 20
-35.1151
 30
0.000000
  70
    32
  0
VERTEX
  8
0
  5
2EF4
 10
108.255
 20
-35.1680
 30
0.000000
  70
    32
  0
VERTEX
  8
0
  5
2EF5
 10
108.210
 20
-35.2223
 30
0.000000
  70
    32
  0
VERTEX
  8
0
  5
2EF6
 10
108.166
 20
-35.2780
 30
0.000000
  70
    32
  0
VERTEX
  8
0
  5
2EF7
 10
108.123
 20
-35.3351
 30
0.000000
  70
    32
  0
VERTEX
  8
0
  5
2EF8
 10
108.082
 20
-35.3935
 30
0.000000
  70
    32
  0
VERTEX
  8
0
  5
2EF9
 10
108.041
 20
-35.4532
 30
0.000000
  70
    32
  0
VERTEX
  8
0
  5
2EFA
 10
108.002
 20
-35.5143
 30
0.000000
  70
    32
  0
VERTEX
  8
0
  5
2EFB
 10
107.963
 20
-35.5766
 30
0.000000
  70
    32
  0
VERTEX
  8
0
  5
2EFC
 10
107.926
 20
-35.6400
 30
0.000000
  70
    32
  0
VERTEX
  8
0
  5
2EFD
 10
107.890
 20
-35.7047
 30
0.000000
  70
    32
  0
VERTEX
  8
0
  5
2EFE
 10
107.855
 20
-35.7705
 30
0.000000
  70
    32
  0
VERTEX
  8
0
  5
2EFF
 10
107.822
 20
-35.8373
 30
0.000000
  70
    32
  0
VERTEX
  8
0
  5
2F00
 10
107.790
 20
-35.9052
 30
0.000000
  70
    32
  0
VERTEX
  8
0
  5
2F01
 10
107.759
 20
-35.9741
 30
0.000000
  70
    32
  0
VERTEX
  8
0
  5
2F02
 10
107.729
 20
-36.0440
 30
0.000000
  70
    32
  0
VERTEX
  8
0
  5
2F03
 10
107.701
 20
-36.1148
 30
0.000000
  70
    32
  0
VERTEX
  8
0
  5
2F04
 10
107.674
 20
-36.1865
 30
0.000000
  70
    32
  0
VERTEX
  8
0
  5
2F05
 10
107.649
 20
-36.2590
 30
0.000000
  70
    32
  0
VERTEX
  8
0
  5
2F06
 10
107.624
 20
-36.3323
 30
0.000000
  70
    32
  0
VERTEX
  8
0
  5
2F07
 10
107.602
 20
-36.4064
 30
0.000000
  70
    32
  0
VERTEX
  8
0
  5
2F08
 10
107.580
 20
-36.4812
 30
0.000000
  70
    32
  0
VERTEX
  8
0
  5
2F09
 10
107.560
 20
-36.5566
 30
0.000000
  70
    32
  0
VERTEX
  8
0
  5
2F0A
 10
107.542
 20
-36.6326
 30
0.000000
  70
    32
  0
VERTEX
  8
0
  5
2F0B
 10
107.525
 20
-36.7092
 30
0.000000
  70
    32
  0
VERTEX
  8
0
  5
2F0C
 10
107.509
 20
-36.7864
 30
0.000000
  70
    32
  0
VERTEX
  8
0
  5
2F0D
 10
107.495
 20
-36.8640
 30
0.000000
  70
    32
  0
VERTEX
  8
0
  5
2F0E
 10
107.482
 20
-36.9420
 30
0.000000
  70
    32
  0
VERTEX
  8
0
  5
2F0F
 10
107.471
 20
-37.0204
 30
0.000000
  70
    32
  0
VERTEX
  8
0
  5
2F10
 10
107.461
 20
-37.0992
 30
0.000000
  70
    32
  0
VERTEX
  8
0
  5
2F11
 10
107.453
 20
-37.1782
 30
0.000000
  70
    32
  0
VERTEX
  8
0
  5
2F12
 10
107.446
 20
-37.2575
 30
0.000000
  70
    32
  0
VERTEX
  8
0
  5
2F13
 10
107.441
 20
-37.3370
 30
0.000000
  70
    32
  0
VERTEX
  8
0
  5
2F14
 10
107.437
 20
-37.4166
 30
0.000000
  70
    32
  0
VERTEX
  8
0
  5
2F15
 10
107.435
 20
-37.4963
 30
0.000000
  70
    32
  0
VERTEX
  8
0
  5
2F16
 10
107.434
 20
-37.5761
 30
0.000000
  70
    32
  0
VERTEX
  8
0
  5
2F17
 10
107.435
 20
-37.6558
 30
0.000000
  70
    32
  0
VERTEX
  8
0
  5
2F18
 10
107.437
 20
-37.7355
 30
0.000000
  70
    32
  0
VERTEX
  8
0
  5
2F19
 10
107.441
 20
-37.8151
 30
0.000000
  70
    32
  0
VERTEX
  8
0
  5
2F1A
 10
107.446
 20
-37.8946
 30
0.000000
  70
    32
  0
VERTEX
  8
0
  5
2F1B
 10
107.453
 20
-37.9739
 30
0.000000
  70
    32
  0
VERTEX
  8
0
  5
2F1C
 10
107.461
 20
-38.0529
 30
0.000000
  70
    32
  0
VERTEX
  8
0
  5
2F1D
 10
107.471
 20
-38.1317
 30
0.000000
  70
    32
  0
VERTEX
  8
0
  5
2F1E
 10
107.482
 20
-38.2101
 30
0.000000
  70
    32
  0
VERTEX
  8
0
  5
2F1F
 10
107.495
 20
-38.2881
 30
0.000000
  70
    32
  0
VERTEX
  8
0
  5
2F20
 10
107.509
 20
-38.3657
 30
0.000000
  70
    32
  0
VERTEX
  8
0
  5
2F21
 10
107.525
 20
-38.4429
 30
0.000000
  70
    32
  0
VERTEX
  8
0
  5
2F22
 10
107.542
 20
-38.5195
 30
0.000000
  70
    32
  0
VERTEX
  8
0
  5
2F23
 10
107.560
 20
-38.5955
 30
0.000000
  70
    32
  0
VERTEX
  8
0
  5
2F24
 10
107.580
 20
-38.6710
 30
0.000000
  70
    32
  0
VERTEX
  8
0
  5
2F25
 10
107.602
 20
-38.7457
 30
0.000000
  70
    32
  0
VERTEX
  8
0
  5
2F26
 10
107.624
 20
-38.8198
 30
0.000000
  70
    32
  0
VERTEX
  8
0
  5
2F27
 10
107.649
 20
-38.8931
 30
0.000000
  70
    32
  0
VERTEX
  8
0
  5
2F28
 10
107.674
 20
-38.9656
 30
0.000000
  70
    32
  0
VERTEX
  8
0
  5
2F29
 10
107.701
 20
-39.0373
 30
0.000000
  70
    32
  0
VERTEX
  8
0
  5
2F2A
 10
107.729
 20
-39.1081
 30
0.000000
  70
    32
  0
VERTEX
  8
0
  5
2F2B
 10
107.759
 20
-39.1780
 30
0.000000
  70
    32
  0
VERTEX
  8
0
  5
2F2C
 10
107.790
 20
-39.2469
 30
0.000000
  70
    32
  0
VERTEX
  8
0
  5
2F2D
 10
107.822
 20
-39.3148
 30
0.000000
  70
    32
  0
VERTEX
  8
0
  5
2F2E
 10
107.855
 20
-39.3817
 30
0.000000
  70
    32
  0
VERTEX
  8
0
  5
2F2F
 10
107.890
 20
-39.4474
 30
0.000000
  70
    32
  0
VERTEX
  8
0
  5
2F30
 10
107.926
 20
-39.5121
 30
0.000000
  70
    32
  0
VERTEX
  8
0
  5
2F31
 10
107.963
 20
-39.5756
 30
0.000000
  70
    32
  0
VERTEX
  8
0
  5
2F32
 10
108.002
 20
-39.6378
 30
0.000000
  70
    32
  0
VERTEX
  8
0
  5
2F33
 10
108.041
 20
-39.6989
 30
0.000000
  70
    32
  0
VERTEX
  8
0
  5
2F34
 10
108.082
 20
-39.7586
 30
0.000000
  70
    32
  0
VERTEX
  8
0
  5
2F35
 10
108.123
 20
-39.8171
 30
0.000000
  70
    32
  0
VERTEX
  8
0
  5
2F36
 10
108.166
 20
-39.8742
 30
0.000000
  70
    32
  0
VERTEX
  8
0
  5
2F37
 10
108.210
 20
-39.9299
 30
0.000000
  70
    32
  0
VERTEX
  8
0
  5
2F38
 10
108.255
 20
-39.9842
 30
0.000000
  70
    32
  0
VERTEX
  8
0
  5
2F39
 10
108.301
 20
-40.0370
 30
0.000000
  70
    32
  0
VERTEX
  8
0
  5
2F3A
 10
108.348
 20
-40.0883
 30
0.000000
  70
    32
  0
VERTEX
  8
0
  5
2F3B
 10
108.396
 20
-40.1382
 30
0.000000
  70
    32
  0
VERTEX
  8
0
  5
2F3C
 10
108.445
 20
-40.1865
 30
0.000000
  70
    32
  0
VERTEX
  8
0
  5
2F3D
 10
108.495
 20
-40.2332
 30
0.000000
  70
    32
  0
VERTEX
  8
0
  5
2F3E
 10
108.545
 20
-40.2783
 30
0.000000
  70
    32
  0
VERTEX
  8
0
  5
2F3F
 10
108.597
 20
-40.3218
 30
0.000000
  70
    32
  0
VERTEX
  8
0
  5
2F40
 10
108.649
 20
-40.3637
 30
0.000000
  70
    32
  0
VERTEX
  8
0
  5
2F41
 10
108.702
 20
-40.4038
 30
0.000000
  70
    32
  0
VERTEX
  8
0
  5
2F42
 10
108.756
 20
-40.4423
 30
0.000000
  70
    32
  0
VERTEX
  8
0
  5
2F43
 10
108.810
 20
-40.4790
 30
0.000000
  70
    32
  0
VERTEX
  8
0
  5
2F44
 10
108.865
 20
-40.5140
 30
0.000000
  70
    32
  0
VERTEX
  8
0
  5
2F45
 10
108.921
 20
-40.5472
 30
0.000000
  70
    32
  0
VERTEX
  8
0
  5
2F46
 10
108.977
 20
-40.5787
 30
0.000000
  70
    32
  0
VERTEX
  8
0
  5
2F47
 10
109.034
 20
-40.6083
 30
0.000000
  70
    32
  0
VERTEX
  8
0
  5
2F48
 10
109.092
 20
-40.6361
 30
0.000000
  70
    32
  0
VERTEX
  8
0
  5
2F49
 10
109.150
 20
-40.6620
 30
0.000000
  70
    32
  0
VERTEX
  8
0
  5
2F4A
 10
109.208
 20
-40.6861
 30
0.000000
  70
    32
  0
VERTEX
  8
0
  5
2F4B
 10
109.267
 20
-40.7083
 30
0.000000
  70
    32
  0
VERTEX
  8
0
  5
2F4C
 10
109.327
 20
-40.7287
 30
0.000000
  70
    32
  0
VERTEX
  8
0
  5
2F4D
 10
109.386
 20
-40.7471
 30
0.000000
  70
    32
  0
VERTEX
  8
0
  5
2F4E
 10
109.446
 20
-40.7636
 30
0.000000
  70
    32
  0
VERTEX
  8
0
  5
2F4F
 10
109.507
 20
-40.7782
 30
0.000000
  70
    32
  0
VERTEX
  8
0
  5
2F50
 10
109.567
 20
-40.7909
 30
0.000000
  70
    32
  0
VERTEX
  8
0
  5
2F51
 10
109.628
 20
-40.8016
 30
0.000000
  70
    32
  0
VERTEX
  8
0
  5
2F52
 10
109.689
 20
-40.8104
 30
0.000000
  70
    32
  0
VERTEX
  8
0
  5
2F53
 10
109.750
 20
-40.8173
 30
0.000000
  70
    32
  0
VERTEX
  8
0
  5
2F54
 10
109.811
 20
-40.8221
 30
0.000000
  70
    32
  0
VERTEX
  8
0
  5
2F55
 10
109.873
 20
-40.8251
 30
0.000000
  70
    32
  0
VERTEX
  8
0
  5
2F56
 10
109.934
 20
-40.8261
 30
0.000000
  70
    32
  0
SEQEND
  8
0
  5
2F57
  0
POLYLINE
  5
1C65
  8
0
 10
109.93406903173691
 20
40.826070099999605
 30
0.0
 66
     1
 70
     8
  0
VERTEX
  8
0
  5
2F58
 10
109.934
 20
40.8261
 30
0.000000
  70
    32
  0
VERTEX
  8
0
  5
2F59
 10
109.873
 20
40.8251
 30
0.000000
  70
    32
  0
VERTEX
  8
0
  5
2F5A
 10
109.811
 20
40.8222
 30
0.000000
  70
    32
  0
VERTEX
  8
0
  5
2F5B
 10
109.750
 20
40.8173
 30
0.000000
  70
    32
  0
VERTEX
  8
0
  5
2F5C
 10
109.689
 20
40.8104
 30
0.000000
  70
    32
  0
VERTEX
  8
0
  5
2F5D
 10
109.628
 20
40.8016
 30
0.000000
  70
    32
  0
VERTEX
  8
0
  5
2F5E
 10
109.567
 20
40.7909
 30
0.000000
  70
    32
  0
VERTEX
  8
0
  5
2F5F
 10
109.507
 20
40.7782
 30
0.000000
  70
    32
  0
VERTEX
  8
0
  5
2F60
 10
109.446
 20
40.7636
 30
0.000000
  70
    32
  0
VERTEX
  8
0
  5
2F61
 10
109.386
 20
40.7471
 30
0.000000
  70
    32
  0
VERTEX
  8
0
  5
2F62
 10
109.327
 20
40.7287
 30
0.000000
  70
    32
  0
VERTEX
  8
0
  5
2F63
 10
109.267
 20
40.7083
 30
0.000000
  70
    32
  0
VERTEX
  8
0
  5
2F64
 10
109.208
 20
40.6861
 30
0.000000
  70
    32
  0
VERTEX
  8
0
  5
2F65
 10
109.150
 20
40.6620
 30
0.000000
  70
    32
  0
VERTEX
  8
0
  5
2F66
 10
109.092
 20
40.6361
 30
0.000000
  70
    32
  0
VERTEX
  8
0
  5
2F67
 10
109.034
 20
40.6083
 30
0.000000
  70
    32
  0
VERTEX
  8
0
  5
2F68
 10
108.977
 20
40.5787
 30
0.000000
  70
    32
  0
VERTEX
  8
0
  5
2F69
 10
108.921
 20
40.5473
 30
0.000000
  70
    32
  0
VERTEX
  8
0
  5
2F6A
 10
108.865
 20
40.5140
 30
0.000000
  70
    32
  0
VERTEX
  8
0
  5
2F6B
 10
108.810
 20
40.4790
 30
0.000000
  70
    32
  0
VERTEX
  8
0
  5
2F6C
 10
108.756
 20
40.4423
 30
0.000000
  70
    32
  0
VERTEX
  8
0
  5
2F6D
 10
108.702
 20
40.4039
 30
0.000000
  70
    32
  0
VERTEX
  8
0
  5
2F6E
 10
108.649
 20
40.3637
 30
0.000000
  70
    32
  0
VERTEX
  8
0
  5
2F6F
 10
108.597
 20
40.3218
 30
0.000000
  70
    32
  0
VERTEX
  8
0
  5
2F70
 10
108.545
 20
40.2783
 30
0.000000
  70
    32
  0
VERTEX
  8
0
  5
2F71
 10
108.495
 20
40.2332
 30
0.000000
  70
    32
  0
VERTEX
  8
0
  5
2F72
 10
108.445
 20
40.1865
 30
0.000000
  70
    32
  0
VERTEX
  8
0
  5
2F73
 10
108.396
 20
40.1382
 30
0.000000
  70
    32
  0
VERTEX
  8
0
  5
2F74
 10
108.348
 20
40.0884
 30
0.000000
  70
    32
  0
VERTEX
  8
0
  5
2F75
 10
108.301
 20
40.0370
 30
0.000000
  70
    32
  0
VERTEX
  8
0
  5
2F76
 10
108.255
 20
39.9842
 30
0.000000
  70
    32
  0
VERTEX
  8
0
  5
2F77
 10
108.210
 20
39.9299
 30
0.000000
  70
    32
  0
VERTEX
  8
0
  5
2F78
 10
108.166
 20
39.8742
 30
0.000000
  70
    32
  0
VERTEX
  8
0
  5
2F79
 10
108.123
 20
39.8171
 30
0.000000
  70
    32
  0
VERTEX
  8
0
  5
2F7A
 10
108.082
 20
39.7586
 30
0.000000
  70
    32
  0
VERTEX
  8
0
  5
2F7B
 10
108.041
 20
39.6989
 30
0.000000
  70
    32
  0
VERTEX
  8
0
  5
2F7C
 10
108.002
 20
39.6378
 30
0.000000
  70
    32
  0
VERTEX
  8
0
  5
2F7D
 10
107.963
 20
39.5756
 30
0.000000
  70
    32
  0
VERTEX
  8
0
  5
2F7E
 10
107.926
 20
39.5121
 30
0.000000
  70
    32
  0
VERTEX
  8
0
  5
2F7F
 10
107.890
 20
39.4474
 30
0.000000
  70
    32
  0
VERTEX
  8
0
  5
2F80
 10
107.855
 20
39.3817
 30
0.000000
  70
    32
  0
VERTEX
  8
0
  5
2F81
 10
107.822
 20
39.3148
 30
0.000000
  70
    32
  0
VERTEX
  8
0
  5
2F82
 10
107.790
 20
39.2469
 30
0.000000
  70
    32
  0
VERTEX
  8
0
  5
2F83
 10
107.759
 20
39.1780
 30
0.000000
  70
    32
  0
VERTEX
  8
0
  5
2F84
 10
107.729
 20
39.1081
 30
0.000000
  70
    32
  0
VERTEX
  8
0
  5
2F85
 10
107.701
 20
39.0373
 30
0.000000
  70
    32
  0
VERTEX
  8
0
  5
2F86
 10
107.674
 20
38.9656
 30
0.000000
  70
    32
  0
VERTEX
  8
0
  5
2F87
 10
107.649
 20
38.8931
 30
0.000000
  70
    32
  0
VERTEX
  8
0
  5
2F88
 10
107.624
 20
38.8198
 30
0.000000
  70
    32
  0
VERTEX
  8
0
  5
2F89
 10
107.602
 20
38.7457
 30
0.000000
  70
    32
  0
VERTEX
  8
0
  5
2F8A
 10
107.580
 20
38.6710
 30
0.000000
  70
    32
  0
VERTEX
  8
0
  5
2F8B
 10
107.560
 20
38.5955
 30
0.000000
  70
    32
  0
VERTEX
  8
0
  5
2F8C
 10
107.542
 20
38.5195
 30
0.000000
  70
    32
  0
VERTEX
  8
0
  5
2F8D
 10
107.525
 20
38.4429
 30
0.000000
  70
    32
  0
VERTEX
  8
0
  5
2F8E
 10
107.509
 20
38.3658
 30
0.000000
  70
    32
  0
VERTEX
  8
0
  5
2F8F
 10
107.495
 20
38.2881
 30
0.000000
  70
    32
  0
VERTEX
  8
0
  5
2F90
 10
107.482
 20
38.2101
 30
0.000000
  70
    32
  0
VERTEX
  8
0
  5
2F91
 10
107.471
 20
38.1317
 30
0.000000
  70
    32
  0
VERTEX
  8
0
  5
2F92
 10
107.461
 20
38.0529
 30
0.000000
  70
    32
  0
VERTEX
  8
0
  5
2F93
 10
107.453
 20
37.9739
 30
0.000000
  70
    32
  0
VERTEX
  8
0
  5
2F94
 10
107.446
 20
37.8946
 30
0.000000
  70
    32
  0
VERTEX
  8
0
  5
2F95
 10
107.441
 20
37.8152
 30
0.000000
  70
    32
  0
VERTEX
  8
0
  5
2F96
 10
107.437
 20
37.7355
 30
0.000000
  70
    32
  0
VERTEX
  8
0
  5
2F97
 10
107.435
 20
37.6558
 30
0.000000
  70
    32
  0
VERTEX
  8
0
  5
2F98
 10
107.434
 20
37.5761
 30
0.000000
  70
    32
  0
VERTEX
  8
0
  5
2F99
 10
107.435
 20
37.4963
 30
0.000000
  70
    32
  0
VERTEX
  8
0
  5
2F9A
 10
107.437
 20
37.4166
 30
0.000000
  70
    32
  0
VERTEX
  8
0
  5
2F9B
 10
107.441
 20
37.3370
 30
0.000000
  70
    32
  0
VERTEX
  8
0
  5
2F9C
 10
107.446
 20
37.2575
 30
0.000000
  70
    32
  0
VERTEX
  8
0
  5
2F9D
 10
107.453
 20
37.1782
 30
0.000000
  70
    32
  0
VERTEX
  8
0
  5
2F9E
 10
107.461
 20
37.0992
 30
0.000000
  70
    32
  0
VERTEX
  8
0
  5
2F9F
 10
107.471
 20
37.0204
 30
0.000000
  70
    32
  0
VERTEX
  8
0
  5
2FA0
 10
107.482
 20
36.9420
 30
0.000000
  70
    32
  0
VERTEX
  8
0
  5
2FA1
 10
107.495
 20
36.8640
 30
0.000000
  70
    32
  0
VERTEX
  8
0
  5
2FA2
 10
107.509
 20
36.7864
 30
0.000000
  70
    32
  0
VERTEX
  8
0
  5
2FA3
 10
107.525
 20
36.7093
 30
0.000000
  70
    32
  0
VERTEX
  8
0
  5
2FA4
 10
107.542
 20
36.6326
 30
0.000000
  70
    32
  0
VERTEX
  8
0
  5
2FA5
 10
107.560
 20
36.5566
 30
0.000000
  70
    32
  0
VERTEX
  8
0
  5
2FA6
 10
107.580
 20
36.4812
 30
0.000000
  70
    32
  0
VERTEX
  8
0
  5
2FA7
 10
107.602
 20
36.4064
 30
0.000000
  70
    32
  0
VERTEX
  8
0
  5
2FA8
 10
107.624
 20
36.3323
 30
0.000000
  70
    32
  0
VERTEX
  8
0
  5
2FA9
 10
107.649
 20
36.2590
 30
0.000000
  70
    32
  0
VERTEX
  8
0
  5
2FAA
 10
107.674
 20
36.1865
 30
0.000000
  70
    32
  0
VERTEX
  8
0
  5
2FAB
 10
107.701
 20
36.1148
 30
0.000000
  70
    32
  0
VERTEX
  8
0
  5
2FAC
 10
107.729
 20
36.0440
 30
0.000000
  70
    32
  0
VERTEX
  8
0
  5
2FAD
 10
107.759
 20
35.9742
 30
0.000000
  70
    32
  0
VERTEX
  8
0
  5
2FAE
 10
107.790
 20
35.9052
 30
0.000000
  70
    32
  0
VERTEX
  8
0
  5
2FAF
 10
107.822
 20
35.8373
 30
0.000000
  70
    32
  0
VERTEX
  8
0
  5
2FB0
 10
107.855
 20
35.7705
 30
0.000000
  70
    32
  0
VERTEX
  8
0
  5
2FB1
 10
107.890
 20
35.7047
 30
0.000000
  70
    32
  0
VERTEX
  8
0
  5
2FB2
 10
107.926
 20
35.6400
 30
0.000000
  70
    32
  0
VERTEX
  8
0
  5
2FB3
 10
107.963
 20
35.5766
 30
0.000000
  70
    32
  0
VERTEX
  8
0
  5
2FB4
 10
108.002
 20
35.5143
 30
0.000000
  70
    32
  0
VERTEX
  8
0
  5
2FB5
 10
108.041
 20
35.4533
 30
0.000000
  70
    32
  0
VERTEX
  8
0
  5
2FB6
 10
108.082
 20
35.3935
 30
0.000000
  70
    32
  0
VERTEX
  8
0
  5
2FB7
 10
108.123
 20
35.3351
 30
0.000000
  70
    32
  0
VERTEX
  8
0
  5
2FB8
 10
108.166
 20
35.2780
 30
0.000000
  70
    32
  0
VERTEX
  8
0
  5
2FB9
 10
108.210
 20
35.2223
 30
0.000000
  70
    32
  0
VERTEX
  8
0
  5
2FBA
 10
108.255
 20
35.1680
 30
0.000000
  70
    32
  0
VERTEX
  8
0
  5
2FBB
 10
108.301
 20
35.1151
 30
0.000000
  70
    32
  0
VERTEX
  8
0
  5
2FBC
 10
108.348
 20
35.0638
 30
0.000000
  70
    32
  0
VERTEX
  8
0
  5
2FBD
 10
108.396
 20
35.0139
 30
0.000000
  70
    32
  0
VERTEX
  8
0
  5
2FBE
 10
108.445
 20
34.9656
 30
0.000000
  70
    32
  0
VERTEX
  8
0
  5
2FBF
 10
108.495
 20
34.9189
 30
0.000000
  70
    32
  0
VERTEX
  8
0
  5
2FC0
 10
108.545
 20
34.8738
 30
0.000000
  70
    32
  0
VERTEX
  8
0
  5
2FC1
 10
108.597
 20
34.8303
 30
0.000000
  70
    32
  0
VERTEX
  8
0
  5
2FC2
 10
108.649
 20
34.7885
 30
0.000000
  70
    32
  0
VERTEX
  8
0
  5
2FC3
 10
108.702
 20
34.7483
 30
0.000000
  70
    32
  0
VERTEX
  8
0
  5
2FC4
 10
108.756
 20
34.7098
 30
0.000000
  70
    32
  0
VERTEX
  8
0
  5
2FC5
 10
108.810
 20
34.6731
 30
0.000000
  70
    32
  0
VERTEX
  8
0
  5
2FC6
 10
108.865
 20
34.6381
 30
0.000000
  70
    32
  0
VERTEX
  8
0
  5
2FC7
 10
108.921
 20
34.6049
 30
0.000000
  70
    32
  0
VERTEX
  8
0
  5
2FC8
 10
108.977
 20
34.5735
 30
0.000000
  70
    32
  0
VERTEX
  8
0
  5
2FC9
 10
109.034
 20
34.5438
 30
0.000000
  70
    32
  0
VERTEX
  8
0
  5
2FCA
 10
109.092
 20
34.5161
 30
0.000000
  70
    32
  0
VERTEX
  8
0
  5
2FCB
 10
109.150
 20
34.4901
 30
0.000000
  70
    32
  0
VERTEX
  8
0
  5
2FCC
 10
109.208
 20
34.4660
 30
0.000000
  70
    32
  0
VERTEX
  8
0
  5
2FCD
 10
109.267
 20
34.4438
 30
0.000000
  70
    32
  0
VERTEX
  8
0
  5
2FCE
 10
109.327
 20
34.4235
 30
0.000000
  70
    32
  0
VERTEX
  8
0
  5
2FCF
 10
109.386
 20
34.4050
 30
0.000000
  70
    32
  0
VERTEX
  8
0
  5
2FD0
 10
109.446
 20
34.3885
 30
0.000000
  70
    32
  0
VERTEX
  8
0
  5
2FD1
 10
109.507
 20
34.3739
 30
0.000000
  70
    32
  0
VERTEX
  8
0
  5
2FD2
 10
109.567
 20
34.3612
 30
0.000000
  70
    32
  0
VERTEX
  8
0
  5
2FD3
 10
109.628
 20
34.3505
 30
0.000000
  70
    32
  0
VERTEX
  8
0
  5
2FD4
 10
109.689
 20
34.3417
 30
0.000000
  70
    32
  0
VERTEX
  8
0
  5
2FD5
 10
109.750
 20
34.3349
 30
0.000000
  70
    32
  0
VERTEX
  8
0
  5
2FD6
 10
109.811
 20
34.3300
 30
0.000000
  70
    32
  0
VERTEX
  8
0
  5
2FD7
 10
109.873
 20
34.3270
 30
0.000000
  70
    32
  0
VERTEX
  8
0
  5
2FD8
 10
109.934
 20
34.3261
 30
0.000000
  70
    32
  0
SEQEND
  8
0
  5
2FD9
  0
LINE
  5
2BA9
  8
0
  6
CENTER
 10
0.0
 20
0.0
 30
0.0
 11
-29.64276000000007
 21
51.342770000000201
 31
0.0
  0
LINE
  5
2BAB
  8
0
 10
-17.430250000000001
 20
32.499549999999992
 30
0.0
 11
-18.138079999999938
 21
32.82961000000023
 31
0.0
  0
LINE
  5
2BAC
  8
0
 10
-18.711639999999981
 20
33.823060000000169
 30
0.0
 11
-17.892080000000071
 21
43.190700000000099
 31
0.0
  0
LINE
  5
2BAD
  8
0
 10
-19.430370000000028
 20
31.344760000000399
 30
0.0
 11
-18.595209999999948
 21
40.89077000000043
 31
0.0
  0
LINE
  5
2BAE
  8
0
 10
-33.75719000000003
 20
32.701250000000073
 30
0.0
 11
-28.678470000000061
 21
43.592600000000402
 31
0.0
  0
LINE
  5
2BAF
  8
0
 10
-11.44162000000005
 20
45.58516000000008
 30
0.0
 11
-23.413099999999979
 21
46.632530000000322
 31
0.0
  0
LINE
  5
2BB0
  8
0
 10
-5.821329999999989
 20
38.782010000000348
 30
0.0
 11
-16.476130000000008
 21
43.750430000000051
 31
0.0
  0
LINE
  5
2BB1
  8
0
 10
-27.687740000000069
 20
29.010960000000068
 30
0.0
 11
-34.086610000000057
 21
31.994799999999941
 31
0.0
  0
LINE
  5
2BB2
  8
0
 10
40.336639999999989
 20
12.72432000000026
 30
0.0
 11
44.278209999999937
 21
14.999990000000251
 31
0.0
  0
ARC
  5
2BB3
  8
0
 10
0.0
 20
0.0
 30
0.0
 40
46.749999999999993
 50
137.72105999998919
 51
222.2789400000097
  0
ARC
  5
2BB4
  8
0
 10
0.0
 20
0.0
 30
0.0
 40
35.75
 50
125.3488500000084
 51
234.65114999999551
  0
ARC
  5
2BB5
  8
0
 10
0.0
 20
0.0
 30
0.0
 40
47.75
 50
106.76931000000221
 51
134.2895700000048
  0
ARC
  5
2BB6
  8
0
 10
-23.875029999999921
 20
41.352699999999913
 30
0.0
 40
5.3000002000000004
 50
354.99999249997683
 51
154.99981244872831
  0
ARC
  5
2BB7
  8
0
 10
-11.00583000000006
 20
50.56614000000036
 30
0.0
 40
5.0
 50
264.99999800000239
 51
282.27903800000217
  0
ARC
  5
2BB8
  8
0
 10
-22.418949999999992
 20
31.606229999999861
 30
0.0
 40
3.0
 50
305.3488489999807
 51
355.00000009998928
  0
ARC
  5
2BB9
  8
0
 10
-17.71546
 20
33.735909999999869
 30
0.0
 40
1.0
 50
175.00000000002629
 51
245.00000000001049
  0
ARC
  5
2BBA
  8
0
 10
-38.28872999999998
 20
34.814330000000147
 30
0.0
 40
5.0
 50
317.72105000001278
 51
335.00000000002109
  0
ARC
  5
2BBB
  8
0
 10
-16.162389999999949
 20
35.218470000000252
 30
0.0
 40
3.0
 50
245.00000000001049
 51
294.65121600001078
  0
ARC
  5
2BBC
  8
0
 10
0.0
 20
0.0
 30
0.0
 40
35.75
 50
10.40733999998988
 51
114.6512099999978
  0
ARC
  5
2BBD
  8
0
 10
0.0
 20
0.0
 30
0.0
 40
46.749999999999993
 50
20.408920000011229
 51
112.5021400000053
  0
ARC
  5
2BBE
  8
0
 10
0.0
 20
0.0
 30
0.0
 40
38.75
 50
135.0058000000187
 51
224.99420000000421
  0
ARC
  5
2BBF
  8
0
 10
-28.110360000000011
 20
28.104660000000418
 30
0.0
 40
1.0
 50
315.0057870000004
 51
65.000000000010587
  0
ARC
  5
2BC0
  8
0
 10
-4.5534700000000612
 20
41.500940000000348
 30
0.0
 40
3.0
 50
245.00000000001049
 51
276.26140900000149
  0
ARC
  5
2BC1
  8
0
 10
0.0
 20
0.0
 30
0.0
 40
38.75
 50
21.530950000020109
 51
96.261409999995365
  0
ARC
  5
2BC2
  8
0
 10
38.836639999999989
 20
15.322400000000011
 30
0.0
 40
3.0
 50
201.53095000002011
 51
299.99999799998881
  0
ARC
  5
2BC4
  8
0
 10
59.5
 20
14.0
 30
0.0
 40
1.0
 50
0.0
 51
90.0
  0
LINE
  5
2BC6
  8
0
 10
49.500000000000007
 20
29.20001000000002
 30
0.0
 11
49.5
 21
39.428229999999978
 31
0.0
  0
LINE
  5
2BC7
  8
0
 10
57.5
 20
29.20001000000002
 30
0.0
 11
57.5
 21
39.428229999999978
 31
0.0
  0
LINE
  5
2BC8
  8
0
  6
CENTER
 10
53.5
 20
-20.116567759874211
 30
0.0
 11
53.5
 21
55.843301371387042
 31
0.0
  0
LINE
  5
2BC9
  8
0
 10
59.25
 20
29.20001000000002
 30
0.0
 11
47.75
 21
29.20001000000002
 31
0.0
  0
ARC
  5
2BCA
  8
0
 10
59.249999999999581
 20
27.20001000000002
 30
0.0
 40
2.0
 50
0.0
 51
89.999999999986969
  0
ARC
  5
2BCB
  8
0
 10
47.750000000000483
 20
27.20001000000002
 30
0.0
 40
2.0
 50
90.000000000014623
 51
180.0
  0
CIRCLE
  5
2BCD
  8
0
 10
-23.875029999999921
 20
-41.352699999999913
 30
0.0
 40
2.5999998999999989
  0
CIRCLE
  5
2BCE
  8
0
 10
-23.875029999999921
 20
41.352699999999913
 30
0.0
 40
2.5999998999999989
  0
CIRCLE
  5
2C65
  8
0
 10
53.5
 20
-9.5
 30
0.0
 40
3.2500000999998511
  0
TEXT
  5
2C9A
  8
0
 10
30.7452755761941
 20
75.312893595281082
 30
0.0
 40
5.0
  1
13MHHM-3LW 2.5S
  0
VIEWPORT
  5
79
 67
     1
  8
0
 10
5.2499996395561617
 20
3.9999998836066761
 30
0.0
 40
15.015580297613511
 41
8.5939224089826052
 68
     1
 69
     1
1001
ACAD
1000
MVIEW
1002
{
1070
    16
1010
0.0
1020
0.0
1030
0.0
1010
0.0
1020
0.0
1030
1.0
1040
0.0
1040
8.5939224089826052
1040
5.2499996395561617
1040
3.9999998836066761
1040
50.0
1040
0.0
1040
0.0
1070
     0
1070
   100
1070
     1
1070
     1
1070
     0
1070
     0
1070
     0
1070
     0
1040
0.0
1040
0.0
1040
0.0
1040
10.0
1040
10.0
1040
10.0
1040
10.0
1070
     0
1002
{
1002
}
1002
}
1001
GENIUS_GENOBJ-N-SDF_13
1002
{
1000
OWNER
1000
GEN
1002
}
1001
GENIUS_GENODEF_13
1002
{
1000
HIER
1070
     0
1002
}
1002
{
1000
MANEDIT
1070
     0
1002
}
1002
{
1000
NOSEL
1070
     0
1002
}
1002
{
1000
BEHIND
1070
     0
1002
}
1002
{
1000
OTHER
1070
     0
1002
}
1002
{
1000
REACTOR
1002
}
1001
GENIUS_GENSCREG_15
1000
PF
1040
1.0
1000
DF
1040
1.0
1000
MIN
1011
-2.2577905092505972
1021
0.0
1031
0.0
1021
-0.2969613208846251
1031
0.0
1000
MAX
1011
12.757789788362921
1021
0.0
1031
0.0
1021
8.2969610880979801
1031
0.0
1000
FLAGS
1070
     4
  0
VIEWPORT
  5
7B
 67
     1
  8
0
 10
5.24999976158142
 20
3.99999976158142
 30
0.0
 40
8.3999996185302717
 41
6.3999996185302717
 68
     2
 69
     2
1001
ACAD
1000
MVIEW
1002
{
1070
    16
1010
0.0
1020
0.0
1030
0.0
1010
0.0
1020
0.0
1030
1.0
1040
0.0
1040
9.2590797717467002
1040
6.0
1040
4.5
1040
50.0
1040
0.0
1040
0.0
1070
     0
1070
   100
1070
     1
1070
     3
1070
     0
1070
     0
1070
     0
1070
     0
1040
0.0
1040
0.0
1040
0.0
1040
0.5
1040
0.5
1040
0.5
1040
0.5
1070
     0
1002
{
1002
}
1002
}
1001
GENIUS_GENODEF_13
1002
{
1000
HIER
1070
     0
1002
}
1002
{
1000
MANEDIT
1070
     0
1002
}
1002
{
1000
NOSEL
1070
     0
1002
}
1002
{
1000
BEHIND
1070
     0
1002
}
1002
{
1000
OTHER
1070
     0
1002
}
1002
{
1000
REACTOR
1002
}
1001
GENIUS_GENOBJ-N-SDF_13
1002
{
1000
OWNER
1000
GEN
1002
}
1001
GENIUS_GENSCREG_15
1000
PF
1040
0.0
1000
DF
1040
0.0
1000
MIN
1011
1.049999952316284
1021
0.0
1031
0.0
1021
0.7999999523162842
1031
0.0
1000
MAX
1011
9.4499995708465558
1021
0.0
1031
0.0
1021
7.1999995708465558
1031
0.0
1000
FLAGS
1070
     4
  0
ENDSEC
  0
EOF
