  0
SECTION
  2
HEADER
  9
$ACADVER
  1
AC1009
  9
$INSBASE
 10
0.0
 20
0.0
 30
0.0
  9
$EXTMIN
 10
-60.242560000000019
 20
-47.517199171540661
 30
0.0
  9
$EXTMAX
 10
131.3472009144794
 20
82.549774255354293
 30
0.0
  9
$LIMMIN
 10
0.0
 20
0.0
  9
$LIMMAX
 10
12.0
 20
9.0
  9
$ORTHOMODE
 70
     0
  9
$REGENMODE
 70
     1
  9
$FILLMODE
 70
     1
  9
$QTEXTMODE
 70
     0
  9
$MIRRTEXT
 70
     1
  9
$DRAGMODE
 70
     2
  9
$LTSCALE
 40
1.0
  9
$OSMODE
 70
    37
  9
$ATTMODE
 70
     1
  9
$TEXTSIZE
 40
0.2
  9
$TRACEWID
 40
0.05
  9
$TEXTSTYLE
  7
STANDARD
  9
$CLAYER
  8
0
  9
$CELTYPE
  6
BYLAYER
  9
$CECOLOR
 62
   256
  9
$DIMSCALE
 40
1.0
  9
$DIMASZ
 40
0.18
  9
$DIMEXO
 40
0.0625
  9
$DIMDLI
 40
0.38
  9
$DIMRND
 40
0.0
  9
$DIMDLE
 40
0.0
  9
$DIMEXE
 40
0.18
  9
$DIMTP
 40
0.0
  9
$DIMTM
 40
0.0
  9
$DIMTXT
 40
0.18
  9
$DIMCEN
 40
0.09
  9
$DIMTSZ
 40
0.0
  9
$DIMTOL
 70
     0
  9
$DIMLIM
 70
     0
  9
$DIMTIH
 70
     1
  9
$DIMTOH
 70
     1
  9
$DIMSE1
 70
     0
  9
$DIMSE2
 70
     0
  9
$DIMTAD
 70
     0
  9
$DIMZIN
 70
     0
  9
$DIMBLK
  1

  9
$DIMASO
 70
     1
  9
$DIMSHO
 70
     1
  9
$DIMPOST
  1

  9
$DIMAPOST
  1

  9
$DIMALT
 70
     0
  9
$DIMALTD
 70
     2
  9
$DIMALTF
 40
25.399999999999999
  9
$DIMLFAC
 40
1.0
  9
$DIMTOFL
 70
     0
  9
$DIMTVP
 40
0.0
  9
$DIMTIX
 70
     0
  9
$DIMSOXD
 70
     0
  9
$DIMSAH
 70
     0
  9
$DIMBLK1
  1

  9
$DIMBLK2
  1

  9
$DIMSTYLE
  2
STANDARD
  9
$DIMCLRD
 70
     0
  9
$DIMCLRE
 70
     0
  9
$DIMCLRT
 70
     0
  9
$DIMTFAC
 40
1.0
  9
$DIMGAP
 40
0.09
  9
$LUNITS
 70
     2
  9
$LUPREC
 70
     4
  9
$SKETCHINC
 40
0.1
  9
$FILLETRAD
 40
1.0
  9
$AUNITS
 70
     0
  9
$AUPREC
 70
     0
  9
$MENU
  1
.
  9
$ELEVATION
 40
0.0
  9
$PELEVATION
 40
0.0
  9
$THICKNESS
 40
0.0
  9
$LIMCHECK
 70
     0
  9
$BLIPMODE
 70
     0
  9
$CHAMFERA
 40
0.5
  9
$CHAMFERB
 40
0.5
  9
$SKPOLY
 70
     0
  9
$TDCREATE
 40
2451955.1727028699
  9
$TDUPDATE
 40
2454732.6789011802
  9
$TDINDWG
 40
0.1006861343
  9
$TDUSRTIMER
 40
0.1006859606
  9
$USRTIMER
 70
     1
  9
$ANGBASE
 50
0.0
  9
$ANGDIR
 70
     0
  9
$PDMODE
 70
     0
  9
$PDSIZE
 40
0.0
  9
$PLINEWID
 40
0.0
  9
$COORDS
 70
     1
  9
$SPLFRAME
 70
     0
  9
$SPLINETYPE
 70
     6
  9
$SPLINESEGS
 70
     8
  9
$ATTDIA
 70
     0
  9
$ATTREQ
 70
     1
  9
$HANDLING
 70
 22529
  9
$HANDSEED
  5
2FBF
  9
$SURFTAB1
 70
     6
  9
$SURFTAB2
 70
     6
  9
$SURFTYPE
 70
     6
  9
$SURFU
 70
     6
  9
$SURFV
 70
     6
  9
$UCSNAME
  2

  9
$UCSORG
 10
0.0
 20
0.0
 30
0.0
  9
$UCSXDIR
 10
1.0
 20
0.0
 30
0.0
  9
$UCSYDIR
 10
0.0
 20
1.0
 30
0.0
  9
$PUCSNAME
  2

  9
$PUCSORG
 10
0.0
 20
0.0
 30
0.0
  9
$PUCSXDIR
 10
1.0
 20
0.0
 30
0.0
  9
$PUCSYDIR
 10
0.0
 20
1.0
 30
0.0
  9
$USERI1
 70
     0
  9
$USERI2
 70
     0
  9
$USERI3
 70
     0
  9
$USERI4
 70
     0
  9
$USERI5
 70
     0
  9
$USERR1
 40
0.0
  9
$USERR2
 40
0.0
  9
$USERR3
 40
0.0
  9
$USERR4
 40
0.0
  9
$USERR5
 40
0.0
  9
$WORLDVIEW
 70
     1
  9
$SHADEDGE
 70
     3
  9
$SHADEDIF
 70
    70
  9
$TILEMODE
 70
     1
  9
$MAXACTVP
 70
    48
  9
$PLIMCHECK
 70
     0
  9
$PEXTMIN
 10
1.049636599258096
 20
0.7996597240971113
 30
-0.0015258207003583
  9
$PEXTMAX
 10
9.4503627310769716
 20
7.2003400826974584
 30
0.0000000349246037
  9
$PLIMMIN
 10
-0.2500002402958907
 20
-0.2499999962453767
  9
$PLIMMAX
 10
10.74999951940821
 20
8.2499997634587316
  9
$UNITMODE
 70
     0
  9
$VISRETAIN
 70
     1
  9
$PLINEGEN
 70
     0
  9
$PSLTSCALE
 70
     1
  0
ENDSEC
  0
SECTION
  2
TABLES
  0
TABLE
  2
VPORT
 70
     2
  0
VPORT
  2
*ACTIVE
 70
     0
 10
0.0
 20
0.0
 11
1.0
 21
1.0
 12
35.562155796922859
 22
17.51433414160735
 13
0.0
 23
0.0
 14
0.5
 24
0.5
 15
0.5
 25
0.5
 16
0.0
 26
0.0
 36
1.0
 17
0.0
 27
0.0
 37
0.0
 40
131.08835389943991
 41
1.531806615776081
 42
50.0
 43
0.0
 44
0.0
 50
0.0
 51
0.0
 71
     0
 72
   100
 73
     1
 74
     3
 75
     0
 76
     0
 77
     0
 78
     0
  0
ENDTAB
  0
TABLE
  2
LTYPE
 70
     2
  0
LTYPE
  2
CONTINUOUS
 70
     0
  3
Solid line
 72
    65
 73
     0
 40
0.0
  0
LTYPE
  2
CENTER
 70
     0
  3
__ . __
 72
    65
 73
     4
 40
7.0
 49
4.0
 49
-1.0
 49
1.0
 49
-1.0
  0
ENDTAB
  0
TABLE
  2
LAYER
 70
     1
  0
LAYER
  2
0
 70
     0
 62
     7
  6
CONTINUOUS
  0
ENDTAB
  0
TABLE
  2
STYLE
 70
     1
  0
STYLE
  2
STANDARD
 70
     0
 40
0.0
 41
1.0
 50
0.0
 71
     0
 42
0.2
  3
txt
  4

  0
ENDTAB
  0
TABLE
  2
VIEW
 70
     0
  0
ENDTAB
  0
TABLE
  2
UCS
 70
     0
  0
ENDTAB
  0
TABLE
  2
APPID
 70
    19
  0
APPID
  2
ACAD
 70
     0
  0
APPID
  2
GENIUS_GENODEF_13
 70
     0
  0
APPID
  2
ACAD_DSTYLE_DIMARC_LENGTH_
 70
     0
  0
APPID
  2
ACAD_DSTYLE_DIMJOGGED_JOGA
 70
     0
  0
APPID
  2
GENIUS_GENOBJ-N-FIL_13
 70
     0
  0
APPID
  2
ACAD_MLEADERVER
 70
     0
  0
APPID
  2
MCAD_NO_VIS
 70
     0
  0
APPID
  2
ACAD_TEMP_GRAPHIC
 70
     0
  0
APPID
  2
AD_DRAW
 70
     0
  0
APPID
  2
ACATTRIBSERVICES
 70
     0
  0
APPID
  2
DESIGNERASSEMBLIES
 70
     0
  0
APPID
  2
ACADM_DIM_EDIT
 70
     0
  0
APPID
  2
AMDT_DM_ADJ
 70
     0
  0
APPID
  2
GENIUS_GENSCREG_15
 70
     0
  0
APPID
  2
GENIUS_GENOBJ-N-SDF_13
 70
     0
  0
APPID
  2
ACAD_DSTYLE_DIM_LINETYPE
 70
     0
  0
APPID
  2
ACAD_DSTYLE_DIM_EXT1_LINETYPE
 70
     0
  0
APPID
  2
ACAD_DSTYLE_DIM_EXT2_LINETYPE
 70
     0
  0
APPID
  2
ACAD_EXEMPT_FROM_CAD_STANDARDS
 70
     0
  0
ENDTAB
  0
TABLE
  2
DIMSTYLE
 70
     1
  0
DIMSTYLE
  2
STANDARD
 70
     0
  3

  4

  5

  6

  7

 40
1.0
 41
0.18
 42
0.0625
 43
0.38
 44
0.18
 45
0.0
 46
0.0
 47
0.0
 48
0.0
140
0.18
141
0.09
142
0.0
143
25.399999999999999
144
1.0
145
0.0
146
1.0
147
0.09
 71
     0
 72
     0
 73
     1
 74
     1
 75
     0
 76
     0
 77
     0
 78
     0
170
     0
171
     2
172
     0
173
     0
174
     0
175
     0
176
     0
177
     0
178
     0
  0
ENDTAB
  0
ENDSEC
  0
SECTION
  2
BLOCKS
  0
BLOCK
  8
0
  2
$MODEL_SPACE
 70
     0
 10
0.0
 20
0.0
 30
0.0
  3
$MODEL_SPACE
  1

  0
ENDBLK
  5
21
  8
0
  0
BLOCK
 67
     1
  8
0
  2
$PAPER_SPACE
 70
     0
 10
0.0
 20
0.0
 30
0.0
  3
$PAPER_SPACE
  1

  0
ENDBLK
  5
60
 67
     1
  8
0
  0
ENDSEC
  0
SECTION
  2
ENTITIES
  0
LINE
  5
19B8
  8
0
  6
CENTER
 10
131.3472009144794
 20
0.0
 30
0.0
 11
94.282740914479405
 21
0.0
 31
0.0
  0
LINE
  5
19BB
  8
0
 10
53.0
 20
-14.0
 30
0.0
 11
53.0
 21
-5.0
 31
0.0
  0
LINE
  5
19BC
  8
0
 10
53.0
 20
5.0
 30
0.0
 11
53.0
 21
14.0
 31
0.0
  0
LINE
  5
19BD
  8
0
  6
CENTER
 10
0.0
 20
0.0
 30
0.0
 11
-24.65375999999992
 21
-42.701559999999972
 31
0.0
  0
LINE
  5
19BE
  8
0
  6
CENTER
 10
46.0
 20
-20.0
 30
0.0
 11
46.0
 21
58.44785000000001
 31
0.0
  0
LINE
  5
19C1
  8
0
 10
50.0
 20
-4.0
 30
0.0
 11
50.0
 21
4.0
 31
0.0
  0
LINE
  5
19C3
  8
0
 10
42.0
 20
-4.0
 30
0.0
 11
41.999999999999972
 21
4.0
 31
0.0
  0
LINE
  5
19CA
  8
0
 10
41.0
 20
43.000030000000152
 30
0.0
 11
41.0
 21
31.20001000000002
 31
0.0
  0
LINE
  5
19CB
  8
0
 10
51.0
 20
43.000030000000152
 30
0.0
 11
51.0
 21
31.20001000000002
 31
0.0
  0
LINE
  5
19CC
  8
0
 10
38.25
 20
22.0300900000002
 30
0.0
 11
38.25
 21
17.900029999999781
 31
0.0
  0
LINE
  5
19CE
  8
0
 10
53.75
 20
22.0300900000002
 30
0.0
 11
53.75
 21
17.900029999999781
 31
0.0
  0
LINE
  5
19CF
  8
0
 10
59.939329999999927
 20
52.000030000000152
 30
0.0
 11
32.060659999999977
 21
52.000030000000152
 31
0.0
  0
LINE
  5
19D2
  8
0
 10
52.0
 20
4.0
 30
0.0
 11
31.224969999999981
 21
4.0
 31
0.0
  0
LINE
  5
19D4
  8
0
  6
CENTER
 10
112.18438091447941
 20
55.703910000000178
 30
0.0
 11
112.18438091447941
 21
-45.481319999999869
 31
0.0
  0
LINE
  5
19D5
  8
0
  6
CENTER
 10
-60.242560000000019
 20
0.0
 30
0.0
 11
60.242560000000019
 21
0.0
 31
0.0
  0
LINE
  5
19D6
  8
0
 10
120.68438091447941
 20
31.868379999999888
 30
0.0
 11
120.68438091447941
 21
-6.3999899999998879
 31
0.0
  0
LINE
  5
19D7
  8
0
 10
103.68438091447941
 20
31.868379999999888
 30
0.0
 11
103.68438091447941
 21
-6.2662900000000263
 31
0.0
  0
LINE
  5
19D8
  8
0
 10
116.2388009144794
 20
-40.0
 30
0.0
 11
108.1299709144794
 21
-40.0
 31
0.0
  0
LINE
  5
19DC
  8
0
 10
107.93438091447941
 20
-4.0
 30
0.0
 11
103.93438091447941
 21
-4.0
 31
0.0
  0
LINE
  5
19DD
  8
0
  6
CENTER
 10
123.22445091447941
 20
-9.5
 30
0.0
 11
98.919830914479476
 21
-9.5
 31
0.0
  0
LINE
  5
19DE
  8
0
 10
116.2388009144794
 20
40.000030000000152
 30
0.0
 11
115.0343909144794
 21
40.000030000000152
 31
0.0
  0
LINE
  5
19DF
  8
0
 10
52.0
 20
-4.0
 30
0.0
 11
31.224969999999981
 21
-4.0
 31
0.0
  0
LINE
  5
19E0
  8
0
 10
52.0
 20
-15.0
 30
0.0
 11
38.405729999999949
 21
-15.0
 31
0.0
  0
LINE
  5
19E1
  8
0
 10
103.7184409144793
 20
32.127170000000199
 30
0.0
 11
105.2321709144794
 21
37.776460000000043
 31
0.0
  0
LINE
  5
19E2
  8
0
 10
120.6503009144794
 20
32.127179999999953
 30
0.0
 11
119.1365809144795
 21
37.77646999999979
 31
0.0
  0
LINE
  5
19E3
  8
0
 10
119.1366009144794
 20
-37.776460000000043
 30
0.0
 11
120.65032091447939
 21
-32.127169999999751
 31
0.0
  0
LINE
  5
19E4
  8
0
 10
105.82797091447939
 20
-15.0
 30
0.0
 11
105.82797091447939
 21
-36.236750000000029
 31
0.0
  0
LINE
  5
19E5
  8
0
 10
118.54080091447941
 20
-15.0
 30
0.0
 11
118.54080091447941
 21
-36.296910000000018
 31
0.0
  0
LINE
  5
19E6
  8
0
 10
38.73126000000002
 20
-4.0
 30
0.0
 11
38.73126000000002
 21
-15.0
 31
0.0
  0
LINE
  5
19E7
  8
0
 10
107.6845009144794
 20
11.284999999999849
 30
0.0
 11
104.7078709144794
 21
14.661320000000149
 31
0.0
  0
LINE
  5
19E8
  8
0
 10
116.6842609144794
 20
11.285030000000001
 30
0.0
 11
119.66088091447941
 21
14.66135000000031
 31
0.0
  0
LINE
  5
19E9
  8
0
 10
110.33441091447941
 20
52.0
 30
0.0
 11
114.0343909144794
 21
52.0
 31
0.0
  0
LINE
  5
19EA
  8
0
 10
109.33441091447941
 20
51.0
 30
0.0
 11
109.33441091447941
 21
31.20001000000002
 31
0.0
  0
LINE
  5
19EB
  8
0
 10
103.95776091447939
 20
15.0
 30
0.0
 11
103.93438091447941
 21
15.0
 31
0.0
  0
LINE
  5
19EC
  8
0
 10
107.93438091447941
 20
4.0
 30
0.0
 11
103.93438091447941
 21
4.0
 31
0.0
  0
LINE
  5
19ED
  8
0
 10
107.93438091447941
 20
-4.0
 30
0.0
 11
107.93438091447941
 21
-15.0
 31
0.0
  0
LINE
  5
19EE
  8
0
 10
107.93438091447941
 20
-15.0
 30
0.0
 11
103.93438091447941
 21
-15.0
 31
0.0
  0
LINE
  5
19EF
  8
0
 10
107.93438091447941
 20
10.62369000000035
 30
0.0
 11
107.93438091447941
 21
4.0
 31
0.0
  0
LINE
  5
19F4
  8
0
 10
108.18438091447941
 20
12.0
 30
0.0
 11
108.18438091447941
 21
-14.428189999999629
 31
0.0
  0
LINE
  5
19F5
  8
0
 10
108.18438091447941
 20
39.428229999999978
 30
0.0
 11
108.18438091447941
 21
29.389619999999919
 31
0.0
  0
LINE
  5
19F6
  8
0
 10
104.43438091447941
 20
27.20001000000002
 30
0.0
 11
104.43438091447941
 21
17.900000000000091
 31
0.0
  0
LINE
  5
19F7
  8
0
 10
106.43438091447941
 20
29.20001000000002
 30
0.0
 11
117.93438091447941
 21
29.20001000000002
 31
0.0
  0
LINE
  5
19F8
  8
0
 10
107.1592109144794
 20
12.0
 30
0.0
 11
117.20959091447941
 21
12.0
 31
0.0
  0
LINE
  5
19F9
  8
0
 10
120.43438091447941
 20
-12.5999999999999
 30
0.0
 11
120.93438091447941
 21
-12.5999999999999
 31
0.0
  0
LINE
  5
19FA
  8
0
 10
120.43438091447941
 20
-6.3999899999998879
 30
0.0
 11
120.93438091447941
 21
-6.3999899999998879
 31
0.0
  0
LINE
  5
19FC
  8
0
 10
115.0343909144794
 20
51.0
 30
0.0
 11
115.0343909144794
 21
31.20001000000002
 31
0.0
  0
LINE
  5
19FD
  8
0
 10
120.41101091447941
 20
15.0
 30
0.0
 11
120.43438091447941
 21
15.0
 31
0.0
  0
LINE
  5
19FE
  8
0
 10
116.43438091447941
 20
4.0
 30
0.0
 11
120.43438091447941
 21
4.0
 31
0.0
  0
LINE
  5
19FF
  8
0
 10
116.43438091447941
 20
-4.0
 30
0.0
 11
116.43438091447941
 21
-15.0
 31
0.0
  0
LINE
  5
1A00
  8
0
 10
116.43438091447941
 20
-4.0
 30
0.0
 11
120.43438091447941
 21
-4.0
 31
0.0
  0
LINE
  5
1A01
  8
0
 10
116.43438091447941
 20
-15.0
 30
0.0
 11
120.43438091447941
 21
-15.0
 31
0.0
  0
LINE
  5
1A02
  8
0
 10
116.43438091447941
 20
10.62369000000035
 30
0.0
 11
116.43438091447941
 21
4.0
 31
0.0
  0
LINE
  5
1A07
  8
0
 10
116.18438091447941
 20
12.0
 30
0.0
 11
116.18438091447941
 21
-14.428189999999629
 31
0.0
  0
LINE
  5
1A08
  8
0
 10
116.18438091447941
 20
39.428229999999978
 30
0.0
 11
116.18438091447941
 21
29.389619999999919
 31
0.0
  0
LINE
  5
1A09
  8
0
 10
119.93438091447941
 20
27.20001000000002
 30
0.0
 11
119.93438091447941
 21
17.900000000000091
 31
0.0
  0
LINE
  5
1A0C
  8
0
 10
118.54080091447941
 20
29.105857523701609
 30
0.0
 11
118.54080091447941
 21
37.634649999999958
 31
0.0
  0
LINE
  5
1A0D
  8
0
 10
105.82797091447939
 20
29.105860705564279
 30
0.0
 11
105.82797091447939
 21
37.6595900000002
 31
0.0
  0
LINE
  5
1A0E
  8
0
 10
38.405729999999949
 20
15.0
 30
0.0
 11
52.0
 21
15.0
 31
0.0
  0
LINE
  5
1A0F
  8
0
  6
CENTER
 10
0.0
 20
-44.662180000000262
 30
0.0
 11
0.0
 21
44.662180000000262
 31
0.0
  0
LINE
  5
1A11
  8
0
 10
121.43438091447941
 20
-6.8999899999998879
 30
0.0
 11
121.43438091447941
 21
-12.099999999999911
 31
0.0
  0
LINE
  5
1A12
  8
0
 10
121.68438091447941
 20
-28.226059999999961
 30
0.0
 11
121.68438091447941
 21
-33.426069999999982
 31
0.0
  0
LINE
  5
1A13
  8
0
 10
120.18438091447941
 20
-33.926069999999982
 30
0.0
 11
121.18438091447941
 21
-33.926069999999982
 31
0.0
  0
LINE
  5
1A14
  8
0
 10
120.68438091447941
 20
-27.726059999999961
 30
0.0
 11
121.18438091447941
 21
-27.726059999999961
 31
0.0
  0
LINE
  5
1A15
  8
0
 10
121.68438091447941
 20
28.226059999999961
 30
0.0
 11
121.68438091447941
 21
33.426069999999982
 31
0.0
  0
LINE
  5
1A16
  8
0
  6
CENTER
 10
123.22445091447941
 20
30.826070000000069
 30
0.0
 11
98.919830914479476
 21
30.826070000000069
 31
0.0
  0
LINE
  5
1A17
  8
0
 10
120.68438091447941
 20
27.726059999999961
 30
0.0
 11
121.18438091447941
 21
27.726059999999961
 31
0.0
  0
LINE
  5
1A18
  8
0
 10
120.1683009144794
 20
33.926069999999982
 30
0.0
 11
121.18438091447941
 21
33.926069999999982
 31
0.0
  0
LINE
  5
1A19
  8
0
 10
103.93438091447941
 20
15.0
 30
0.0
 11
103.93438091447941
 21
-15.0
 31
0.0
  0
LINE
  5
1A1A
  8
0
 10
120.43438091447941
 20
15.0
 30
0.0
 11
120.43438091447941
 21
-15.0
 31
0.0
  0
LINE
  5
1A1C
  8
0
 10
103.68438091447941
 20
-12.73369999999977
 30
0.0
 11
103.68438091447941
 21
-31.868339999999989
 31
0.0
  0
LINE
  5
1A1D
  8
0
 10
120.68438091447941
 20
-12.5999999999999
 30
0.0
 11
120.68438091447941
 21
-31.868339999999989
 31
0.0
  0
LINE
  5
1A1E
  8
0
 10
103.68438091447941
 20
-34.07605999999987
 30
0.0
 11
104.18438091447941
 21
-34.07605999999987
 31
0.0
  0
LINE
  5
1A1F
  8
0
 10
103.68438091447941
 20
34.076070000000072
 30
0.0
 11
104.18438091447941
 21
34.076070000000072
 31
0.0
  0
LINE
  5
1A20
  8
0
 10
104.68438091447941
 20
-35.82605999999987
 30
0.0
 11
104.7095809144794
 21
-35.82605999999987
 31
0.0
  0
LINE
  5
1A21
  8
0
 10
103.68438091447941
 20
-34.07605999999987
 30
0.0
 11
103.68438091447941
 21
-34.82605999999987
 31
0.0
  0
LINE
  5
1A22
  8
0
 10
120.68438091447941
 20
-33.926069999999982
 30
0.0
 11
120.68438091447941
 21
-34.82605999999987
 31
0.0
  0
LINE
  5
1A23
  8
0
 10
105.2321909144794
 20
-37.776449999999841
 30
0.0
 11
103.71846091447939
 21
-32.127149999999801
 31
0.0
  0
LINE
  5
1A24
  8
0
 10
103.68438091447941
 20
34.076070000000072
 30
0.0
 11
103.68438091447941
 21
34.826070000000072
 31
0.0
  0
LINE
  5
1A25
  8
0
 10
120.68438091447941
 20
33.926069999999982
 30
0.0
 11
120.68438091447941
 21
34.826070000000072
 31
0.0
  0
LINE
  5
1A26
  8
0
  6
CENTER
 10
35.435209999999977
 20
-9.5
 30
0.0
 11
58.971189999999979
 21
-9.5
 31
0.0
  0
LINE
  5
1A28
  8
0
  6
CENTER
 10
123.22445091447941
 20
-30.82605999999987
 30
0.0
 11
98.919830914479476
 21
-30.82605999999987
 31
0.0
  0
LINE
  5
1A29
  8
0
 10
109.33441091447941
 20
40.000030000000152
 30
0.0
 11
108.1299709144794
 21
40.000030000000152
 31
0.0
  0
LINE
  5
1A32
  8
0
 10
-14.012190000000031
 20
-26.63376999999991
 30
0.0
 11
-14.763059999999991
 21
-26.98390999999992
 31
0.0
  0
LINE
  5
1A33
  8
0
 10
-15.362939999999981
 20
-27.959420000000129
 30
0.0
 11
-14.517489999999951
 21
-37.24926999999979
 31
0.0
  0
LINE
  5
1A35
  8
0
 10
-31.035219999999981
 20
-25.45510000000013
 30
0.0
 11
-25.303460000000079
 21
-37.746900000000089
 31
0.0
  0
LINE
  5
1A36
  8
0
 10
-6.5273500000000686
 20
-39.604820000000018
 30
0.0
 11
-20.038090000000011
 21
-40.786849999999951
 31
0.0
  0
LINE
  5
1A37
  8
0
 10
-16.059510000000039
 20
-25.451759999999918
 30
0.0
 11
-15.22019999999997
 21
-35.045090000000073
 31
0.0
  0
LINE
  5
1A38
  8
0
 10
-1.0395000000000889
 20
-32.280339999999789
 30
0.0
 11
-12.96412000000009
 21
-37.840879999999743
 31
0.0
  0
LINE
  5
1A39
  8
0
 10
-24.965270000000029
 20
-21.98840000000018
 30
0.0
 11
-31.278919999999971
 21
-24.932499999999891
 31
0.0
  0
LINE
  5
1A3A
  8
0
 10
33.005390000000027
 20
-12.64694999999983
 30
0.0
 11
37.080979999999947
 21
-14.999989999999791
 31
0.0
  0
ARC
  5
1A3E
  8
0
 10
52.0
 20
-14.0
 30
0.0
 40
1.0
 50
270.0
 51
0.0
  0
ARC
  5
1A3F
  8
0
 10
52.0
 20
-5.0
 30
0.0
 40
1.0
 50
0.0
 51
90.0
  0
ARC
  5
1A40
  8
0
 10
52.0
 20
5.0
 30
0.0
 40
1.0
 50
270.0
 51
0.0
  0
ARC
  5
1A43
  8
0
 10
46.0
 20
32.500030000000152
 30
0.0
 40
8.0
 50
59.99999499999042
 51
119.99999999999579
  0
ARC
  5
1A44
  8
0
 10
49.0
 20
31.20001000000002
 30
0.0
 40
2.0
 50
270.0
 51
0.0000086514148811
  0
ARC
  5
1A45
  8
0
 10
43.0
 20
31.20001000000002
 30
0.0
 40
2.0
 50
180.000010000001
 51
270.0
  0
ARC
  5
1A46
  8
0
 10
46.0
 20
43.000030000000152
 30
0.0
 40
5.0
 50
359.999989999999
 51
180.000010000001
  0
ARC
  5
1A47
  8
0
 10
27.0
 20
48.000030000000152
 30
0.0
 40
35.0
 50
324.7524900000069
 51
3.4745943000042439
  0
ARC
  5
1A48
  8
0
 10
63.75
 20
22.0300900000002
 30
0.0
 40
10.0
 50
144.75250000000301
 51
180.000010000001
  0
ARC
  5
1A49
  8
0
 10
28.25
 20
22.0300900000002
 30
0.0
 40
10.0
 50
359.999989999999
 51
35.247502000003728
  0
ARC
  5
1A4A
  8
0
 10
65.0
 20
48.000030000000152
 30
0.0
 40
35.0
 50
176.5254100000094
 51
215.24750999999301
  0
ARC
  5
1A4B
  8
0
 10
46.0
 20
17.900029999999781
 30
0.0
 40
7.75
 50
180.000010000001
 51
201.97471714183729
  0
ARC
  5
1A4C
  8
0
 10
46.0
 20
17.900029999999781
 30
0.0
 40
7.75
 50
333.16897343824621
 51
359.999989999999
  0
ARC
  5
1A4D
  8
0
 10
46.0
 20
-9.5
 30
0.0
 40
6.0
 50
246.44354000000601
 51
293.55646430910451
  0
ARC
  5
1A50
  8
0
 10
59.939329999999927
 20
50.000030000000152
 30
0.0
 40
2.0
 50
3.4745943000042439
 51
89.999996000000905
  0
ARC
  5
1A51
  8
0
 10
32.060659999999977
 20
50.000030000000152
 30
0.0
 40
2.0
 50
89.999996000000905
 51
176.5254100000094
  0
ARC
  5
1A52
  8
0
 10
104.68438091447941
 20
31.868379999999888
 30
0.0
 40
1.0
 50
164.9999899999853
 51
180.000010000001
  0
ARC
  5
1A53
  8
0
 10
119.68438091447941
 20
31.868379999999888
 30
0.0
 40
1.0
 50
0.0
 51
14.999999999994451
  0
ARC
  5
1A54
  8
0
 10
104.68438091447941
 20
-31.868339999999989
 30
0.0
 40
1.0
 50
179.99998999999889
 51
194.9999999999944
  0
ARC
  5
1A55
  8
0
 10
119.68438091447941
 20
-31.868339999999989
 30
0.0
 40
1.0
 50
345.00000000000551
 51
0.0
  0
ARC
  5
1A56
  8
0
 10
108.1299709144794
 20
37.000030000000152
 30
0.0
 40
3.0
 50
90.00000299999769
 51
164.9999899999853
  0
ARC
  5
1A57
  8
0
 10
116.2388009144794
 20
37.000030000000152
 30
0.0
 40
3.0
 50
14.999999999994451
 51
90.00000299999769
  0
ARC
  5
1A58
  8
0
 10
108.1299709144794
 20
-37.0
 30
0.0
 40
3.0
 50
195.0000100000147
 51
270.0
  0
ARC
  5
1A59
  8
0
 10
116.2388009144794
 20
-37.0
 30
0.0
 40
3.0
 50
270.0
 51
345.00000000000551
  0
ARC
  5
1A5A
  8
0
 10
106.93438091447941
 20
10.62369000000035
 30
0.0
 40
1.0
 50
0.0
 51
41.399999999999501
  0
ARC
  5
1A5B
  8
0
 10
117.43438091447941
 20
10.62369000000035
 30
0.0
 40
1.0
 50
138.60000000000039
 51
180.000010000001
  0
ARC
  5
1A5C
  8
0
 10
103.95776091447939
 20
14.0
 30
0.0
 40
1.0
 50
41.399999999999501
 51
90.00000299999769
  0
ARC
  5
1A5D
  8
0
 10
106.43438091447941
 20
27.20001000000002
 30
0.0
 40
2.0
 50
89.999996000000905
 51
180.000010000001
  0
ARC
  5
1A5E
  8
0
 10
112.18438091447941
 20
32.5
 30
0.0
 40
8.0
 50
110.87006999999809
 51
119.99999999999579
  0
ARC
  5
1A5F
  8
0
 10
112.18438091447941
 20
17.900000000000091
 30
0.0
 40
7.75
 50
180.000010000001
 51
229.57810000001271
  0
ARC
  5
1A60
  8
0
 10
112.18438091447941
 20
-7.5
 30
0.0
 40
8.0
 50
240.00000000000401
 51
299.99999999999591
  0
ARC
  5
1A61
  8
0
 10
107.33441091447941
 20
31.20001000000002
 30
0.0
 40
2.0
 50
270.0
 51
0.0000050089374039
  0
ARC
  5
1A62
  8
0
 10
110.33441091447941
 20
51.0
 30
0.0
 40
1.0
 50
89.999996000000905
 51
180.000010000001
  0
ARC
  5
1A64
  8
0
 10
114.0343909144794
 20
51.0
 30
0.0
 40
1.0
 50
0.0
 51
90.00000299999769
  0
ARC
  5
1A65
  8
0
 10
117.0343909144794
 20
31.20001000000002
 30
0.0
 40
2.0
 50
179.99998999999889
 51
270.0
  0
ARC
  5
1A66
  8
0
 10
117.93438091447941
 20
27.20001000000002
 30
0.0
 40
2.0
 50
0.0
 51
90.00000299999769
  0
ARC
  5
1A67
  8
0
 10
112.18438091447941
 20
32.5
 30
0.0
 40
8.0
 50
60.000002000001302
 51
69.129929000002221
  0
ARC
  5
1A68
  8
0
 10
112.18438091447941
 20
17.900000000000091
 30
0.0
 40
7.75
 50
310.4219199999917
 51
0.0
  0
ARC
  5
1A69
  8
0
 10
120.93438091447941
 20
-12.099999999999911
 30
0.0
 40
0.5
 50
270.0
 51
0.0
  0
ARC
  5
1A6A
  8
0
 10
120.93438091447941
 20
-6.8999899999998879
 30
0.0
 40
0.5
 50
0.0
 51
90.00000299999769
  0
ARC
  5
1A6B
  8
0
 10
120.41101091447941
 20
14.0
 30
0.0
 40
1.0
 50
90.00000299999769
 51
138.60000000000039
  0
ARC
  5
1A6C
  8
0
 10
121.18438091447941
 20
-28.226059999999961
 30
0.0
 40
0.5
 50
0.0
 51
90.00000299999769
  0
ARC
  5
1A6D
  8
0
 10
121.18438091447941
 20
-33.426069999999982
 30
0.0
 40
0.5
 50
270.0
 51
0.0
  0
ARC
  5
1A6E
  8
0
 10
121.18438091447941
 20
28.226059999999961
 30
0.0
 40
0.5
 50
270.0
 51
0.0
  0
ARC
  5
1A6F
  8
0
 10
121.18438091447941
 20
33.426069999999982
 30
0.0
 40
0.5
 50
0.0
 51
90.00000299999769
  0
ARC
  5
1A70
  8
0
 10
104.68438091447941
 20
-34.82605999999987
 30
0.0
 40
1.0
 50
179.99998999999889
 51
270.0
  0
ARC
  5
1A71
  8
0
 10
119.68438091447941
 20
-34.82605999999987
 30
0.0
 40
1.0
 50
270.0
 51
0.0
  0
ARC
  5
1A72
  8
0
 10
104.68438091447941
 20
34.826070000000072
 30
0.0
 40
1.0
 50
90.00000299999769
 51
180.000010000001
  0
ARC
  5
1A73
  8
0
 10
119.68438091447941
 20
34.826070000000072
 30
0.0
 40
1.0
 50
0.0
 51
90.00000299999769
  0
ARC
  5
1A75
  8
0
 10
38.405729999999949
 20
17.0
 30
0.0
 40
2.0
 50
203.87621000000189
 51
270.0
  0
ARC
  5
1A76
  8
0
 10
38.405729999999949
 20
-17.0
 30
0.0
 40
2.0
 50
90.00000299999769
 51
156.123789999998
  0
ARC
  5
1A7A
  8
0
  6
CENTER
 10
0.0
 20
0.0
 30
0.0
 40
41.0
 50
230.18021999999479
 51
250.1347500000027
  0
ARC
  5
1A85
  8
0
 10
-12.744329999999991
 20
-29.352719999999859
 30
0.0
 40
3.0
 50
66.530523000002404
 51
115.0000000000048
  0
ARC
  5
1A86
  8
0
 10
-6.0915600000000723
 20
-44.585790000000088
 30
0.0
 40
5.0
 50
82.220096000002442
 51
95.000001999999157
  0
ARC
  5
1A88
  8
0
 10
-19.04809999999997
 20
-25.71321999999963
 30
0.0
 40
3.0
 50
4.999999899984565
 51
53.469347000003751
  0
ARC
  5
1A8A
  8
0
 10
-14.340429999999969
 20
-27.890229999999971
 30
0.0
 40
1.0
 50
115.0000000000048
 51
184.99999999999969
  0
ARC
  5
1A8B
  8
0
 10
-35.566749999999949
 20
-27.568199999999699
 30
0.0
 40
5.0
 50
25.000000000004562
 51
37.77968900000333
  0
ARC
  5
1A8C
  8
0
 10
0.0
 20
0.0
 30
0.0
 40
40.0
 50
248.709889999995
 51
336.123789999998
  0
ARC
  5
1A8E
  8
0
 10
0.0
 20
0.0
 30
0.0
 40
29.0
 50
246.53052000000099
 51
347.3643699999904
  0
ARC
  5
1A90
  8
0
 10
31.224969999999981
 20
-7.0
 30
0.0
 40
3.0
 50
90.00000299999769
 51
167.36436999999029
  0
ARC
  5
1A91
  8
0
 10
31.224969999999981
 20
7.0
 30
0.0
 40
3.0
 50
192.6356300000096
 51
270.0
  0
ARC
  5
1A93
  8
0
 10
0.0
 20
0.0
 30
0.0
 40
32.0
 50
270.37383000000227
 51
334.17830000000129
  0
ARC
  5
1A94
  8
0
 10
-25.38791000000003
 20
-21.08208999999988
 30
0.0
 40
1.0
 50
295.00000000000477
 51
39.706225999998253
  0
ARC
  5
1A95
  8
0
 10
0.2283600000000661
 20
-34.999249999999847
 30
0.0
 40
3.0
 50
90.373838999998156
 51
115.0000000000048
  0
ARC
  5
1A97
  8
0
 10
31.505369999999971
 20
-15.24501999999984
 30
0.0
 40
3.0
 50
60.000002000001302
 51
154.17830000000129
  0
POLYLINE
  5
1A98
  8
0
 10
103.93438091447941
 20
-6.2499999000000006
 30
0.0
 66
     1
 70
     8
  0
VERTEX
  8
0
  5
2E39
 10
103.934
 20
-6.25000
 30
0.000000
  70
    32
  0
VERTEX
  8
0
  5
2E3A
 10
103.873
 20
-6.25098
 30
0.000000
  70
    32
  0
VERTEX
  8
0
  5
2E3B
 10
103.812
 20
-6.25391
 30
0.000000
  70
    32
  0
VERTEX
  8
0
  5
2E3C
 10
103.750
 20
-6.25881
 30
0.000000
  70
    32
  0
VERTEX
  8
0
  5
2E3D
 10
103.689
 20
-6.26565
 30
0.000000
  70
    32
  0
VERTEX
  8
0
  5
2E3E
 10
103.628
 20
-6.27444
 30
0.000000
  70
    32
  0
VERTEX
  8
0
  5
2E3F
 10
103.568
 20
-6.28518
 30
0.000000
  70
    32
  0
VERTEX
  8
0
  5
2E40
 10
103.507
 20
-6.29785
 30
0.000000
  70
    32
  0
VERTEX
  8
0
  5
2E41
 10
103.447
 20
-6.31245
 30
0.000000
  70
    32
  0
VERTEX
  8
0
  5
2E42
 10
103.387
 20
-6.32897
 30
0.000000
  70
    32
  0
VERTEX
  8
0
  5
2E43
 10
103.327
 20
-6.34740
 30
0.000000
  70
    32
  0
VERTEX
  8
0
  5
2E44
 10
103.268
 20
-6.36773
 30
0.000000
  70
    32
  0
VERTEX
  8
0
  5
2E45
 10
103.209
 20
-6.38994
 30
0.000000
  70
    32
  0
VERTEX
  8
0
  5
2E46
 10
103.150
 20
-6.41403
 30
0.000000
  70
    32
  0
VERTEX
  8
0
  5
2E47
 10
103.092
 20
-6.43998
 30
0.000000
  70
    32
  0
VERTEX
  8
0
  5
2E48
 10
103.035
 20
-6.46777
 30
0.000000
  70
    32
  0
VERTEX
  8
0
  5
2E49
 10
102.978
 20
-6.49739
 30
0.000000
  70
    32
  0
VERTEX
  8
0
  5
2E4A
 10
102.921
 20
-6.52882
 30
0.000000
  70
    32
  0
VERTEX
  8
0
  5
2E4B
 10
102.865
 20
-6.56203
 30
0.000000
  70
    32
  0
VERTEX
  8
0
  5
2E4C
 10
102.810
 20
-6.59702
 30
0.000000
  70
    32
  0
VERTEX
  8
0
  5
2E4D
 10
102.756
 20
-6.63376
 30
0.000000
  70
    32
  0
VERTEX
  8
0
  5
2E4E
 10
102.702
 20
-6.67222
 30
0.000000
  70
    32
  0
VERTEX
  8
0
  5
2E4F
 10
102.649
 20
-6.71238
 30
0.000000
  70
    32
  0
VERTEX
  8
0
  5
2E50
 10
102.597
 20
-6.75423
 30
0.000000
  70
    32
  0
VERTEX
  8
0
  5
2E51
 10
102.545
 20
-6.79772
 30
0.000000
  70
    32
  0
VERTEX
  8
0
  5
2E52
 10
102.495
 20
-6.84285
 30
0.000000
  70
    32
  0
VERTEX
  8
0
  5
2E53
 10
102.445
 20
-6.88958
 30
0.000000
  70
    32
  0
VERTEX
  8
0
  5
2E54
 10
102.396
 20
-6.93787
 30
0.000000
  70
    32
  0
VERTEX
  8
0
  5
2E55
 10
102.348
 20
-6.98772
 30
0.000000
  70
    32
  0
VERTEX
  8
0
  5
2E56
 10
102.301
 20
-7.03907
 30
0.000000
  70
    32
  0
VERTEX
  8
0
  5
2E57
 10
102.255
 20
-7.09191
 30
0.000000
  70
    32
  0
VERTEX
  8
0
  5
2E58
 10
102.211
 20
-7.14620
 30
0.000000
  70
    32
  0
VERTEX
  8
0
  5
2E59
 10
102.167
 20
-7.20190
 30
0.000000
  70
    32
  0
VERTEX
  8
0
  5
2E5A
 10
102.124
 20
-7.25899
 30
0.000000
  70
    32
  0
VERTEX
  8
0
  5
2E5B
 10
102.082
 20
-7.31743
 30
0.000000
  70
    32
  0
VERTEX
  8
0
  5
2E5C
 10
102.041
 20
-7.37719
 30
0.000000
  70
    32
  0
VERTEX
  8
0
  5
2E5D
 10
102.002
 20
-7.43822
 30
0.000000
  70
    32
  0
VERTEX
  8
0
  5
2E5E
 10
101.964
 20
-7.50050
 30
0.000000
  70
    32
  0
VERTEX
  8
0
  5
2E5F
 10
101.926
 20
-7.56398
 30
0.000000
  70
    32
  0
VERTEX
  8
0
  5
2E60
 10
101.890
 20
-7.62862
 30
0.000000
  70
    32
  0
VERTEX
  8
0
  5
2E61
 10
101.856
 20
-7.69440
 30
0.000000
  70
    32
  0
VERTEX
  8
0
  5
2E62
 10
101.822
 20
-7.76126
 30
0.000000
  70
    32
  0
VERTEX
  8
0
  5
2E63
 10
101.790
 20
-7.82917
 30
0.000000
  70
    32
  0
VERTEX
  8
0
  5
2E64
 10
101.759
 20
-7.89808
 30
0.000000
  70
    32
  0
VERTEX
  8
0
  5
2E65
 10
101.730
 20
-7.96796
 30
0.000000
  70
    32
  0
VERTEX
  8
0
  5
2E66
 10
101.701
 20
-8.03876
 30
0.000000
  70
    32
  0
VERTEX
  8
0
  5
2E67
 10
101.674
 20
-8.11045
 30
0.000000
  70
    32
  0
VERTEX
  8
0
  5
2E68
 10
101.649
 20
-8.18297
 30
0.000000
  70
    32
  0
VERTEX
  8
0
  5
2E69
 10
101.625
 20
-8.25628
 30
0.000000
  70
    32
  0
VERTEX
  8
0
  5
2E6A
 10
101.602
 20
-8.33034
 30
0.000000
  70
    32
  0
VERTEX
  8
0
  5
2E6B
 10
101.581
 20
-8.40511
 30
0.000000
  70
    32
  0
VERTEX
  8
0
  5
2E6C
 10
101.561
 20
-8.48053
 30
0.000000
  70
    32
  0
VERTEX
  8
0
  5
2E6D
 10
101.542
 20
-8.55657
 30
0.000000
  70
    32
  0
VERTEX
  8
0
  5
2E6E
 10
101.525
 20
-8.63318
 30
0.000000
  70
    32
  0
VERTEX
  8
0
  5
2E6F
 10
101.509
 20
-8.71031
 30
0.000000
  70
    32
  0
VERTEX
  8
0
  5
2E70
 10
101.495
 20
-8.78792
 30
0.000000
  70
    32
  0
VERTEX
  8
0
  5
2E71
 10
101.482
 20
-8.86596
 30
0.000000
  70
    32
  0
VERTEX
  8
0
  5
2E72
 10
101.471
 20
-8.94437
 30
0.000000
  70
    32
  0
VERTEX
  8
0
  5
2E73
 10
101.461
 20
-9.02313
 30
0.000000
  70
    32
  0
VERTEX
  8
0
  5
2E74
 10
101.453
 20
-9.10217
 30
0.000000
  70
    32
  0
VERTEX
  8
0
  5
2E75
 10
101.446
 20
-9.18144
 30
0.000000
  70
    32
  0
VERTEX
  8
0
  5
2E76
 10
101.441
 20
-9.26092
 30
0.000000
  70
    32
  0
VERTEX
  8
0
  5
2E77
 10
101.437
 20
-9.34053
 30
0.000000
  70
    32
  0
VERTEX
  8
0
  5
2E78
 10
101.435
 20
-9.42024
 30
0.000000
  70
    32
  0
VERTEX
  8
0
  5
2E79
 10
101.434
 20
-9.50000
 30
0.000000
  70
    32
  0
VERTEX
  8
0
  5
2E7A
 10
101.435
 20
-9.57976
 30
0.000000
  70
    32
  0
VERTEX
  8
0
  5
2E7B
 10
101.437
 20
-9.65947
 30
0.000000
  70
    32
  0
VERTEX
  8
0
  5
2E7C
 10
101.441
 20
-9.73908
 30
0.000000
  70
    32
  0
VERTEX
  8
0
  5
2E7D
 10
101.446
 20
-9.81856
 30
0.000000
  70
    32
  0
VERTEX
  8
0
  5
2E7E
 10
101.453
 20
-9.89783
 30
0.000000
  70
    32
  0
VERTEX
  8
0
  5
2E7F
 10
101.461
 20
-9.97687
 30
0.000000
  70
    32
  0
VERTEX
  8
0
  5
2E80
 10
101.471
 20
-10.0556
 30
0.000000
  70
    32
  0
VERTEX
  8
0
  5
2E81
 10
101.482
 20
-10.1340
 30
0.000000
  70
    32
  0
VERTEX
  8
0
  5
2E82
 10
101.495
 20
-10.2121
 30
0.000000
  70
    32
  0
VERTEX
  8
0
  5
2E83
 10
101.509
 20
-10.2897
 30
0.000000
  70
    32
  0
VERTEX
  8
0
  5
2E84
 10
101.525
 20
-10.3668
 30
0.000000
  70
    32
  0
VERTEX
  8
0
  5
2E85
 10
101.542
 20
-10.4434
 30
0.000000
  70
    32
  0
VERTEX
  8
0
  5
2E86
 10
101.561
 20
-10.5195
 30
0.000000
  70
    32
  0
VERTEX
  8
0
  5
2E87
 10
101.581
 20
-10.5949
 30
0.000000
  70
    32
  0
VERTEX
  8
0
  5
2E88
 10
101.602
 20
-10.6697
 30
0.000000
  70
    32
  0
VERTEX
  8
0
  5
2E89
 10
101.625
 20
-10.7437
 30
0.000000
  70
    32
  0
VERTEX
  8
0
  5
2E8A
 10
101.649
 20
-10.8170
 30
0.000000
  70
    32
  0
VERTEX
  8
0
  5
2E8B
 10
101.674
 20
-10.8896
 30
0.000000
  70
    32
  0
VERTEX
  8
0
  5
2E8C
 10
101.701
 20
-10.9612
 30
0.000000
  70
    32
  0
VERTEX
  8
0
  5
2E8D
 10
101.730
 20
-11.0320
 30
0.000000
  70
    32
  0
VERTEX
  8
0
  5
2E8E
 10
101.759
 20
-11.1019
 30
0.000000
  70
    32
  0
VERTEX
  8
0
  5
2E8F
 10
101.790
 20
-11.1708
 30
0.000000
  70
    32
  0
VERTEX
  8
0
  5
2E90
 10
101.822
 20
-11.2387
 30
0.000000
  70
    32
  0
VERTEX
  8
0
  5
2E91
 10
101.856
 20
-11.3056
 30
0.000000
  70
    32
  0
VERTEX
  8
0
  5
2E92
 10
101.890
 20
-11.3714
 30
0.000000
  70
    32
  0
VERTEX
  8
0
  5
2E93
 10
101.926
 20
-11.4360
 30
0.000000
  70
    32
  0
VERTEX
  8
0
  5
2E94
 10
101.964
 20
-11.4995
 30
0.000000
  70
    32
  0
VERTEX
  8
0
  5
2E95
 10
102.002
 20
-11.5618
 30
0.000000
  70
    32
  0
VERTEX
  8
0
  5
2E96
 10
102.041
 20
-11.6228
 30
0.000000
  70
    32
  0
VERTEX
  8
0
  5
2E97
 10
102.082
 20
-11.6826
 30
0.000000
  70
    32
  0
VERTEX
  8
0
  5
2E98
 10
102.124
 20
-11.7410
 30
0.000000
  70
    32
  0
VERTEX
  8
0
  5
2E99
 10
102.167
 20
-11.7981
 30
0.000000
  70
    32
  0
VERTEX
  8
0
  5
2E9A
 10
102.211
 20
-11.8538
 30
0.000000
  70
    32
  0
VERTEX
  8
0
  5
2E9B
 10
102.255
 20
-11.9081
 30
0.000000
  70
    32
  0
VERTEX
  8
0
  5
2E9C
 10
102.301
 20
-11.9609
 30
0.000000
  70
    32
  0
VERTEX
  8
0
  5
2E9D
 10
102.348
 20
-12.0123
 30
0.000000
  70
    32
  0
VERTEX
  8
0
  5
2E9E
 10
102.396
 20
-12.0621
 30
0.000000
  70
    32
  0
VERTEX
  8
0
  5
2E9F
 10
102.445
 20
-12.1104
 30
0.000000
  70
    32
  0
VERTEX
  8
0
  5
2EA0
 10
102.495
 20
-12.1572
 30
0.000000
  70
    32
  0
VERTEX
  8
0
  5
2EA1
 10
102.545
 20
-12.2023
 30
0.000000
  70
    32
  0
VERTEX
  8
0
  5
2EA2
 10
102.597
 20
-12.2458
 30
0.000000
  70
    32
  0
VERTEX
  8
0
  5
2EA3
 10
102.649
 20
-12.2876
 30
0.000000
  70
    32
  0
VERTEX
  8
0
  5
2EA4
 10
102.702
 20
-12.3278
 30
0.000000
  70
    32
  0
VERTEX
  8
0
  5
2EA5
 10
102.756
 20
-12.3662
 30
0.000000
  70
    32
  0
VERTEX
  8
0
  5
2EA6
 10
102.810
 20
-12.4030
 30
0.000000
  70
    32
  0
VERTEX
  8
0
  5
2EA7
 10
102.865
 20
-12.4380
 30
0.000000
  70
    32
  0
VERTEX
  8
0
  5
2EA8
 10
102.921
 20
-12.4712
 30
0.000000
  70
    32
  0
VERTEX
  8
0
  5
2EA9
 10
102.978
 20
-12.5026
 30
0.000000
  70
    32
  0
VERTEX
  8
0
  5
2EAA
 10
103.035
 20
-12.5322
 30
0.000000
  70
    32
  0
VERTEX
  8
0
  5
2EAB
 10
103.092
 20
-12.5600
 30
0.000000
  70
    32
  0
VERTEX
  8
0
  5
2EAC
 10
103.150
 20
-12.5860
 30
0.000000
  70
    32
  0
VERTEX
  8
0
  5
2EAD
 10
103.209
 20
-12.6101
 30
0.000000
  70
    32
  0
VERTEX
  8
0
  5
2EAE
 10
103.268
 20
-12.6323
 30
0.000000
  70
    32
  0
VERTEX
  8
0
  5
2EAF
 10
103.327
 20
-12.6526
 30
0.000000
  70
    32
  0
VERTEX
  8
0
  5
2EB0
 10
103.387
 20
-12.6710
 30
0.000000
  70
    32
  0
VERTEX
  8
0
  5
2EB1
 10
103.447
 20
-12.6876
 30
0.000000
  70
    32
  0
VERTEX
  8
0
  5
2EB2
 10
103.507
 20
-12.7022
 30
0.000000
  70
    32
  0
VERTEX
  8
0
  5
2EB3
 10
103.568
 20
-12.7148
 30
0.000000
  70
    32
  0
VERTEX
  8
0
  5
2EB4
 10
103.628
 20
-12.7256
 30
0.000000
  70
    32
  0
VERTEX
  8
0
  5
2EB5
 10
103.689
 20
-12.7344
 30
0.000000
  70
    32
  0
VERTEX
  8
0
  5
2EB6
 10
103.750
 20
-12.7412
 30
0.000000
  70
    32
  0
VERTEX
  8
0
  5
2EB7
 10
103.812
 20
-12.7461
 30
0.000000
  70
    32
  0
VERTEX
  8
0
  5
2EB8
 10
103.873
 20
-12.7490
 30
0.000000
  70
    32
  0
VERTEX
  8
0
  5
2EB9
 10
103.934
 20
-12.7500
 30
0.000000
  70
    32
  0
SEQEND
  8
0
  5
2EBA
  0
POLYLINE
  5
1A99
  8
0
 10
103.68438091447941
 20
-27.576059899999873
 30
0.0
 66
     1
 70
     8
  0
VERTEX
  8
0
  5
2EBB
 10
103.684
 20
-27.5761
 30
0.000000
  70
    32
  0
VERTEX
  8
0
  5
2EBC
 10
103.623
 20
-27.5770
 30
0.000000
  70
    32
  0
VERTEX
  8
0
  5
2EBD
 10
103.562
 20
-27.5800
 30
0.000000
  70
    32
  0
VERTEX
  8
0
  5
2EBE
 10
103.500
 20
-27.5849
 30
0.000000
  70
    32
  0
VERTEX
  8
0
  5
2EBF
 10
103.439
 20
-27.5917
 30
0.000000
  70
    32
  0
VERTEX
  8
0
  5
2EC0
 10
103.378
 20
-27.6005
 30
0.000000
  70
    32
  0
VERTEX
  8
0
  5
2EC1
 10
103.318
 20
-27.6112
 30
0.000000
  70
    32
  0
VERTEX
  8
0
  5
2EC2
 10
103.257
 20
-27.6239
 30
0.000000
  70
    32
  0
VERTEX
  8
0
  5
2EC3
 10
103.197
 20
-27.6385
 30
0.000000
  70
    32
  0
VERTEX
  8
0
  5
2EC4
 10
103.137
 20
-27.6550
 30
0.000000
  70
    32
  0
VERTEX
  8
0
  5
2EC5
 10
103.077
 20
-27.6735
 30
0.000000
  70
    32
  0
VERTEX
  8
0
  5
2EC6
 10
103.018
 20
-27.6938
 30
0.000000
  70
    32
  0
VERTEX
  8
0
  5
2EC7
 10
102.959
 20
-27.7160
 30
0.000000
  70
    32
  0
VERTEX
  8
0
  5
2EC8
 10
102.900
 20
-27.7401
 30
0.000000
  70
    32
  0
VERTEX
  8
0
  5
2EC9
 10
102.842
 20
-27.7660
 30
0.000000
  70
    32
  0
VERTEX
  8
0
  5
2ECA
 10
102.785
 20
-27.7938
 30
0.000000
  70
    32
  0
VERTEX
  8
0
  5
2ECB
 10
102.728
 20
-27.8235
 30
0.000000
  70
    32
  0
VERTEX
  8
0
  5
2ECC
 10
102.671
 20
-27.8549
 30
0.000000
  70
    32
  0
VERTEX
  8
0
  5
2ECD
 10
102.615
 20
-27.8881
 30
0.000000
  70
    32
  0
VERTEX
  8
0
  5
2ECE
 10
102.560
 20
-27.9231
 30
0.000000
  70
    32
  0
VERTEX
  8
0
  5
2ECF
 10
102.506
 20
-27.9598
 30
0.000000
  70
    32
  0
VERTEX
  8
0
  5
2ED0
 10
102.452
 20
-27.9983
 30
0.000000
  70
    32
  0
VERTEX
  8
0
  5
2ED1
 10
102.399
 20
-28.0384
 30
0.000000
  70
    32
  0
VERTEX
  8
0
  5
2ED2
 10
102.347
 20
-28.0803
 30
0.000000
  70
    32
  0
VERTEX
  8
0
  5
2ED3
 10
102.295
 20
-28.1238
 30
0.000000
  70
    32
  0
VERTEX
  8
0
  5
2ED4
 10
102.245
 20
-28.1689
 30
0.000000
  70
    32
  0
VERTEX
  8
0
  5
2ED5
 10
102.195
 20
-28.2156
 30
0.000000
  70
    32
  0
VERTEX
  8
0
  5
2ED6
 10
102.146
 20
-28.2639
 30
0.000000
  70
    32
  0
VERTEX
  8
0
  5
2ED7
 10
102.098
 20
-28.3138
 30
0.000000
  70
    32
  0
VERTEX
  8
0
  5
2ED8
 10
102.051
 20
-28.3651
 30
0.000000
  70
    32
  0
VERTEX
  8
0
  5
2ED9
 10
102.005
 20
-28.4180
 30
0.000000
  70
    32
  0
VERTEX
  8
0
  5
2EDA
 10
101.961
 20
-28.4723
 30
0.000000
  70
    32
  0
VERTEX
  8
0
  5
2EDB
 10
101.917
 20
-28.5280
 30
0.000000
  70
    32
  0
VERTEX
  8
0
  5
2EDC
 10
101.874
 20
-28.5851
 30
0.000000
  70
    32
  0
VERTEX
  8
0
  5
2EDD
 10
101.832
 20
-28.6435
 30
0.000000
  70
    32
  0
VERTEX
  8
0
  5
2EDE
 10
101.791
 20
-28.7032
 30
0.000000
  70
    32
  0
VERTEX
  8
0
  5
2EDF
 10
101.752
 20
-28.7643
 30
0.000000
  70
    32
  0
VERTEX
  8
0
  5
2EE0
 10
101.714
 20
-28.8266
 30
0.000000
  70
    32
  0
VERTEX
  8
0
  5
2EE1
 10
101.676
 20
-28.8900
 30
0.000000
  70
    32
  0
VERTEX
  8
0
  5
2EE2
 10
101.640
 20
-28.9547
 30
0.000000
  70
    32
  0
VERTEX
  8
0
  5
2EE3
 10
101.606
 20
-29.0205
 30
0.000000
  70
    32
  0
VERTEX
  8
0
  5
2EE4
 10
101.572
 20
-29.0873
 30
0.000000
  70
    32
  0
VERTEX
  8
0
  5
2EE5
 10
101.540
 20
-29.1552
 30
0.000000
  70
    32
  0
VERTEX
  8
0
  5
2EE6
 10
101.509
 20
-29.2241
 30
0.000000
  70
    32
  0
VERTEX
  8
0
  5
2EE7
 10
101.480
 20
-29.2940
 30
0.000000
  70
    32
  0
VERTEX
  8
0
  5
2EE8
 10
101.451
 20
-29.3648
 30
0.000000
  70
    32
  0
VERTEX
  8
0
  5
2EE9
 10
101.424
 20
-29.4365
 30
0.000000
  70
    32
  0
VERTEX
  8
0
  5
2EEA
 10
101.399
 20
-29.5090
 30
0.000000
  70
    32
  0
VERTEX
  8
0
  5
2EEB
 10
101.375
 20
-29.5823
 30
0.000000
  70
    32
  0
VERTEX
  8
0
  5
2EEC
 10
101.352
 20
-29.6564
 30
0.000000
  70
    32
  0
VERTEX
  8
0
  5
2EED
 10
101.331
 20
-29.7312
 30
0.000000
  70
    32
  0
VERTEX
  8
0
  5
2EEE
 10
101.311
 20
-29.8066
 30
0.000000
  70
    32
  0
VERTEX
  8
0
  5
2EEF
 10
101.292
 20
-29.8826
 30
0.000000
  70
    32
  0
VERTEX
  8
0
  5
2EF0
 10
101.275
 20
-29.9592
 30
0.000000
  70
    32
  0
VERTEX
  8
0
  5
2EF1
 10
101.259
 20
-30.0364
 30
0.000000
  70
    32
  0
VERTEX
  8
0
  5
2EF2
 10
101.245
 20
-30.1140
 30
0.000000
  70
    32
  0
VERTEX
  8
0
  5
2EF3
 10
101.232
 20
-30.1920
 30
0.000000
  70
    32
  0
VERTEX
  8
0
  5
2EF4
 10
101.221
 20
-30.2704
 30
0.000000
  70
    32
  0
VERTEX
  8
0
  5
2EF5
 10
101.211
 20
-30.3492
 30
0.000000
  70
    32
  0
VERTEX
  8
0
  5
2EF6
 10
101.203
 20
-30.4282
 30
0.000000
  70
    32
  0
VERTEX
  8
0
  5
2EF7
 10
101.196
 20
-30.5075
 30
0.000000
  70
    32
  0
VERTEX
  8
0
  5
2EF8
 10
101.191
 20
-30.5870
 30
0.000000
  70
    32
  0
VERTEX
  8
0
  5
2EF9
 10
101.187
 20
-30.6666
 30
0.000000
  70
    32
  0
VERTEX
  8
0
  5
2EFA
 10
101.185
 20
-30.7463
 30
0.000000
  70
    32
  0
VERTEX
  8
0
  5
2EFB
 10
101.184
 20
-30.8261
 30
0.000000
  70
    32
  0
VERTEX
  8
0
  5
2EFC
 10
101.185
 20
-30.9058
 30
0.000000
  70
    32
  0
VERTEX
  8
0
  5
2EFD
 10
101.187
 20
-30.9855
 30
0.000000
  70
    32
  0
VERTEX
  8
0
  5
2EFE
 10
101.191
 20
-31.0651
 30
0.000000
  70
    32
  0
VERTEX
  8
0
  5
2EFF
 10
101.196
 20
-31.1446
 30
0.000000
  70
    32
  0
VERTEX
  8
0
  5
2F00
 10
101.203
 20
-31.2239
 30
0.000000
  70
    32
  0
VERTEX
  8
0
  5
2F01
 10
101.211
 20
-31.3029
 30
0.000000
  70
    32
  0
VERTEX
  8
0
  5
2F02
 10
101.221
 20
-31.3817
 30
0.000000
  70
    32
  0
VERTEX
  8
0
  5
2F03
 10
101.232
 20
-31.4601
 30
0.000000
  70
    32
  0
VERTEX
  8
0
  5
2F04
 10
101.245
 20
-31.5381
 30
0.000000
  70
    32
  0
VERTEX
  8
0
  5
2F05
 10
101.259
 20
-31.6157
 30
0.000000
  70
    32
  0
VERTEX
  8
0
  5
2F06
 10
101.275
 20
-31.6929
 30
0.000000
  70
    32
  0
VERTEX
  8
0
  5
2F07
 10
101.292
 20
-31.7695
 30
0.000000
  70
    32
  0
VERTEX
  8
0
  5
2F08
 10
101.311
 20
-31.8455
 30
0.000000
  70
    32
  0
VERTEX
  8
0
  5
2F09
 10
101.331
 20
-31.9210
 30
0.000000
  70
    32
  0
VERTEX
  8
0
  5
2F0A
 10
101.352
 20
-31.9957
 30
0.000000
  70
    32
  0
VERTEX
  8
0
  5
2F0B
 10
101.375
 20
-32.0698
 30
0.000000
  70
    32
  0
VERTEX
  8
0
  5
2F0C
 10
101.399
 20
-32.1431
 30
0.000000
  70
    32
  0
VERTEX
  8
0
  5
2F0D
 10
101.424
 20
-32.2156
 30
0.000000
  70
    32
  0
VERTEX
  8
0
  5
2F0E
 10
101.451
 20
-32.2873
 30
0.000000
  70
    32
  0
VERTEX
  8
0
  5
2F0F
 10
101.480
 20
-32.3581
 30
0.000000
  70
    32
  0
VERTEX
  8
0
  5
2F10
 10
101.509
 20
-32.4280
 30
0.000000
  70
    32
  0
VERTEX
  8
0
  5
2F11
 10
101.540
 20
-32.4969
 30
0.000000
  70
    32
  0
VERTEX
  8
0
  5
2F12
 10
101.572
 20
-32.5648
 30
0.000000
  70
    32
  0
VERTEX
  8
0
  5
2F13
 10
101.606
 20
-32.6317
 30
0.000000
  70
    32
  0
VERTEX
  8
0
  5
2F14
 10
101.640
 20
-32.6974
 30
0.000000
  70
    32
  0
VERTEX
  8
0
  5
2F15
 10
101.676
 20
-32.7621
 30
0.000000
  70
    32
  0
VERTEX
  8
0
  5
2F16
 10
101.714
 20
-32.8256
 30
0.000000
  70
    32
  0
VERTEX
  8
0
  5
2F17
 10
101.752
 20
-32.8878
 30
0.000000
  70
    32
  0
VERTEX
  8
0
  5
2F18
 10
101.791
 20
-32.9489
 30
0.000000
  70
    32
  0
VERTEX
  8
0
  5
2F19
 10
101.832
 20
-33.0086
 30
0.000000
  70
    32
  0
VERTEX
  8
0
  5
2F1A
 10
101.874
 20
-33.0671
 30
0.000000
  70
    32
  0
VERTEX
  8
0
  5
2F1B
 10
101.917
 20
-33.1242
 30
0.000000
  70
    32
  0
VERTEX
  8
0
  5
2F1C
 10
101.961
 20
-33.1799
 30
0.000000
  70
    32
  0
VERTEX
  8
0
  5
2F1D
 10
102.005
 20
-33.2342
 30
0.000000
  70
    32
  0
VERTEX
  8
0
  5
2F1E
 10
102.051
 20
-33.2870
 30
0.000000
  70
    32
  0
VERTEX
  8
0
  5
2F1F
 10
102.098
 20
-33.3383
 30
0.000000
  70
    32
  0
VERTEX
  8
0
  5
2F20
 10
102.146
 20
-33.3882
 30
0.000000
  70
    32
  0
VERTEX
  8
0
  5
2F21
 10
102.195
 20
-33.4365
 30
0.000000
  70
    32
  0
VERTEX
  8
0
  5
2F22
 10
102.245
 20
-33.4832
 30
0.000000
  70
    32
  0
VERTEX
  8
0
  5
2F23
 10
102.295
 20
-33.5283
 30
0.000000
  70
    32
  0
VERTEX
  8
0
  5
2F24
 10
102.347
 20
-33.5718
 30
0.000000
  70
    32
  0
VERTEX
  8
0
  5
2F25
 10
102.399
 20
-33.6137
 30
0.000000
  70
    32
  0
VERTEX
  8
0
  5
2F26
 10
102.452
 20
-33.6538
 30
0.000000
  70
    32
  0
VERTEX
  8
0
  5
2F27
 10
102.506
 20
-33.6923
 30
0.000000
  70
    32
  0
VERTEX
  8
0
  5
2F28
 10
102.560
 20
-33.7290
 30
0.000000
  70
    32
  0
VERTEX
  8
0
  5
2F29
 10
102.615
 20
-33.7640
 30
0.000000
  70
    32
  0
VERTEX
  8
0
  5
2F2A
 10
102.671
 20
-33.7972
 30
0.000000
  70
    32
  0
VERTEX
  8
0
  5
2F2B
 10
102.728
 20
-33.8287
 30
0.000000
  70
    32
  0
VERTEX
  8
0
  5
2F2C
 10
102.785
 20
-33.8583
 30
0.000000
  70
    32
  0
VERTEX
  8
0
  5
2F2D
 10
102.842
 20
-33.8861
 30
0.000000
  70
    32
  0
VERTEX
  8
0
  5
2F2E
 10
102.900
 20
-33.9120
 30
0.000000
  70
    32
  0
VERTEX
  8
0
  5
2F2F
 10
102.959
 20
-33.9361
 30
0.000000
  70
    32
  0
VERTEX
  8
0
  5
2F30
 10
103.018
 20
-33.9583
 30
0.000000
  70
    32
  0
VERTEX
  8
0
  5
2F31
 10
103.077
 20
-33.9787
 30
0.000000
  70
    32
  0
VERTEX
  8
0
  5
2F32
 10
103.137
 20
-33.9971
 30
0.000000
  70
    32
  0
VERTEX
  8
0
  5
2F33
 10
103.197
 20
-34.0136
 30
0.000000
  70
    32
  0
VERTEX
  8
0
  5
2F34
 10
103.257
 20
-34.0282
 30
0.000000
  70
    32
  0
VERTEX
  8
0
  5
2F35
 10
103.318
 20
-34.0409
 30
0.000000
  70
    32
  0
VERTEX
  8
0
  5
2F36
 10
103.378
 20
-34.0516
 30
0.000000
  70
    32
  0
VERTEX
  8
0
  5
2F37
 10
103.439
 20
-34.0604
 30
0.000000
  70
    32
  0
VERTEX
  8
0
  5
2F38
 10
103.500
 20
-34.0673
 30
0.000000
  70
    32
  0
VERTEX
  8
0
  5
2F39
 10
103.562
 20
-34.0721
 30
0.000000
  70
    32
  0
VERTEX
  8
0
  5
2F3A
 10
103.623
 20
-34.0751
 30
0.000000
  70
    32
  0
VERTEX
  8
0
  5
2F3B
 10
103.684
 20
-34.0761
 30
0.000000
  70
    32
  0
SEQEND
  8
0
  5
2F3C
  0
POLYLINE
  5
1A9A
  8
0
 10
103.68438082522901
 20
34.076070100000067
 30
0.0
 66
     1
 70
     8
  0
VERTEX
  8
0
  5
2F3D
 10
103.684
 20
34.0761
 30
0.000000
  70
    32
  0
VERTEX
  8
0
  5
2F3E
 10
103.623
 20
34.0751
 30
0.000000
  70
    32
  0
VERTEX
  8
0
  5
2F3F
 10
103.562
 20
34.0722
 30
0.000000
  70
    32
  0
VERTEX
  8
0
  5
2F40
 10
103.500
 20
34.0673
 30
0.000000
  70
    32
  0
VERTEX
  8
0
  5
2F41
 10
103.439
 20
34.0604
 30
0.000000
  70
    32
  0
VERTEX
  8
0
  5
2F42
 10
103.378
 20
34.0516
 30
0.000000
  70
    32
  0
VERTEX
  8
0
  5
2F43
 10
103.318
 20
34.0409
 30
0.000000
  70
    32
  0
VERTEX
  8
0
  5
2F44
 10
103.257
 20
34.0282
 30
0.000000
  70
    32
  0
VERTEX
  8
0
  5
2F45
 10
103.197
 20
34.0136
 30
0.000000
  70
    32
  0
VERTEX
  8
0
  5
2F46
 10
103.137
 20
33.9971
 30
0.000000
  70
    32
  0
VERTEX
  8
0
  5
2F47
 10
103.077
 20
33.9787
 30
0.000000
  70
    32
  0
VERTEX
  8
0
  5
2F48
 10
103.018
 20
33.9583
 30
0.000000
  70
    32
  0
VERTEX
  8
0
  5
2F49
 10
102.959
 20
33.9361
 30
0.000000
  70
    32
  0
VERTEX
  8
0
  5
2F4A
 10
102.900
 20
33.9120
 30
0.000000
  70
    32
  0
VERTEX
  8
0
  5
2F4B
 10
102.842
 20
33.8861
 30
0.000000
  70
    32
  0
VERTEX
  8
0
  5
2F4C
 10
102.785
 20
33.8583
 30
0.000000
  70
    32
  0
VERTEX
  8
0
  5
2F4D
 10
102.728
 20
33.8287
 30
0.000000
  70
    32
  0
VERTEX
  8
0
  5
2F4E
 10
102.671
 20
33.7973
 30
0.000000
  70
    32
  0
VERTEX
  8
0
  5
2F4F
 10
102.615
 20
33.7640
 30
0.000000
  70
    32
  0
VERTEX
  8
0
  5
2F50
 10
102.560
 20
33.7290
 30
0.000000
  70
    32
  0
VERTEX
  8
0
  5
2F51
 10
102.506
 20
33.6923
 30
0.000000
  70
    32
  0
VERTEX
  8
0
  5
2F52
 10
102.452
 20
33.6539
 30
0.000000
  70
    32
  0
VERTEX
  8
0
  5
2F53
 10
102.399
 20
33.6137
 30
0.000000
  70
    32
  0
VERTEX
  8
0
  5
2F54
 10
102.347
 20
33.5718
 30
0.000000
  70
    32
  0
VERTEX
  8
0
  5
2F55
 10
102.295
 20
33.5283
 30
0.000000
  70
    32
  0
VERTEX
  8
0
  5
2F56
 10
102.245
 20
33.4832
 30
0.000000
  70
    32
  0
VERTEX
  8
0
  5
2F57
 10
102.195
 20
33.4365
 30
0.000000
  70
    32
  0
VERTEX
  8
0
  5
2F58
 10
102.146
 20
33.3882
 30
0.000000
  70
    32
  0
VERTEX
  8
0
  5
2F59
 10
102.098
 20
33.3384
 30
0.000000
  70
    32
  0
VERTEX
  8
0
  5
2F5A
 10
102.051
 20
33.2870
 30
0.000000
  70
    32
  0
VERTEX
  8
0
  5
2F5B
 10
102.005
 20
33.2342
 30
0.000000
  70
    32
  0
VERTEX
  8
0
  5
2F5C
 10
101.961
 20
33.1799
 30
0.000000
  70
    32
  0
VERTEX
  8
0
  5
2F5D
 10
101.917
 20
33.1242
 30
0.000000
  70
    32
  0
VERTEX
  8
0
  5
2F5E
 10
101.874
 20
33.0671
 30
0.000000
  70
    32
  0
VERTEX
  8
0
  5
2F5F
 10
101.832
 20
33.0086
 30
0.000000
  70
    32
  0
VERTEX
  8
0
  5
2F60
 10
101.791
 20
32.9489
 30
0.000000
  70
    32
  0
VERTEX
  8
0
  5
2F61
 10
101.752
 20
32.8878
 30
0.000000
  70
    32
  0
VERTEX
  8
0
  5
2F62
 10
101.714
 20
32.8256
 30
0.000000
  70
    32
  0
VERTEX
  8
0
  5
2F63
 10
101.676
 20
32.7621
 30
0.000000
  70
    32
  0
VERTEX
  8
0
  5
2F64
 10
101.640
 20
32.6974
 30
0.000000
  70
    32
  0
VERTEX
  8
0
  5
2F65
 10
101.606
 20
32.6317
 30
0.000000
  70
    32
  0
VERTEX
  8
0
  5
2F66
 10
101.572
 20
32.5648
 30
0.000000
  70
    32
  0
VERTEX
  8
0
  5
2F67
 10
101.540
 20
32.4969
 30
0.000000
  70
    32
  0
VERTEX
  8
0
  5
2F68
 10
101.509
 20
32.4280
 30
0.000000
  70
    32
  0
VERTEX
  8
0
  5
2F69
 10
101.480
 20
32.3581
 30
0.000000
  70
    32
  0
VERTEX
  8
0
  5
2F6A
 10
101.451
 20
32.2873
 30
0.000000
  70
    32
  0
VERTEX
  8
0
  5
2F6B
 10
101.424
 20
32.2156
 30
0.000000
  70
    32
  0
VERTEX
  8
0
  5
2F6C
 10
101.399
 20
32.1431
 30
0.000000
  70
    32
  0
VERTEX
  8
0
  5
2F6D
 10
101.375
 20
32.0698
 30
0.000000
  70
    32
  0
VERTEX
  8
0
  5
2F6E
 10
101.352
 20
31.9957
 30
0.000000
  70
    32
  0
VERTEX
  8
0
  5
2F6F
 10
101.331
 20
31.9210
 30
0.000000
  70
    32
  0
VERTEX
  8
0
  5
2F70
 10
101.311
 20
31.8455
 30
0.000000
  70
    32
  0
VERTEX
  8
0
  5
2F71
 10
101.292
 20
31.7695
 30
0.000000
  70
    32
  0
VERTEX
  8
0
  5
2F72
 10
101.275
 20
31.6929
 30
0.000000
  70
    32
  0
VERTEX
  8
0
  5
2F73
 10
101.259
 20
31.6158
 30
0.000000
  70
    32
  0
VERTEX
  8
0
  5
2F74
 10
101.245
 20
31.5381
 30
0.000000
  70
    32
  0
VERTEX
  8
0
  5
2F75
 10
101.232
 20
31.4601
 30
0.000000
  70
    32
  0
VERTEX
  8
0
  5
2F76
 10
101.221
 20
31.3817
 30
0.000000
  70
    32
  0
VERTEX
  8
0
  5
2F77
 10
101.211
 20
31.3029
 30
0.000000
  70
    32
  0
VERTEX
  8
0
  5
2F78
 10
101.203
 20
31.2239
 30
0.000000
  70
    32
  0
VERTEX
  8
0
  5
2F79
 10
101.196
 20
31.1446
 30
0.000000
  70
    32
  0
VERTEX
  8
0
  5
2F7A
 10
101.191
 20
31.0652
 30
0.000000
  70
    32
  0
VERTEX
  8
0
  5
2F7B
 10
101.187
 20
30.9855
 30
0.000000
  70
    32
  0
VERTEX
  8
0
  5
2F7C
 10
101.185
 20
30.9058
 30
0.000000
  70
    32
  0
VERTEX
  8
0
  5
2F7D
 10
101.184
 20
30.8261
 30
0.000000
  70
    32
  0
VERTEX
  8
0
  5
2F7E
 10
101.185
 20
30.7463
 30
0.000000
  70
    32
  0
VERTEX
  8
0
  5
2F7F
 10
101.187
 20
30.6666
 30
0.000000
  70
    32
  0
VERTEX
  8
0
  5
2F80
 10
101.191
 20
30.5870
 30
0.000000
  70
    32
  0
VERTEX
  8
0
  5
2F81
 10
101.196
 20
30.5075
 30
0.000000
  70
    32
  0
VERTEX
  8
0
  5
2F82
 10
101.203
 20
30.4282
 30
0.000000
  70
    32
  0
VERTEX
  8
0
  5
2F83
 10
101.211
 20
30.3492
 30
0.000000
  70
    32
  0
VERTEX
  8
0
  5
2F84
 10
101.221
 20
30.2704
 30
0.000000
  70
    32
  0
VERTEX
  8
0
  5
2F85
 10
101.232
 20
30.1920
 30
0.000000
  70
    32
  0
VERTEX
  8
0
  5
2F86
 10
101.245
 20
30.1140
 30
0.000000
  70
    32
  0
VERTEX
  8
0
  5
2F87
 10
101.259
 20
30.0364
 30
0.000000
  70
    32
  0
VERTEX
  8
0
  5
2F88
 10
101.275
 20
29.9593
 30
0.000000
  70
    32
  0
VERTEX
  8
0
  5
2F89
 10
101.292
 20
29.8826
 30
0.000000
  70
    32
  0
VERTEX
  8
0
  5
2F8A
 10
101.311
 20
29.8066
 30
0.000000
  70
    32
  0
VERTEX
  8
0
  5
2F8B
 10
101.331
 20
29.7312
 30
0.000000
  70
    32
  0
VERTEX
  8
0
  5
2F8C
 10
101.352
 20
29.6564
 30
0.000000
  70
    32
  0
VERTEX
  8
0
  5
2F8D
 10
101.375
 20
29.5823
 30
0.000000
  70
    32
  0
VERTEX
  8
0
  5
2F8E
 10
101.399
 20
29.5090
 30
0.000000
  70
    32
  0
VERTEX
  8
0
  5
2F8F
 10
101.424
 20
29.4365
 30
0.000000
  70
    32
  0
VERTEX
  8
0
  5
2F90
 10
101.451
 20
29.3648
 30
0.000000
  70
    32
  0
VERTEX
  8
0
  5
2F91
 10
101.480
 20
29.2940
 30
0.000000
  70
    32
  0
VERTEX
  8
0
  5
2F92
 10
101.509
 20
29.2242
 30
0.000000
  70
    32
  0
VERTEX
  8
0
  5
2F93
 10
101.540
 20
29.1552
 30
0.000000
  70
    32
  0
VERTEX
  8
0
  5
2F94
 10
101.572
 20
29.0873
 30
0.000000
  70
    32
  0
VERTEX
  8
0
  5
2F95
 10
101.606
 20
29.0205
 30
0.000000
  70
    32
  0
VERTEX
  8
0
  5
2F96
 10
101.640
 20
28.9547
 30
0.000000
  70
    32
  0
VERTEX
  8
0
  5
2F97
 10
101.676
 20
28.8900
 30
0.000000
  70
    32
  0
VERTEX
  8
0
  5
2F98
 10
101.714
 20
28.8266
 30
0.000000
  70
    32
  0
VERTEX
  8
0
  5
2F99
 10
101.752
 20
28.7643
 30
0.000000
  70
    32
  0
VERTEX
  8
0
  5
2F9A
 10
101.791
 20
28.7033
 30
0.000000
  70
    32
  0
VERTEX
  8
0
  5
2F9B
 10
101.832
 20
28.6435
 30
0.000000
  70
    32
  0
VERTEX
  8
0
  5
2F9C
 10
101.874
 20
28.5851
 30
0.000000
  70
    32
  0
VERTEX
  8
0
  5
2F9D
 10
101.917
 20
28.5280
 30
0.000000
  70
    32
  0
VERTEX
  8
0
  5
2F9E
 10
101.961
 20
28.4723
 30
0.000000
  70
    32
  0
VERTEX
  8
0
  5
2F9F
 10
102.005
 20
28.4180
 30
0.000000
  70
    32
  0
VERTEX
  8
0
  5
2FA0
 10
102.051
 20
28.3651
 30
0.000000
  70
    32
  0
VERTEX
  8
0
  5
2FA1
 10
102.098
 20
28.3138
 30
0.000000
  70
    32
  0
VERTEX
  8
0
  5
2FA2
 10
102.146
 20
28.2639
 30
0.000000
  70
    32
  0
VERTEX
  8
0
  5
2FA3
 10
102.195
 20
28.2156
 30
0.000000
  70
    32
  0
VERTEX
  8
0
  5
2FA4
 10
102.245
 20
28.1689
 30
0.000000
  70
    32
  0
VERTEX
  8
0
  5
2FA5
 10
102.295
 20
28.1238
 30
0.000000
  70
    32
  0
VERTEX
  8
0
  5
2FA6
 10
102.347
 20
28.0803
 30
0.000000
  70
    32
  0
VERTEX
  8
0
  5
2FA7
 10
102.399
 20
28.0385
 30
0.000000
  70
    32
  0
VERTEX
  8
0
  5
2FA8
 10
102.452
 20
27.9983
 30
0.000000
  70
    32
  0
VERTEX
  8
0
  5
2FA9
 10
102.506
 20
27.9598
 30
0.000000
  70
    32
  0
VERTEX
  8
0
  5
2FAA
 10
102.560
 20
27.9231
 30
0.000000
  70
    32
  0
VERTEX
  8
0
  5
2FAB
 10
102.615
 20
27.8881
 30
0.000000
  70
    32
  0
VERTEX
  8
0
  5
2FAC
 10
102.671
 20
27.8549
 30
0.000000
  70
    32
  0
VERTEX
  8
0
  5
2FAD
 10
102.728
 20
27.8235
 30
0.000000
  70
    32
  0
VERTEX
  8
0
  5
2FAE
 10
102.785
 20
27.7938
 30
0.000000
  70
    32
  0
VERTEX
  8
0
  5
2FAF
 10
102.842
 20
27.7661
 30
0.000000
  70
    32
  0
VERTEX
  8
0
  5
2FB0
 10
102.900
 20
27.7401
 30
0.000000
  70
    32
  0
VERTEX
  8
0
  5
2FB1
 10
102.959
 20
27.7160
 30
0.000000
  70
    32
  0
VERTEX
  8
0
  5
2FB2
 10
103.018
 20
27.6938
 30
0.000000
  70
    32
  0
VERTEX
  8
0
  5
2FB3
 10
103.077
 20
27.6735
 30
0.000000
  70
    32
  0
VERTEX
  8
0
  5
2FB4
 10
103.137
 20
27.6550
 30
0.000000
  70
    32
  0
VERTEX
  8
0
  5
2FB5
 10
103.197
 20
27.6385
 30
0.000000
  70
    32
  0
VERTEX
  8
0
  5
2FB6
 10
103.257
 20
27.6239
 30
0.000000
  70
    32
  0
VERTEX
  8
0
  5
2FB7
 10
103.318
 20
27.6112
 30
0.000000
  70
    32
  0
VERTEX
  8
0
  5
2FB8
 10
103.378
 20
27.6005
 30
0.000000
  70
    32
  0
VERTEX
  8
0
  5
2FB9
 10
103.439
 20
27.5917
 30
0.000000
  70
    32
  0
VERTEX
  8
0
  5
2FBA
 10
103.500
 20
27.5849
 30
0.000000
  70
    32
  0
VERTEX
  8
0
  5
2FBB
 10
103.562
 20
27.5800
 30
0.000000
  70
    32
  0
VERTEX
  8
0
  5
2FBC
 10
103.623
 20
27.5770
 30
0.000000
  70
    32
  0
VERTEX
  8
0
  5
2FBD
 10
103.684
 20
27.5761
 30
0.000000
  70
    32
  0
SEQEND
  8
0
  5
2FBE
  0
ARC
  5
2907
  8
0
 10
-20.500029999999921
 20
-35.507020000000011
 30
0.0
 40
5.3000002000000013
 50
205.00003728586171
 51
5.0000509355163389
  0
LINE
  5
2BCF
  8
0
  6
CENTER
 10
0.0
 20
0.0
 30
0.0
 11
-24.65375999999992
 21
42.701559999999972
 31
0.0
  0
LINE
  5
2BD1
  8
0
 10
-14.012190000000031
 20
26.63376999999991
 30
0.0
 11
-14.763059999999991
 21
26.98390999999992
 31
0.0
  0
LINE
  5
2BD2
  8
0
 10
-15.362939999999981
 20
27.959420000000129
 30
0.0
 11
-14.517489999999951
 21
37.24926999999979
 31
0.0
  0
LINE
  5
2BD3
  8
0
 10
-31.035219999999981
 20
25.45510000000013
 30
0.0
 11
-25.303460000000079
 21
37.746900000000089
 31
0.0
  0
LINE
  5
2BD4
  8
0
 10
-6.5273500000000686
 20
39.604820000000018
 30
0.0
 11
-20.038090000000011
 21
40.786849999999951
 31
0.0
  0
LINE
  5
2BD5
  8
0
 10
-16.059510000000039
 20
25.451759999999918
 30
0.0
 11
-15.22019999999997
 21
35.045090000000073
 31
0.0
  0
LINE
  5
2BD6
  8
0
 10
-1.0395000000000889
 20
32.280339999999789
 30
0.0
 11
-12.96412000000009
 21
37.840879999999743
 31
0.0
  0
LINE
  5
2BD7
  8
0
 10
-24.965270000000029
 20
21.98840000000018
 30
0.0
 11
-31.278919999999971
 21
24.932499999999891
 31
0.0
  0
LINE
  5
2BD8
  8
0
 10
33.005390000000027
 20
12.64694999999983
 30
0.0
 11
37.080979999999947
 21
14.999989999999791
 31
0.0
  0
ARC
  5
2BD9
  8
0
 10
0.0
 20
0.0
 30
0.0
 40
40.0
 50
142.22031000001471
 51
217.77969000000979
  0
ARC
  5
2BDA
  8
0
 10
0.0
 20
0.0
 30
0.0
 40
29.0
 50
126.53067000000669
 51
233.46932999999461
  0
ARC
  5
2BDB
  8
0
  6
CENTER
 10
0.0
 20
0.0
 30
0.0
 40
41.0
 50
109.8652500000107
 51
129.81978000000629
  0
ARC
  5
2BDC
  8
0
 10
-12.744329999999991
 20
29.352719999999859
 30
0.0
 40
3.0
 50
245.00000000001049
 51
293.4694769999976
  0
ARC
  5
2BDD
  8
0
 10
-6.0915600000000723
 20
44.585790000000088
 30
0.0
 40
5.0
 50
264.99999800000239
 51
277.77990399999908
  0
ARC
  5
2BDE
  8
0
 10
-19.04809999999997
 20
25.71321999999963
 30
0.0
 40
3.0
 50
306.53065300000668
 51
355.00000009998928
  0
ARC
  5
2BDF
  8
0
 10
-14.340429999999969
 20
27.890229999999971
 30
0.0
 40
1.0
 50
175.00000000002629
 51
245.00000000001049
  0
ARC
  5
2BE0
  8
0
 10
-35.566749999999949
 20
27.568199999999699
 30
0.0
 40
5.0
 50
322.22031099999663
 51
335.00000000002109
  0
ARC
  5
2BE1
  8
0
 10
0.0
 20
0.0
 30
0.0
 40
40.0
 50
23.87620999997613
 51
111.29011000000639
  0
ARC
  5
2BE2
  8
0
 10
0.0
 20
0.0
 30
0.0
 40
29.0
 50
12.63563000001032
 51
113.4694799999989
  0
ARC
  5
2BE3
  8
0
 10
0.0
 20
0.0
 30
0.0
 40
32.0
 50
25.821699999998671
 51
89.626169999997657
  0
ARC
  5
2BE4
  8
0
 10
-25.38791000000003
 20
21.08208999999988
 30
0.0
 40
1.0
 50
320.29377400000169
 51
65.000000000010587
  0
ARC
  5
2BE5
  8
0
 10
0.2283600000000661
 20
34.999249999999847
 30
0.0
 40
3.0
 50
245.00000000001049
 51
269.62616100000179
  0
ARC
  5
2BE6
  8
0
 10
0.0
 20
0.0
 30
0.0
 40
32.0
 50
140.29377999999321
 51
219.7062200000056
  0
ARC
  5
2BE7
  8
0
 10
31.505369999999971
 20
15.24501999999984
 30
0.0
 40
3.0
 50
205.82169999999871
 51
299.99999799998881
  0
ARC
  5
2BE9
  8
0
 10
-20.500029999999921
 20
35.507020000000011
 30
0.0
 40
5.3000002000000013
 50
354.99994906450979
 51
154.9999627141396
  0
ARC
  5
2BF0
  8
0
 10
52.0
 20
14.0
 30
0.0
 40
1.0
 50
0.0
 51
90.0
  0
LINE
  5
2BF1
  8
0
 10
43.0
 20
29.20001000000002
 30
0.0
 11
49.0
 21
29.20001000000002
 31
0.0
  0
LINE
  5
2BF2
  8
0
 10
50.0
 20
29.46795919243095
 30
0.0
 11
50.0
 21
39.428229999999978
 31
0.0
  0
LINE
  5
2BF3
  8
0
 10
42.0
 20
29.46795919243095
 30
0.0
 11
42.0
 21
39.428229999999978
 31
0.0
  0
TEXT
  5
2C9B
  8
0
 10
28.913578290831651
 20
77.549774255354237
 30
0.0
 40
5.0
  1
13MHHM-3LW 2S
  0
CIRCLE
  5
2D7B
  8
0
 10
-20.500029999999921
 20
-35.507020000000011
 30
0.0
 40
2.5999998999999989
  0
CIRCLE
  5
2D7C
  8
0
 10
-20.500029999999921
 20
35.507020000000011
 30
0.0
 40
2.5999998999999989
  0
CIRCLE
  5
2D7D
  8
0
 10
46.0
 20
-9.5
 30
0.0
 40
3.250000099999852
  0
VIEWPORT
  5
79
 67
     1
  8
0
 10
5.2499996395561617
 20
3.9999998836066761
 30
0.0
 40
15.015580297613511
 41
8.5939224089826052
 68
     1
 69
     1
1001
ACAD
1000
MVIEW
1002
{
1070
    16
1010
0.0
1020
0.0
1030
0.0
1010
0.0
1020
0.0
1030
1.0
1040
0.0
1040
8.5939224089826052
1040
5.2499996395561617
1040
3.9999998836066761
1040
50.0
1040
0.0
1040
0.0
1070
     0
1070
   100
1070
     1
1070
     1
1070
     0
1070
     0
1070
     0
1070
     0
1040
0.0
1040
0.0
1040
0.0
1040
10.0
1040
10.0
1040
10.0
1040
10.0
1070
     0
1002
{
1002
}
1002
}
1001
GENIUS_GENOBJ-N-SDF_13
1002
{
1000
OWNER
1000
GEN
1002
}
1001
GENIUS_GENODEF_13
1002
{
1000
HIER
1070
     0
1002
}
1002
{
1000
MANEDIT
1070
     0
1002
}
1002
{
1000
NOSEL
1070
     0
1002
}
1002
{
1000
BEHIND
1070
     0
1002
}
1002
{
1000
OTHER
1070
     0
1002
}
1002
{
1000
REACTOR
1002
}
1001
GENIUS_GENSCREG_15
1000
PF
1040
1.0
1000
DF
1040
1.0
1000
MIN
1011
-2.2577905092505972
1021
0.0
1031
0.0
1021
-0.2969613208846251
1031
0.0
1000
MAX
1011
12.757789788362921
1021
0.0
1031
0.0
1021
8.2969610880979801
1031
0.0
1000
FLAGS
1070
     4
  0
VIEWPORT
  5
7B
 67
     1
  8
0
 10
5.24999976158142
 20
3.99999976158142
 30
0.0
 40
8.3999996185302717
 41
6.3999996185302717
 68
     2
 69
     2
1001
ACAD
1000
MVIEW
1002
{
1070
    16
1010
0.0
1020
0.0
1030
0.0
1010
0.0
1020
0.0
1030
1.0
1040
0.0
1040
9.2590797717467002
1040
6.0
1040
4.5
1040
50.0
1040
0.0
1040
0.0
1070
     0
1070
   100
1070
     1
1070
     3
1070
     0
1070
     0
1070
     0
1070
     0
1040
0.0
1040
0.0
1040
0.0
1040
0.5
1040
0.5
1040
0.5
1040
0.5
1070
     0
1002
{
1002
}
1002
}
1001
GENIUS_GENODEF_13
1002
{
1000
HIER
1070
     0
1002
}
1002
{
1000
MANEDIT
1070
     0
1002
}
1002
{
1000
NOSEL
1070
     0
1002
}
1002
{
1000
BEHIND
1070
     0
1002
}
1002
{
1000
OTHER
1070
     0
1002
}
1002
{
1000
REACTOR
1002
}
1001
GENIUS_GENOBJ-N-SDF_13
1002
{
1000
OWNER
1000
GEN
1002
}
1001
GENIUS_GENSCREG_15
1000
PF
1040
0.0
1000
DF
1040
0.0
1000
MIN
1011
1.049999952316284
1021
0.0
1031
0.0
1021
0.7999999523162842
1031
0.0
1000
MAX
1011
9.4499995708465558
1021
0.0
1031
0.0
1021
7.1999995708465558
1031
0.0
1000
FLAGS
1070
     4
  0
ENDSEC
  0
EOF
