  0
SECTION
  2
HEADER
  9
$ACADVER
  1
AC1009
  9
$INSBASE
 10
0.0
 20
0.0
 30
0.0
  9
$EXTMIN
 10
-46.465395000000051
 20
-39.563180000000102
 30
0.0
  9
$EXTMAX
 10
111.5695452307621
 20
82.344016916450073
 30
0.0
  9
$LIMMIN
 10
0.0
 20
0.0
  9
$LIMMAX
 10
12.0
 20
9.0
  9
$ORTHOMODE
 70
     0
  9
$REGENMODE
 70
     1
  9
$FILLMODE
 70
     1
  9
$QTEXTMODE
 70
     0
  9
$MIRRTEXT
 70
     1
  9
$DRAGMODE
 70
     2
  9
$LTSCALE
 40
1.0
  9
$OSMODE
 70
    37
  9
$ATTMODE
 70
     1
  9
$TEXTSIZE
 40
0.2
  9
$TRACEWID
 40
0.05
  9
$TEXTSTYLE
  7
STANDARD
  9
$CLAYER
  8
0
  9
$CELTYPE
  6
BYLAYER
  9
$CECOLOR
 62
   256
  9
$DIMSCALE
 40
1.0
  9
$DIMASZ
 40
0.18
  9
$DIMEXO
 40
0.0625
  9
$DIMDLI
 40
0.38
  9
$DIMRND
 40
0.0
  9
$DIMDLE
 40
0.0
  9
$DIMEXE
 40
0.18
  9
$DIMTP
 40
0.0
  9
$DIMTM
 40
0.0
  9
$DIMTXT
 40
0.18
  9
$DIMCEN
 40
0.09
  9
$DIMTSZ
 40
0.0
  9
$DIMTOL
 70
     0
  9
$DIMLIM
 70
     0
  9
$DIMTIH
 70
     1
  9
$DIMTOH
 70
     1
  9
$DIMSE1
 70
     0
  9
$DIMSE2
 70
     0
  9
$DIMTAD
 70
     0
  9
$DIMZIN
 70
     0
  9
$DIMBLK
  1

  9
$DIMASO
 70
     1
  9
$DIMSHO
 70
     1
  9
$DIMPOST
  1

  9
$DIMAPOST
  1

  9
$DIMALT
 70
     0
  9
$DIMALTD
 70
     2
  9
$DIMALTF
 40
25.399999999999999
  9
$DIMLFAC
 40
1.0
  9
$DIMTOFL
 70
     0
  9
$DIMTVP
 40
0.0
  9
$DIMTIX
 70
     0
  9
$DIMSOXD
 70
     0
  9
$DIMSAH
 70
     0
  9
$DIMBLK1
  1

  9
$DIMBLK2
  1

  9
$DIMSTYLE
  2
STANDARD
  9
$DIMCLRD
 70
     0
  9
$DIMCLRE
 70
     0
  9
$DIMCLRT
 70
     0
  9
$DIMTFAC
 40
1.0
  9
$DIMGAP
 40
0.09
  9
$LUNITS
 70
     2
  9
$LUPREC
 70
     4
  9
$SKETCHINC
 40
0.1
  9
$FILLETRAD
 40
1.0
  9
$AUNITS
 70
     0
  9
$AUPREC
 70
     0
  9
$MENU
  1
.
  9
$ELEVATION
 40
0.0
  9
$PELEVATION
 40
0.0
  9
$THICKNESS
 40
0.0
  9
$LIMCHECK
 70
     0
  9
$BLIPMODE
 70
     0
  9
$CHAMFERA
 40
0.5
  9
$CHAMFERB
 40
0.5
  9
$SKPOLY
 70
     0
  9
$TDCREATE
 40
2451955.1727028699
  9
$TDUPDATE
 40
2454732.6789093171
  9
$TDINDWG
 40
0.1007239236
  9
$TDUSRTIMER
 40
0.10072375
  9
$USRTIMER
 70
     1
  9
$ANGBASE
 50
0.0
  9
$ANGDIR
 70
     0
  9
$PDMODE
 70
     0
  9
$PDSIZE
 40
0.0
  9
$PLINEWID
 40
0.0
  9
$COORDS
 70
     1
  9
$SPLFRAME
 70
     0
  9
$SPLINETYPE
 70
     6
  9
$SPLINESEGS
 70
     8
  9
$ATTDIA
 70
     0
  9
$ATTREQ
 70
     1
  9
$HANDLING
 70
 22529
  9
$HANDSEED
  5
2FBC
  9
$SURFTAB1
 70
     6
  9
$SURFTAB2
 70
     6
  9
$SURFTYPE
 70
     6
  9
$SURFU
 70
     6
  9
$SURFV
 70
     6
  9
$UCSNAME
  2

  9
$UCSORG
 10
0.0
 20
0.0
 30
0.0
  9
$UCSXDIR
 10
1.0
 20
0.0
 30
0.0
  9
$UCSYDIR
 10
0.0
 20
1.0
 30
0.0
  9
$PUCSNAME
  2

  9
$PUCSORG
 10
0.0
 20
0.0
 30
0.0
  9
$PUCSXDIR
 10
1.0
 20
0.0
 30
0.0
  9
$PUCSYDIR
 10
0.0
 20
1.0
 30
0.0
  9
$USERI1
 70
     0
  9
$USERI2
 70
     0
  9
$USERI3
 70
     0
  9
$USERI4
 70
     0
  9
$USERI5
 70
     0
  9
$USERR1
 40
0.0
  9
$USERR2
 40
0.0
  9
$USERR3
 40
0.0
  9
$USERR4
 40
0.0
  9
$USERR5
 40
0.0
  9
$WORLDVIEW
 70
     1
  9
$SHADEDGE
 70
     3
  9
$SHADEDIF
 70
    70
  9
$TILEMODE
 70
     1
  9
$MAXACTVP
 70
    48
  9
$PLIMCHECK
 70
     0
  9
$PEXTMIN
 10
1.049636599258096
 20
0.7996597240971113
 30
-0.0015258207003583
  9
$PEXTMAX
 10
9.4503627310769716
 20
7.2003400826974584
 30
0.0000000349246037
  9
$PLIMMIN
 10
-0.2500002402958907
 20
-0.2499999962453767
  9
$PLIMMAX
 10
10.74999951940821
 20
8.2499997634587316
  9
$UNITMODE
 70
     0
  9
$VISRETAIN
 70
     1
  9
$PLINEGEN
 70
     0
  9
$PSLTSCALE
 70
     1
  0
ENDSEC
  0
SECTION
  2
TABLES
  0
TABLE
  2
VPORT
 70
     2
  0
VPORT
  2
*ACTIVE
 70
     0
 10
0.0
 20
0.0
 11
1.0
 21
1.0
 12
32.552818758958608
 22
21.38986499015077
 13
0.0
 23
0.0
 14
0.5
 24
0.5
 15
0.5
 25
0.5
 16
0.0
 26
0.0
 36
1.0
 17
0.0
 27
0.0
 37
0.0
 40
122.8551906317726
 41
1.531806615776081
 42
50.0
 43
0.0
 44
0.0
 50
0.0
 51
0.0
 71
     0
 72
   100
 73
     1
 74
     3
 75
     0
 76
     0
 77
     0
 78
     0
  0
ENDTAB
  0
TABLE
  2
LTYPE
 70
     2
  0
LTYPE
  2
CONTINUOUS
 70
     0
  3
Solid line
 72
    65
 73
     0
 40
0.0
  0
LTYPE
  2
CENTER
 70
     0
  3
__ . __
 72
    65
 73
     4
 40
7.0
 49
4.0
 49
-1.0
 49
1.0
 49
-1.0
  0
ENDTAB
  0
TABLE
  2
LAYER
 70
     1
  0
LAYER
  2
0
 70
     0
 62
     7
  6
CONTINUOUS
  0
ENDTAB
  0
TABLE
  2
STYLE
 70
     1
  0
STYLE
  2
STANDARD
 70
     0
 40
0.0
 41
1.0
 50
0.0
 71
     0
 42
0.2
  3
txt
  4

  0
ENDTAB
  0
TABLE
  2
VIEW
 70
     0
  0
ENDTAB
  0
TABLE
  2
UCS
 70
     0
  0
ENDTAB
  0
TABLE
  2
APPID
 70
    19
  0
APPID
  2
ACAD
 70
     0
  0
APPID
  2
GENIUS_GENODEF_13
 70
     0
  0
APPID
  2
ACAD_DSTYLE_DIMARC_LENGTH_
 70
     0
  0
APPID
  2
ACAD_DSTYLE_DIMJOGGED_JOGA
 70
     0
  0
APPID
  2
GENIUS_GENOBJ-N-FIL_13
 70
     0
  0
APPID
  2
ACAD_MLEADERVER
 70
     0
  0
APPID
  2
MCAD_NO_VIS
 70
     0
  0
APPID
  2
ACAD_TEMP_GRAPHIC
 70
     0
  0
APPID
  2
AD_DRAW
 70
     0
  0
APPID
  2
ACATTRIBSERVICES
 70
     0
  0
APPID
  2
DESIGNERASSEMBLIES
 70
     0
  0
APPID
  2
ACADM_DIM_EDIT
 70
     0
  0
APPID
  2
AMDT_DM_ADJ
 70
     0
  0
APPID
  2
GENIUS_GENSCREG_15
 70
     0
  0
APPID
  2
GENIUS_GENOBJ-N-SDF_13
 70
     0
  0
APPID
  2
ACAD_DSTYLE_DIM_LINETYPE
 70
     0
  0
APPID
  2
ACAD_DSTYLE_DIM_EXT1_LINETYPE
 70
     0
  0
APPID
  2
ACAD_DSTYLE_DIM_EXT2_LINETYPE
 70
     0
  0
APPID
  2
ACAD_EXEMPT_FROM_CAD_STANDARDS
 70
     0
  0
ENDTAB
  0
TABLE
  2
DIMSTYLE
 70
     1
  0
DIMSTYLE
  2
STANDARD
 70
     0
  3

  4

  5

  6

  7

 40
1.0
 41
0.18
 42
0.0625
 43
0.38
 44
0.18
 45
0.0
 46
0.0
 47
0.0
 48
0.0
140
0.18
141
0.09
142
0.0
143
25.399999999999999
144
1.0
145
0.0
146
1.0
147
0.09
 71
     0
 72
     0
 73
     1
 74
     1
 75
     0
 76
     0
 77
     0
 78
     0
170
     0
171
     2
172
     0
173
     0
174
     0
175
     0
176
     0
177
     0
178
     0
  0
ENDTAB
  0
ENDSEC
  0
SECTION
  2
BLOCKS
  0
BLOCK
  8
0
  2
$MODEL_SPACE
 70
     0
 10
0.0
 20
0.0
 30
0.0
  3
$MODEL_SPACE
  1

  0
ENDBLK
  5
21
  8
0
  0
BLOCK
 67
     1
  8
0
  2
$PAPER_SPACE
 70
     0
 10
0.0
 20
0.0
 30
0.0
  3
$PAPER_SPACE
  1

  0
ENDBLK
  5
60
 67
     1
  8
0
  0
ENDSEC
  0
SECTION
  2
ENTITIES
  0
LINE
  5
2129
  8
0
  6
CENTER
 10
111.5695452307621
 20
0.0
 30
0.0
 11
86.754675230762118
 21
0.0
 31
0.0
  0
LINE
  5
212C
  8
0
 10
46.0
 20
-14.0
 30
0.0
 11
46.0
 21
-5.0
 31
0.0
  0
LINE
  5
212D
  8
0
 10
46.0
 20
5.0
 30
0.0
 11
46.0
 21
13.99999999999954
 31
0.0
  0
LINE
  5
212E
  8
0
  6
CENTER
 10
0.0
 20
0.0
 30
0.0
 11
-21.932930000000169
 21
-37.988949999999932
 31
0.0
  0
LINE
  5
212F
  8
0
  6
CENTER
 10
39.0
 20
-20.0
 30
0.0
 11
39.0
 21
58.447850000000471
 31
0.0
  0
LINE
  5
2132
  8
0
 10
43.0
 20
-4.0
 30
0.0
 11
43.0
 21
4.0
 31
0.0
  0
LINE
  5
2134
  8
0
 10
35.0
 20
-4.0
 30
0.0
 11
35.0
 21
4.0
 31
0.0
  0
LINE
  5
213B
  8
0
 10
34.0
 20
43.000030000000152
 30
0.0
 11
34.0
 21
31.200010000000471
 31
0.0
  0
LINE
  5
213C
  8
0
 10
44.0
 20
43.000030000000152
 30
0.0
 11
44.0
 21
31.200010000000471
 31
0.0
  0
LINE
  5
213D
  8
0
 10
31.25
 20
27.20001000000093
 30
0.0
 11
31.25
 21
17.900030000000239
 31
0.0
  0
LINE
  5
213F
  8
0
 10
46.749999999999993
 20
27.200010000000471
 30
0.0
 11
46.749999999999993
 21
17.900030000000239
 31
0.0
  0
LINE
  5
2140
  8
0
 10
52.93932999999992
 20
52.000030000000152
 30
0.0
 11
25.060660000000091
 21
52.000030000000152
 31
0.0
  0
LINE
  5
2143
  8
0
 10
45.0
 20
4.0
 30
0.0
 11
24.260310000000121
 21
4.0
 31
0.0
  0
LINE
  5
2145
  8
0
  6
CENTER
 10
100.1831252307621
 20
55.703910000000178
 30
0.0
 11
100.1831252307621
 21
-39.563180000000102
 31
0.0
  0
LINE
  5
2146
  8
0
  6
CENTER
 10
46.465395000000051
 20
0.0
 30
0.0
 11
-46.465395000000051
 21
0.0
 31
0.0
  0
LINE
  5
2147
  8
0
 10
108.1831252307621
 20
25.118379999999881
 30
0.0
 11
108.1831252307621
 21
-6.3999899999998879
 31
0.0
  0
LINE
  5
2148
  8
0
 10
92.183125230762116
 20
25.118379999999881
 30
0.0
 11
92.183125230762116
 21
-6.2662899999995707
 31
0.0
  0
LINE
  5
2149
  8
0
 10
103.73754523076209
 20
-33.25
 30
0.0
 11
96.628715230762168
 21
-33.25
 31
0.0
  0
LINE
  5
214D
  8
0
 10
95.933125230762116
 20
-4.0
 30
0.0
 11
92.433125230762116
 21
-4.0
 31
0.0
  0
LINE
  5
214E
  8
0
  6
CENTER
 10
111.2231952307621
 20
-9.5
 30
0.0
 11
86.918575230762144
 21
-9.5
 31
0.0
  0
LINE
  5
214F
  8
0
 10
45.0
 20
-4.0
 30
0.0
 11
24.260310000000121
 21
-4.0
 31
0.0
  0
LINE
  5
2150
  8
0
 10
45.0
 20
-15.0
 30
0.0
 11
30.879820000000102
 21
-15.0
 31
0.0
  0
LINE
  5
2151
  8
0
 10
92.217185230762084
 20
25.377180000000401
 30
0.0
 11
92.433125230762116
 21
26.18307000000004
 31
0.0
  0
LINE
  5
2152
  8
0
 10
108.1490452307621
 20
25.377180000000401
 30
0.0
 11
107.9331352307621
 21
26.182990000000238
 31
0.0
  0
LINE
  5
2153
  8
0
 10
106.6353352307621
 20
-31.026449999999841
 30
0.0
 11
108.149055230762
 21
-25.37716
 31
0.0
  0
LINE
  5
2154
  8
0
 10
94.326715230762133
 20
-15.0
 30
0.0
 11
94.326715230762133
 21
-30.208969999999681
 31
0.0
  0
LINE
  5
2155
  8
0
 10
106.039545230762
 20
-15.0
 30
0.0
 11
106.039545230762
 21
-30.327559999999721
 31
0.0
  0
LINE
  5
2156
  8
0
 10
31.73126000000002
 20
-4.0
 30
0.0
 11
31.73126000000002
 21
-15.0
 31
0.0
  0
LINE
  5
2157
  8
0
 10
95.683245230762168
 20
11.2850000000003
 30
0.0
 11
92.706615230762168
 21
14.661320000000149
 31
0.0
  0
LINE
  5
2158
  8
0
 10
104.68300523076201
 20
11.285030000000001
 30
0.0
 11
107.6596252307621
 21
14.66135000000031
 31
0.0
  0
LINE
  5
2159
  8
0
 10
98.333155230762145
 20
52.0
 30
0.0
 11
102.0331352307621
 21
52.0
 31
0.0
  0
LINE
  5
215A
  8
0
 10
97.333155230762145
 20
51.0
 30
0.0
 11
97.333155230762145
 21
31.200010000000471
 31
0.0
  0
LINE
  5
215B
  8
0
 10
95.933125230762116
 20
4.0
 30
0.0
 11
92.433125230762116
 21
4.0
 31
0.0
  0
LINE
  5
215C
  8
0
 10
95.933125230762116
 20
-4.0
 30
0.0
 11
95.933125230762116
 21
-15.0
 31
0.0
  0
LINE
  5
215D
  8
0
 10
95.933125230762116
 20
-15.0
 30
0.0
 11
92.433125230762116
 21
-15.0
 31
0.0
  0
LINE
  5
215E
  8
0
 10
95.933125230762116
 20
10.62369000000035
 30
0.0
 11
95.933125230762116
 21
4.0
 31
0.0
  0
LINE
  5
2163
  8
0
 10
96.183125230762116
 20
12.0
 30
0.0
 11
96.183125230762116
 21
-14.428189999999629
 31
0.0
  0
LINE
  5
2164
  8
0
 10
96.183125230762116
 20
39.42823000000044
 30
0.0
 11
96.183125230762116
 21
29.389619999999919
 31
0.0
  0
LINE
  5
2165
  8
0
 10
92.433125230762116
 20
27.200010000000471
 30
0.0
 11
92.433125230762116
 21
17.900000000000091
 31
0.0
  0
LINE
  5
2166
  8
0
 10
94.433125230762144
 20
29.200010000000471
 30
0.0
 11
105.9331252307621
 21
29.200010000000471
 31
0.0
  0
LINE
  5
2167
  8
0
 10
95.157955230762127
 20
12.0
 30
0.0
 11
105.2083352307621
 21
12.0
 31
0.0
  0
LINE
  5
2168
  8
0
 10
107.9331252307621
 20
-12.5999999999999
 30
0.0
 11
108.4331252307621
 21
-12.5999999999999
 31
0.0
  0
LINE
  5
2169
  8
0
 10
107.9331252307621
 20
-6.3999899999998879
 30
0.0
 11
108.4331252307621
 21
-6.3999899999998879
 31
0.0
  0
LINE
  5
216B
  8
0
 10
103.0331352307621
 20
51.0
 30
0.0
 11
103.0331352307621
 21
31.200010000000471
 31
0.0
  0
LINE
  5
216C
  8
0
 10
104.4331252307621
 20
4.0
 30
0.0
 11
107.9331252307621
 21
4.0
 31
0.0
  0
LINE
  5
216D
  8
0
 10
104.4331252307621
 20
-4.0
 30
0.0
 11
104.4331252307621
 21
-15.0
 31
0.0
  0
LINE
  5
216E
  8
0
 10
104.4331252307621
 20
-4.0
 30
0.0
 11
107.9331252307621
 21
-4.0
 31
0.0
  0
LINE
  5
216F
  8
0
 10
104.4331252307621
 20
-15.0
 30
0.0
 11
107.9331252307621
 21
-15.0
 31
0.0
  0
LINE
  5
2170
  8
0
 10
104.4331252307621
 20
10.62369000000035
 30
0.0
 11
104.4331252307621
 21
4.0
 31
0.0
  0
LINE
  5
2175
  8
0
 10
104.1831252307621
 20
12.0
 30
0.0
 11
104.1831252307621
 21
-14.428189999999629
 31
0.0
  0
LINE
  5
2176
  8
0
 10
104.1831252307621
 20
39.42823000000044
 30
0.0
 11
104.1831252307621
 21
29.389619999999919
 31
0.0
  0
LINE
  5
2177
  8
0
 10
107.9331252307621
 20
27.200010000000471
 30
0.0
 11
107.9331252307621
 21
17.900000000000091
 31
0.0
  0
LINE
  5
217A
  8
0
 10
106.039545230762
 20
29.200010000000471
 30
0.0
 11
106.039545230762
 21
30.94182
 31
0.0
  0
LINE
  5
217B
  8
0
 10
94.326715230762133
 20
29.200010000000471
 30
0.0
 11
94.326715230762133
 21
30.974510000000009
 31
0.0
  0
LINE
  5
217C
  8
0
 10
30.879820000000102
 20
15.0
 30
0.0
 11
45.0
 21
14.99999999999954
 31
0.0
  0
LINE
  5
217D
  8
0
  6
CENTER
 10
0.0
 20
-38.261129999999859
 30
0.0
 11
0.0
 21
38.261129999999859
 31
0.0
  0
LINE
  5
217E
  8
0
 10
108.9331252307621
 20
-6.8999899999998879
 30
0.0
 11
108.9331252307621
 21
-12.099999999999911
 31
0.0
  0
LINE
  5
217F
  8
0
 10
109.1831252307621
 20
-21.476059999999961
 30
0.0
 11
109.1831252307621
 21
-26.67606999999952
 31
0.0
  0
LINE
  5
2180
  8
0
 10
107.6831252307621
 20
-27.17606999999953
 30
0.0
 11
108.6831252307621
 21
-27.17606999999953
 31
0.0
  0
LINE
  5
2181
  8
0
 10
108.1831252307621
 20
-20.976059999999961
 30
0.0
 11
108.6831252307621
 21
-20.976059999999961
 31
0.0
  0
LINE
  5
2182
  8
0
 10
109.1831252307621
 20
21.476059999999961
 30
0.0
 11
109.1831252307621
 21
26.676070000000429
 31
0.0
  0
LINE
  5
2183
  8
0
  6
CENTER
 10
111.2231952307621
 20
24.076070000000069
 30
0.0
 11
86.918575230762144
 21
24.076070000000069
 31
0.0
  0
LINE
  5
2184
  8
0
 10
108.1831252307621
 20
20.976059999999961
 30
0.0
 11
108.6831252307621
 21
20.976059999999961
 31
0.0
  0
LINE
  5
2185
  8
0
 10
107.9331252307621
 20
27.176070000000429
 30
0.0
 11
108.6831252307621
 21
27.176070000000429
 31
0.0
  0
LINE
  5
2186
  8
0
 10
92.433125230762116
 20
14.87911000000031
 30
0.0
 11
92.433125230762116
 21
-15.0
 31
0.0
  0
LINE
  5
2187
  8
0
 10
107.9331252307621
 20
14.87911000000031
 30
0.0
 11
107.9331252307621
 21
-15.0
 31
0.0
  0
LINE
  5
2189
  8
0
 10
92.183125230762116
 20
-12.73369999999977
 30
0.0
 11
92.183125230762116
 21
-25.118339999999989
 31
0.0
  0
LINE
  5
218A
  8
0
 10
108.1831252307621
 20
-12.5999999999999
 30
0.0
 11
108.1831252307621
 21
-25.118339999999989
 31
0.0
  0
LINE
  5
218B
  8
0
 10
92.183125230762116
 20
-27.32605999999987
 30
0.0
 11
92.68312523076213
 21
-27.32605999999987
 31
0.0
  0
LINE
  5
218C
  8
0
 10
92.183125230762116
 20
27.326070000000069
 30
0.0
 11
92.433125230762116
 21
27.326070000000069
 31
0.0
  0
LINE
  5
218D
  8
0
 10
93.183125230762144
 20
-29.07605999999987
 30
0.0
 11
93.208325230762185
 21
-29.07605999999987
 31
0.0
  0
LINE
  5
218E
  8
0
 10
92.183125230762116
 20
-27.32605999999987
 30
0.0
 11
92.183125230762116
 21
-28.07605999999987
 31
0.0
  0
LINE
  5
218F
  8
0
 10
108.1831252307621
 20
-27.17606999999953
 30
0.0
 11
108.1831252307621
 21
-28.07605999999987
 31
0.0
  0
LINE
  5
2190
  8
0
 10
93.730925230762068
 20
-31.026449999999841
 30
0.0
 11
92.217205230762147
 21
-25.377149999999801
 31
0.0
  0
LINE
  5
2191
  8
0
 10
92.183125230762116
 20
27.326070000000069
 30
0.0
 11
92.183125230762116
 21
28.076070000000069
 31
0.0
  0
LINE
  5
2192
  8
0
 10
108.1831252307621
 20
27.176070000000429
 30
0.0
 11
108.1831252307621
 21
28.076070000000069
 31
0.0
  0
LINE
  5
2193
  8
0
  6
CENTER
 10
28.43521000000009
 20
-9.5
 30
0.0
 11
51.971189999999979
 21
-9.5
 31
0.0
  0
LINE
  5
2195
  8
0
  6
CENTER
 10
111.2231952307621
 20
-24.07605999999987
 30
0.0
 11
86.918575230762144
 21
-24.07605999999987
 31
0.0
  0
LINE
  5
219D
  8
0
 10
-11.96164999999996
 20
-22.131719999999849
 30
0.0
 11
-11.1576
 21
-31.322049999999759
 31
0.0
  0
LINE
  5
219E
  8
0
 10
-25.764010000000091
 20
-21.422160000000069
 30
0.0
 11
-22.10541000000012
 21
-31.474069999999749
 31
0.0
  0
LINE
  5
219F
  8
0
 10
-12.69116000000008
 20
-19.530159999999789
 30
0.0
 11
-11.84520999999995
 21
-29.199429999999658
 31
0.0
  0
LINE
  5
21A0
  8
0
 10
-10.568110000000161
 20
-20.755909999999851
 30
0.0
 11
-11.388059999999991
 21
-21.138259999999718
 31
0.0
  0
LINE
  5
21A1
  8
0
 10
-5.6702800000000471
 20
-33.023329999999987
 30
0.0
 11
-16.204699999999999
 21
-34.88083000000006
 31
0.0
  0
LINE
  5
21A4
  8
0
 10
0.5482899999999518
 20
-25.57756999999992
 30
0.0
 11
-10.04809999999997
 21
-31.695399999999601
 31
0.0
  0
LINE
  5
21A5
  8
0
 10
-20.032020000000099
 20
-17.221419999999849
 30
0.0
 11
-26.0320999999999
 21
-20.68556999999964
 31
0.0
  0
LINE
  5
21A6
  8
0
 10
25.368199999999881
 20
-12.51387999999951
 30
0.0
 11
29.67427999999995
 21
-15.0
 31
0.0
  0
LINE
  5
21A9
  8
0
 10
93.106705230762145
 20
28.696880000000419
 30
0.0
 11
93.730915230762093
 21
31.026460000000039
 31
0.0
  0
LINE
  5
21AA
  8
0
 10
107.2595352307621
 20
28.696910000000109
 30
0.0
 11
106.63532523076221
 21
31.026470000000241
 31
0.0
  0
ARC
  5
21AC
  8
0
 10
45.0
 20
-14.0
 30
0.0
 40
1.0
 50
270.0
 51
0.0
  0
ARC
  5
21AD
  8
0
 10
45.0
 20
-5.0
 30
0.0
 40
1.0
 50
0.0
 51
90.0
  0
ARC
  5
21AE
  8
0
 10
45.0
 20
5.0
 30
0.0
 40
1.0
 50
270.0
 51
0.0
  0
ARC
  5
21B1
  8
0
 10
39.0
 20
32.500030000000152
 30
0.0
 40
8.0
 50
59.999994999993248
 51
119.9999999999972
  0
ARC
  5
21B2
  8
0
 10
42.0
 20
31.200010000000471
 30
0.0
 40
2.0
 50
270.0
 51
0.0000086514148811
  0
ARC
  5
21B3
  8
0
 10
36.0
 20
31.200010000000471
 30
0.0
 40
2.0
 50
180.000010000001
 51
270.0
  0
ARC
  5
21B4
  8
0
 10
39.0
 20
43.000030000000152
 30
0.0
 40
5.0
 50
359.999989999999
 51
180.000010000001
  0
ARC
  5
21B5
  8
0
 10
20.0
 20
48.000030000000152
 30
0.0
 40
35.0
 50
324.75248999998468
 51
3.4745943000043429
  0
ARC
  5
21B6
  8
0
 10
56.75
 20
22.0300900000002
 30
0.0
 40
10.0
 50
144.75250000000301
 51
180.000010000001
  0
ARC
  5
21B7
  8
0
 10
21.25
 20
22.0300900000002
 30
0.0
 40
10.0
 50
359.999989999999
 51
35.247502000003728
  0
ARC
  5
21B8
  8
0
 10
58.0
 20
48.000030000000152
 30
0.0
 40
35.0
 50
176.5254100000094
 51
215.24751000001521
  0
ARC
  5
21B9
  8
0
 10
39.0
 20
17.900030000000239
 30
0.0
 40
7.75
 50
180.000010000001
 51
201.97471714183729
  0
ARC
  5
21BA
  8
0
 10
39.0
 20
17.900030000000239
 30
0.0
 40
7.75
 50
333.16897343824542
 51
359.999989999999
  0
ARC
  5
21BB
  8
0
 10
39.0
 20
-9.5
 30
0.0
 40
6.0
 50
246.44354000000601
 51
293.55646430909712
  0
ARC
  5
21BE
  8
0
 10
52.93932999999992
 20
50.000030000000152
 30
0.0
 40
2.0
 50
3.4745943000043429
 51
89.999996000000905
  0
ARC
  5
21BF
  8
0
 10
25.060660000000091
 20
50.000030000000152
 30
0.0
 40
2.0
 50
89.999996000000905
 51
176.5254100000094
  0
ARC
  5
21C0
  8
0
 10
93.183125230762144
 20
25.118379999999881
 30
0.0
 40
1.0
 50
164.9999900000104
 51
180.000010000001
  0
ARC
  5
21C1
  8
0
 10
107.1831252307621
 20
25.118379999999881
 30
0.0
 40
1.0
 50
0.0
 51
14.999999999994451
  0
ARC
  5
21C2
  8
0
 10
93.183125230762144
 20
-25.118339999999989
 30
0.0
 40
1.0
 50
179.99998999999889
 51
194.9999999999944
  0
ARC
  5
21C3
  8
0
 10
107.1831252307621
 20
-25.118339999999989
 30
0.0
 40
1.0
 50
345.00000000000551
 51
0.0
  0
ARC
  5
21C4
  8
0
 10
96.628715230762168
 20
30.250030000000152
 30
0.0
 40
3.0
 50
98.541747513154263
 51
164.9999900000104
  0
ARC
  5
21C5
  8
0
 10
103.73754523076209
 20
30.250030000000152
 30
0.0
 40
3.0
 50
14.999999999994451
 51
81.458445614925054
  0
ARC
  5
21C6
  8
0
 10
96.628715230762168
 20
-30.25
 30
0.0
 40
3.0
 50
195.00000999998949
 51
270.0
  0
ARC
  5
21C7
  8
0
 10
103.73754523076209
 20
-30.25
 30
0.0
 40
3.0
 50
270.0
 51
345.00000000000551
  0
ARC
  5
21C8
  8
0
 10
94.933125230762116
 20
10.62369000000035
 30
0.0
 40
1.0
 50
0.0
 51
41.399999999996282
  0
ARC
  5
21C9
  8
0
 10
105.4331252307621
 20
10.62369000000035
 30
0.0
 40
1.0
 50
138.60000000000369
 51
180.000010000001
  0
ARC
  5
21CA
  8
0
 10
91.956505230762104
 20
14.0
 30
0.0
 40
1.0
 50
41.399999999996282
 51
61.534889000004888
  0
ARC
  5
21CB
  8
0
 10
94.433125230762144
 20
27.200010000000471
 30
0.0
 40
2.0
 50
89.999996000000905
 51
180.000010000001
  0
ARC
  5
21CC
  8
0
 10
100.1831252307621
 20
32.5
 30
0.0
 40
8.0
 50
110.8700699999996
 51
119.9999999999972
  0
ARC
  5
21CD
  8
0
 10
100.1831252307621
 20
17.900000000000091
 30
0.0
 40
7.75
 50
180.000010000001
 51
229.57810000001271
  0
ARC
  5
21CE
  8
0
 10
100.1831252307621
 20
-7.5
 30
0.0
 40
8.0
 50
240.0000000000027
 51
299.99999999999721
  0
ARC
  5
21CF
  8
0
 10
95.333155230762145
 20
31.200010000000471
 30
0.0
 40
2.0
 50
270.0
 51
0.0000050089374039
  0
ARC
  5
21D0
  8
0
 10
98.333155230762145
 20
51.0
 30
0.0
 40
1.0
 50
89.999996000000905
 51
180.000010000001
  0
ARC
  5
21D2
  8
0
 10
102.0331352307621
 20
51.0
 30
0.0
 40
1.0
 50
0.0
 51
90.00000299999769
  0
ARC
  5
21D3
  8
0
 10
105.0331352307621
 20
31.200010000000471
 30
0.0
 40
2.0
 50
179.99998999999889
 51
270.0
  0
ARC
  5
21D4
  8
0
 10
105.9331252307621
 20
27.200010000000471
 30
0.0
 40
2.0
 50
0.0
 51
90.00000299999769
  0
ARC
  5
21D5
  8
0
 10
100.1831252307621
 20
32.5
 30
0.0
 40
8.0
 50
60.000002000001302
 51
69.129929000002221
  0
ARC
  5
21D6
  8
0
 10
100.1831252307621
 20
17.900000000000091
 30
0.0
 40
7.75
 50
310.42191999999039
 51
0.0
  0
ARC
  5
21D7
  8
0
 10
108.4331252307621
 20
-12.099999999999911
 30
0.0
 40
0.5
 50
270.0
 51
0.0
  0
ARC
  5
21D8
  8
0
 10
108.4331252307621
 20
-6.8999899999998879
 30
0.0
 40
0.5
 50
0.0
 51
90.00000299999769
  0
ARC
  5
21D9
  8
0
 10
108.4097552307621
 20
14.0
 30
0.0
 40
1.0
 50
118.46510999999541
 51
138.60000000000369
  0
ARC
  5
21DA
  8
0
 10
108.6831252307621
 20
-21.476059999999961
 30
0.0
 40
0.5
 50
0.0
 51
90.00000299999769
  0
ARC
  5
21DB
  8
0
 10
108.6831252307621
 20
-26.67606999999952
 30
0.0
 40
0.5
 50
270.0
 51
0.0
  0
ARC
  5
21DC
  8
0
 10
108.6831252307621
 20
21.476059999999961
 30
0.0
 40
0.5
 50
270.0
 51
0.0
  0
ARC
  5
21DD
  8
0
 10
108.6831252307621
 20
26.676070000000429
 30
0.0
 40
0.5
 50
0.0
 51
90.00000299999769
  0
ARC
  5
21DE
  8
0
 10
93.183125230762144
 20
-28.07605999999987
 30
0.0
 40
1.0
 50
179.99998999999889
 51
270.0
  0
ARC
  5
21DF
  8
0
 10
107.1831252307621
 20
-28.07605999999987
 30
0.0
 40
1.0
 50
270.0
 51
0.0
  0
ARC
  5
21E0
  8
0
 10
93.183125230762144
 20
28.076070000000069
 30
0.0
 40
1.0
 50
90.00000299999769
 51
180.000010000001
  0
ARC
  5
21E1
  8
0
 10
107.1831252307621
 20
28.076070000000069
 30
0.0
 40
1.0
 50
0.0
 51
90.00000299999769
  0
ARC
  5
21E6
  8
0
  6
CENTER
 10
0.0
 20
0.0
 30
0.0
 40
34.25
 50
228.6227599999973
 51
255.33867000000029
  0
ARC
  5
21EF
  8
0
 10
-9.3002699999999532
 20
-23.474839999999851
 30
0.0
 40
3.0
 50
68.387528999999446
 51
115.0000000000048
  0
ARC
  5
21F0
  8
0
 10
-4.8020400000000327
 20
-37.947369999999857
 30
0.0
 40
5.0
 50
82.787869000003155
 51
99.99999999999747
  0
ARC
  5
21F1
  8
0
 10
-30.462469999999929
 20
-23.132249999999651
 30
0.0
 40
5.0
 50
19.999999000005729
 51
37.211921999981882
  0
ARC
  5
21F3
  8
0
 10
-10.96542999999996
 20
-22.044570000000022
 30
0.0
 40
1.0
 50
115.0000000000048
 51
184.99999999999969
  0
ARC
  5
21F4
  8
0
 10
-17.125029999999921
 20
-29.661339999999651
 30
0.0
 40
5.3000002000000004
 50
200.00020240547579
 51
4.9999999000105211
  0
ARC
  5
21F6
  8
0
 10
-15.67972000000009
 20
-19.791619999999959
 30
0.0
 40
3.0
 50
4.9999999000105211
 51
51.61230399999684
  0
ARC
  5
21F7
  8
0
 10
0.0
 20
0.0
 30
0.0
 40
33.25
 50
250.39301999999961
 51
331.16627000000062
  0
ARC
  5
21FC
  8
0
 10
0.0
 20
0.0
 30
0.0
 40
25.25
 50
274.15793999999971
 51
327.66037999998412
  0
ARC
  5
21FD
  8
0
 10
-20.532020000000099
 20
-16.35541000000012
 30
0.0
 40
1.0
 50
299.99999999999721
 51
38.540147999989919
  0
ARC
  5
21FE
  8
0
 10
2.0483100000001282
 20
-28.175639999999468
 30
0.0
 40
3.0
 50
94.157934999996954
 51
119.9999999999972
  0
ARC
  5
21FF
  8
0
 10
0.0
 20
0.0
 30
0.0
 40
22.25
 50
248.38753000000179
 51
343.90517999999372
  0
ARC
  5
2201
  8
0
 10
24.260310000000121
 20
7.0
 30
0.0
 40
3.0
 50
196.09482000000611
 51
270.0
  0
ARC
  5
2202
  8
0
 10
24.260310000000121
 20
-7.0
 30
0.0
 40
3.0
 50
90.00000299999769
 51
163.90517999999381
  0
ARC
  5
2203
  8
0
 10
23.86818999999991
 20
-15.11196999999993
 30
0.0
 40
3.0
 50
60.000002000001302
 51
147.66036999999071
  0
ARC
  5
2205
  8
0
 10
30.879820000000102
 20
-17.0
 30
0.0
 40
2.0
 50
90.00000299999769
 51
151.16627000000059
  0
ARC
  5
2206
  8
0
 10
30.879820000000102
 20
17.0
 30
0.0
 40
2.0
 50
208.83372999999929
 51
270.0
  0
POLYLINE
  5
2207
  8
0
 10
92.433125230762116
 20
-6.2499999000000006
 30
0.0
 66
     1
 70
     8
  0
VERTEX
  8
0
  5
2E36
 10
92.4331
 20
-6.25000
 30
0.000000
  70
    32
  0
VERTEX
  8
0
  5
2E37
 10
92.3718
 20
-6.25098
 30
0.000000
  70
    32
  0
VERTEX
  8
0
  5
2E38
 10
92.3105
 20
-6.25391
 30
0.000000
  70
    32
  0
VERTEX
  8
0
  5
2E39
 10
92.2492
 20
-6.25881
 30
0.000000
  70
    32
  0
VERTEX
  8
0
  5
2E3A
 10
92.1881
 20
-6.26565
 30
0.000000
  70
    32
  0
VERTEX
  8
0
  5
2E3B
 10
92.1271
 20
-6.27444
 30
0.000000
  70
    32
  0
VERTEX
  8
0
  5
2E3C
 10
92.0663
 20
-6.28518
 30
0.000000
  70
    32
  0
VERTEX
  8
0
  5
2E3D
 10
92.0057
 20
-6.29785
 30
0.000000
  70
    32
  0
VERTEX
  8
0
  5
2E3E
 10
91.9454
 20
-6.31245
 30
0.000000
  70
    32
  0
VERTEX
  8
0
  5
2E3F
 10
91.8854
 20
-6.32897
 30
0.000000
  70
    32
  0
VERTEX
  8
0
  5
2E40
 10
91.8257
 20
-6.34740
 30
0.000000
  70
    32
  0
VERTEX
  8
0
  5
2E41
 10
91.7663
 20
-6.36773
 30
0.000000
  70
    32
  0
VERTEX
  8
0
  5
2E42
 10
91.7074
 20
-6.38994
 30
0.000000
  70
    32
  0
VERTEX
  8
0
  5
2E43
 10
91.6489
 20
-6.41403
 30
0.000000
  70
    32
  0
VERTEX
  8
0
  5
2E44
 10
91.5909
 20
-6.43998
 30
0.000000
  70
    32
  0
VERTEX
  8
0
  5
2E45
 10
91.5334
 20
-6.46777
 30
0.000000
  70
    32
  0
VERTEX
  8
0
  5
2E46
 10
91.4764
 20
-6.49739
 30
0.000000
  70
    32
  0
VERTEX
  8
0
  5
2E47
 10
91.4200
 20
-6.52882
 30
0.000000
  70
    32
  0
VERTEX
  8
0
  5
2E48
 10
91.3642
 20
-6.56203
 30
0.000000
  70
    32
  0
VERTEX
  8
0
  5
2E49
 10
91.3091
 20
-6.59702
 30
0.000000
  70
    32
  0
VERTEX
  8
0
  5
2E4A
 10
91.2546
 20
-6.63376
 30
0.000000
  70
    32
  0
VERTEX
  8
0
  5
2E4B
 10
91.2009
 20
-6.67222
 30
0.000000
  70
    32
  0
VERTEX
  8
0
  5
2E4C
 10
91.1479
 20
-6.71238
 30
0.000000
  70
    32
  0
VERTEX
  8
0
  5
2E4D
 10
91.0956
 20
-6.75423
 30
0.000000
  70
    32
  0
VERTEX
  8
0
  5
2E4E
 10
91.0442
 20
-6.79772
 30
0.000000
  70
    32
  0
VERTEX
  8
0
  5
2E4F
 10
90.9936
 20
-6.84285
 30
0.000000
  70
    32
  0
VERTEX
  8
0
  5
2E50
 10
90.9439
 20
-6.88958
 30
0.000000
  70
    32
  0
VERTEX
  8
0
  5
2E51
 10
90.8950
 20
-6.93787
 30
0.000000
  70
    32
  0
VERTEX
  8
0
  5
2E52
 10
90.8471
 20
-6.98772
 30
0.000000
  70
    32
  0
VERTEX
  8
0
  5
2E53
 10
90.8002
 20
-7.03907
 30
0.000000
  70
    32
  0
VERTEX
  8
0
  5
2E54
 10
90.7542
 20
-7.09191
 30
0.000000
  70
    32
  0
VERTEX
  8
0
  5
2E55
 10
90.7093
 20
-7.14620
 30
0.000000
  70
    32
  0
VERTEX
  8
0
  5
2E56
 10
90.6654
 20
-7.20190
 30
0.000000
  70
    32
  0
VERTEX
  8
0
  5
2E57
 10
90.6225
 20
-7.25899
 30
0.000000
  70
    32
  0
VERTEX
  8
0
  5
2E58
 10
90.5807
 20
-7.31743
 30
0.000000
  70
    32
  0
VERTEX
  8
0
  5
2E59
 10
90.5401
 20
-7.37719
 30
0.000000
  70
    32
  0
VERTEX
  8
0
  5
2E5A
 10
90.5006
 20
-7.43822
 30
0.000000
  70
    32
  0
VERTEX
  8
0
  5
2E5B
 10
90.4623
 20
-7.50050
 30
0.000000
  70
    32
  0
VERTEX
  8
0
  5
2E5C
 10
90.4251
 20
-7.56398
 30
0.000000
  70
    32
  0
VERTEX
  8
0
  5
2E5D
 10
90.3892
 20
-7.62862
 30
0.000000
  70
    32
  0
VERTEX
  8
0
  5
2E5E
 10
90.3545
 20
-7.69440
 30
0.000000
  70
    32
  0
VERTEX
  8
0
  5
2E5F
 10
90.3210
 20
-7.76126
 30
0.000000
  70
    32
  0
VERTEX
  8
0
  5
2E60
 10
90.2888
 20
-7.82917
 30
0.000000
  70
    32
  0
VERTEX
  8
0
  5
2E61
 10
90.2579
 20
-7.89808
 30
0.000000
  70
    32
  0
VERTEX
  8
0
  5
2E62
 10
90.2283
 20
-7.96796
 30
0.000000
  70
    32
  0
VERTEX
  8
0
  5
2E63
 10
90.2001
 20
-8.03876
 30
0.000000
  70
    32
  0
VERTEX
  8
0
  5
2E64
 10
90.1732
 20
-8.11045
 30
0.000000
  70
    32
  0
VERTEX
  8
0
  5
2E65
 10
90.1476
 20
-8.18297
 30
0.000000
  70
    32
  0
VERTEX
  8
0
  5
2E66
 10
90.1234
 20
-8.25628
 30
0.000000
  70
    32
  0
VERTEX
  8
0
  5
2E67
 10
90.1006
 20
-8.33034
 30
0.000000
  70
    32
  0
VERTEX
  8
0
  5
2E68
 10
90.0793
 20
-8.40511
 30
0.000000
  70
    32
  0
VERTEX
  8
0
  5
2E69
 10
90.0593
 20
-8.48053
 30
0.000000
  70
    32
  0
VERTEX
  8
0
  5
2E6A
 10
90.0408
 20
-8.55657
 30
0.000000
  70
    32
  0
VERTEX
  8
0
  5
2E6B
 10
90.0237
 20
-8.63318
 30
0.000000
  70
    32
  0
VERTEX
  8
0
  5
2E6C
 10
90.0080
 20
-8.71031
 30
0.000000
  70
    32
  0
VERTEX
  8
0
  5
2E6D
 10
89.9939
 20
-8.78792
 30
0.000000
  70
    32
  0
VERTEX
  8
0
  5
2E6E
 10
89.9812
 20
-8.86596
 30
0.000000
  70
    32
  0
VERTEX
  8
0
  5
2E6F
 10
89.9699
 20
-8.94437
 30
0.000000
  70
    32
  0
VERTEX
  8
0
  5
2E70
 10
89.9602
 20
-9.02313
 30
0.000000
  70
    32
  0
VERTEX
  8
0
  5
2E71
 10
89.9519
 20
-9.10217
 30
0.000000
  70
    32
  0
VERTEX
  8
0
  5
2E72
 10
89.9452
 20
-9.18144
 30
0.000000
  70
    32
  0
VERTEX
  8
0
  5
2E73
 10
89.9399
 20
-9.26092
 30
0.000000
  70
    32
  0
VERTEX
  8
0
  5
2E74
 10
89.9361
 20
-9.34053
 30
0.000000
  70
    32
  0
VERTEX
  8
0
  5
2E75
 10
89.9339
 20
-9.42024
 30
0.000000
  70
    32
  0
VERTEX
  8
0
  5
2E76
 10
89.9331
 20
-9.50000
 30
0.000000
  70
    32
  0
VERTEX
  8
0
  5
2E77
 10
89.9339
 20
-9.57976
 30
0.000000
  70
    32
  0
VERTEX
  8
0
  5
2E78
 10
89.9361
 20
-9.65947
 30
0.000000
  70
    32
  0
VERTEX
  8
0
  5
2E79
 10
89.9399
 20
-9.73908
 30
0.000000
  70
    32
  0
VERTEX
  8
0
  5
2E7A
 10
89.9452
 20
-9.81856
 30
0.000000
  70
    32
  0
VERTEX
  8
0
  5
2E7B
 10
89.9519
 20
-9.89783
 30
0.000000
  70
    32
  0
VERTEX
  8
0
  5
2E7C
 10
89.9602
 20
-9.97687
 30
0.000000
  70
    32
  0
VERTEX
  8
0
  5
2E7D
 10
89.9699
 20
-10.0556
 30
0.000000
  70
    32
  0
VERTEX
  8
0
  5
2E7E
 10
89.9812
 20
-10.1340
 30
0.000000
  70
    32
  0
VERTEX
  8
0
  5
2E7F
 10
89.9939
 20
-10.2121
 30
0.000000
  70
    32
  0
VERTEX
  8
0
  5
2E80
 10
90.0080
 20
-10.2897
 30
0.000000
  70
    32
  0
VERTEX
  8
0
  5
2E81
 10
90.0237
 20
-10.3668
 30
0.000000
  70
    32
  0
VERTEX
  8
0
  5
2E82
 10
90.0408
 20
-10.4434
 30
0.000000
  70
    32
  0
VERTEX
  8
0
  5
2E83
 10
90.0593
 20
-10.5195
 30
0.000000
  70
    32
  0
VERTEX
  8
0
  5
2E84
 10
90.0793
 20
-10.5949
 30
0.000000
  70
    32
  0
VERTEX
  8
0
  5
2E85
 10
90.1006
 20
-10.6697
 30
0.000000
  70
    32
  0
VERTEX
  8
0
  5
2E86
 10
90.1234
 20
-10.7437
 30
0.000000
  70
    32
  0
VERTEX
  8
0
  5
2E87
 10
90.1476
 20
-10.8170
 30
0.000000
  70
    32
  0
VERTEX
  8
0
  5
2E88
 10
90.1732
 20
-10.8896
 30
0.000000
  70
    32
  0
VERTEX
  8
0
  5
2E89
 10
90.2001
 20
-10.9612
 30
0.000000
  70
    32
  0
VERTEX
  8
0
  5
2E8A
 10
90.2283
 20
-11.0320
 30
0.000000
  70
    32
  0
VERTEX
  8
0
  5
2E8B
 10
90.2579
 20
-11.1019
 30
0.000000
  70
    32
  0
VERTEX
  8
0
  5
2E8C
 10
90.2888
 20
-11.1708
 30
0.000000
  70
    32
  0
VERTEX
  8
0
  5
2E8D
 10
90.3210
 20
-11.2387
 30
0.000000
  70
    32
  0
VERTEX
  8
0
  5
2E8E
 10
90.3545
 20
-11.3056
 30
0.000000
  70
    32
  0
VERTEX
  8
0
  5
2E8F
 10
90.3892
 20
-11.3714
 30
0.000000
  70
    32
  0
VERTEX
  8
0
  5
2E90
 10
90.4251
 20
-11.4360
 30
0.000000
  70
    32
  0
VERTEX
  8
0
  5
2E91
 10
90.4623
 20
-11.4995
 30
0.000000
  70
    32
  0
VERTEX
  8
0
  5
2E92
 10
90.5006
 20
-11.5618
 30
0.000000
  70
    32
  0
VERTEX
  8
0
  5
2E93
 10
90.5401
 20
-11.6228
 30
0.000000
  70
    32
  0
VERTEX
  8
0
  5
2E94
 10
90.5807
 20
-11.6826
 30
0.000000
  70
    32
  0
VERTEX
  8
0
  5
2E95
 10
90.6225
 20
-11.7410
 30
0.000000
  70
    32
  0
VERTEX
  8
0
  5
2E96
 10
90.6654
 20
-11.7981
 30
0.000000
  70
    32
  0
VERTEX
  8
0
  5
2E97
 10
90.7093
 20
-11.8538
 30
0.000000
  70
    32
  0
VERTEX
  8
0
  5
2E98
 10
90.7542
 20
-11.9081
 30
0.000000
  70
    32
  0
VERTEX
  8
0
  5
2E99
 10
90.8002
 20
-11.9609
 30
0.000000
  70
    32
  0
VERTEX
  8
0
  5
2E9A
 10
90.8471
 20
-12.0123
 30
0.000000
  70
    32
  0
VERTEX
  8
0
  5
2E9B
 10
90.8950
 20
-12.0621
 30
0.000000
  70
    32
  0
VERTEX
  8
0
  5
2E9C
 10
90.9439
 20
-12.1104
 30
0.000000
  70
    32
  0
VERTEX
  8
0
  5
2E9D
 10
90.9936
 20
-12.1572
 30
0.000000
  70
    32
  0
VERTEX
  8
0
  5
2E9E
 10
91.0442
 20
-12.2023
 30
0.000000
  70
    32
  0
VERTEX
  8
0
  5
2E9F
 10
91.0956
 20
-12.2458
 30
0.000000
  70
    32
  0
VERTEX
  8
0
  5
2EA0
 10
91.1479
 20
-12.2876
 30
0.000000
  70
    32
  0
VERTEX
  8
0
  5
2EA1
 10
91.2009
 20
-12.3278
 30
0.000000
  70
    32
  0
VERTEX
  8
0
  5
2EA2
 10
91.2546
 20
-12.3662
 30
0.000000
  70
    32
  0
VERTEX
  8
0
  5
2EA3
 10
91.3091
 20
-12.4030
 30
0.000000
  70
    32
  0
VERTEX
  8
0
  5
2EA4
 10
91.3642
 20
-12.4380
 30
0.000000
  70
    32
  0
VERTEX
  8
0
  5
2EA5
 10
91.4200
 20
-12.4712
 30
0.000000
  70
    32
  0
VERTEX
  8
0
  5
2EA6
 10
91.4764
 20
-12.5026
 30
0.000000
  70
    32
  0
VERTEX
  8
0
  5
2EA7
 10
91.5334
 20
-12.5322
 30
0.000000
  70
    32
  0
VERTEX
  8
0
  5
2EA8
 10
91.5909
 20
-12.5600
 30
0.000000
  70
    32
  0
VERTEX
  8
0
  5
2EA9
 10
91.6489
 20
-12.5860
 30
0.000000
  70
    32
  0
VERTEX
  8
0
  5
2EAA
 10
91.7074
 20
-12.6101
 30
0.000000
  70
    32
  0
VERTEX
  8
0
  5
2EAB
 10
91.7663
 20
-12.6323
 30
0.000000
  70
    32
  0
VERTEX
  8
0
  5
2EAC
 10
91.8257
 20
-12.6526
 30
0.000000
  70
    32
  0
VERTEX
  8
0
  5
2EAD
 10
91.8854
 20
-12.6710
 30
0.000000
  70
    32
  0
VERTEX
  8
0
  5
2EAE
 10
91.9454
 20
-12.6876
 30
0.000000
  70
    32
  0
VERTEX
  8
0
  5
2EAF
 10
92.0057
 20
-12.7022
 30
0.000000
  70
    32
  0
VERTEX
  8
0
  5
2EB0
 10
92.0663
 20
-12.7148
 30
0.000000
  70
    32
  0
VERTEX
  8
0
  5
2EB1
 10
92.1271
 20
-12.7256
 30
0.000000
  70
    32
  0
VERTEX
  8
0
  5
2EB2
 10
92.1881
 20
-12.7344
 30
0.000000
  70
    32
  0
VERTEX
  8
0
  5
2EB3
 10
92.2492
 20
-12.7412
 30
0.000000
  70
    32
  0
VERTEX
  8
0
  5
2EB4
 10
92.3105
 20
-12.7461
 30
0.000000
  70
    32
  0
VERTEX
  8
0
  5
2EB5
 10
92.3718
 20
-12.7490
 30
0.000000
  70
    32
  0
VERTEX
  8
0
  5
2EB6
 10
92.4331
 20
-12.7500
 30
0.000000
  70
    32
  0
SEQEND
  8
0
  5
2EB7
  0
POLYLINE
  5
2208
  8
0
 10
92.183125230762116
 20
-20.826059899999873
 30
0.0
 66
     1
 70
     8
  0
VERTEX
  8
0
  5
2EB8
 10
92.1831
 20
-20.8261
 30
0.000000
  70
    32
  0
VERTEX
  8
0
  5
2EB9
 10
92.1218
 20
-20.8270
 30
0.000000
  70
    32
  0
VERTEX
  8
0
  5
2EBA
 10
92.0605
 20
-20.8300
 30
0.000000
  70
    32
  0
VERTEX
  8
0
  5
2EBB
 10
91.9992
 20
-20.8349
 30
0.000000
  70
    32
  0
VERTEX
  8
0
  5
2EBC
 10
91.9381
 20
-20.8417
 30
0.000000
  70
    32
  0
VERTEX
  8
0
  5
2EBD
 10
91.8771
 20
-20.8505
 30
0.000000
  70
    32
  0
VERTEX
  8
0
  5
2EBE
 10
91.8163
 20
-20.8612
 30
0.000000
  70
    32
  0
VERTEX
  8
0
  5
2EBF
 10
91.7557
 20
-20.8739
 30
0.000000
  70
    32
  0
VERTEX
  8
0
  5
2EC0
 10
91.6954
 20
-20.8885
 30
0.000000
  70
    32
  0
VERTEX
  8
0
  5
2EC1
 10
91.6354
 20
-20.9050
 30
0.000000
  70
    32
  0
VERTEX
  8
0
  5
2EC2
 10
91.5757
 20
-20.9235
 30
0.000000
  70
    32
  0
VERTEX
  8
0
  5
2EC3
 10
91.5163
 20
-20.9438
 30
0.000000
  70
    32
  0
VERTEX
  8
0
  5
2EC4
 10
91.4574
 20
-20.9660
 30
0.000000
  70
    32
  0
VERTEX
  8
0
  5
2EC5
 10
91.3989
 20
-20.9901
 30
0.000000
  70
    32
  0
VERTEX
  8
0
  5
2EC6
 10
91.3409
 20
-21.0160
 30
0.000000
  70
    32
  0
VERTEX
  8
0
  5
2EC7
 10
91.2834
 20
-21.0438
 30
0.000000
  70
    32
  0
VERTEX
  8
0
  5
2EC8
 10
91.2264
 20
-21.0735
 30
0.000000
  70
    32
  0
VERTEX
  8
0
  5
2EC9
 10
91.1700
 20
-21.1049
 30
0.000000
  70
    32
  0
VERTEX
  8
0
  5
2ECA
 10
91.1142
 20
-21.1381
 30
0.000000
  70
    32
  0
VERTEX
  8
0
  5
2ECB
 10
91.0591
 20
-21.1731
 30
0.000000
  70
    32
  0
VERTEX
  8
0
  5
2ECC
 10
91.0046
 20
-21.2098
 30
0.000000
  70
    32
  0
VERTEX
  8
0
  5
2ECD
 10
90.9509
 20
-21.2483
 30
0.000000
  70
    32
  0
VERTEX
  8
0
  5
2ECE
 10
90.8979
 20
-21.2884
 30
0.000000
  70
    32
  0
VERTEX
  8
0
  5
2ECF
 10
90.8456
 20
-21.3303
 30
0.000000
  70
    32
  0
VERTEX
  8
0
  5
2ED0
 10
90.7942
 20
-21.3738
 30
0.000000
  70
    32
  0
VERTEX
  8
0
  5
2ED1
 10
90.7436
 20
-21.4189
 30
0.000000
  70
    32
  0
VERTEX
  8
0
  5
2ED2
 10
90.6939
 20
-21.4656
 30
0.000000
  70
    32
  0
VERTEX
  8
0
  5
2ED3
 10
90.6450
 20
-21.5139
 30
0.000000
  70
    32
  0
VERTEX
  8
0
  5
2ED4
 10
90.5971
 20
-21.5638
 30
0.000000
  70
    32
  0
VERTEX
  8
0
  5
2ED5
 10
90.5502
 20
-21.6151
 30
0.000000
  70
    32
  0
VERTEX
  8
0
  5
2ED6
 10
90.5042
 20
-21.6680
 30
0.000000
  70
    32
  0
VERTEX
  8
0
  5
2ED7
 10
90.4593
 20
-21.7223
 30
0.000000
  70
    32
  0
VERTEX
  8
0
  5
2ED8
 10
90.4154
 20
-21.7780
 30
0.000000
  70
    32
  0
VERTEX
  8
0
  5
2ED9
 10
90.3725
 20
-21.8351
 30
0.000000
  70
    32
  0
VERTEX
  8
0
  5
2EDA
 10
90.3307
 20
-21.8935
 30
0.000000
  70
    32
  0
VERTEX
  8
0
  5
2EDB
 10
90.2901
 20
-21.9532
 30
0.000000
  70
    32
  0
VERTEX
  8
0
  5
2EDC
 10
90.2506
 20
-22.0143
 30
0.000000
  70
    32
  0
VERTEX
  8
0
  5
2EDD
 10
90.2123
 20
-22.0766
 30
0.000000
  70
    32
  0
VERTEX
  8
0
  5
2EDE
 10
90.1751
 20
-22.1400
 30
0.000000
  70
    32
  0
VERTEX
  8
0
  5
2EDF
 10
90.1392
 20
-22.2047
 30
0.000000
  70
    32
  0
VERTEX
  8
0
  5
2EE0
 10
90.1045
 20
-22.2705
 30
0.000000
  70
    32
  0
VERTEX
  8
0
  5
2EE1
 10
90.0710
 20
-22.3373
 30
0.000000
  70
    32
  0
VERTEX
  8
0
  5
2EE2
 10
90.0388
 20
-22.4052
 30
0.000000
  70
    32
  0
VERTEX
  8
0
  5
2EE3
 10
90.0079
 20
-22.4741
 30
0.000000
  70
    32
  0
VERTEX
  8
0
  5
2EE4
 10
89.9783
 20
-22.5440
 30
0.000000
  70
    32
  0
VERTEX
  8
0
  5
2EE5
 10
89.9501
 20
-22.6148
 30
0.000000
  70
    32
  0
VERTEX
  8
0
  5
2EE6
 10
89.9232
 20
-22.6865
 30
0.000000
  70
    32
  0
VERTEX
  8
0
  5
2EE7
 10
89.8976
 20
-22.7590
 30
0.000000
  70
    32
  0
VERTEX
  8
0
  5
2EE8
 10
89.8734
 20
-22.8323
 30
0.000000
  70
    32
  0
VERTEX
  8
0
  5
2EE9
 10
89.8506
 20
-22.9064
 30
0.000000
  70
    32
  0
VERTEX
  8
0
  5
2EEA
 10
89.8293
 20
-22.9812
 30
0.000000
  70
    32
  0
VERTEX
  8
0
  5
2EEB
 10
89.8093
 20
-23.0566
 30
0.000000
  70
    32
  0
VERTEX
  8
0
  5
2EEC
 10
89.7908
 20
-23.1326
 30
0.000000
  70
    32
  0
VERTEX
  8
0
  5
2EED
 10
89.7737
 20
-23.2092
 30
0.000000
  70
    32
  0
VERTEX
  8
0
  5
2EEE
 10
89.7580
 20
-23.2864
 30
0.000000
  70
    32
  0
VERTEX
  8
0
  5
2EEF
 10
89.7439
 20
-23.3640
 30
0.000000
  70
    32
  0
VERTEX
  8
0
  5
2EF0
 10
89.7312
 20
-23.4420
 30
0.000000
  70
    32
  0
VERTEX
  8
0
  5
2EF1
 10
89.7199
 20
-23.5204
 30
0.000000
  70
    32
  0
VERTEX
  8
0
  5
2EF2
 10
89.7102
 20
-23.5992
 30
0.000000
  70
    32
  0
VERTEX
  8
0
  5
2EF3
 10
89.7019
 20
-23.6782
 30
0.000000
  70
    32
  0
VERTEX
  8
0
  5
2EF4
 10
89.6952
 20
-23.7575
 30
0.000000
  70
    32
  0
VERTEX
  8
0
  5
2EF5
 10
89.6899
 20
-23.8370
 30
0.000000
  70
    32
  0
VERTEX
  8
0
  5
2EF6
 10
89.6861
 20
-23.9166
 30
0.000000
  70
    32
  0
VERTEX
  8
0
  5
2EF7
 10
89.6839
 20
-23.9963
 30
0.000000
  70
    32
  0
VERTEX
  8
0
  5
2EF8
 10
89.6831
 20
-24.0761
 30
0.000000
  70
    32
  0
VERTEX
  8
0
  5
2EF9
 10
89.6839
 20
-24.1558
 30
0.000000
  70
    32
  0
VERTEX
  8
0
  5
2EFA
 10
89.6861
 20
-24.2355
 30
0.000000
  70
    32
  0
VERTEX
  8
0
  5
2EFB
 10
89.6899
 20
-24.3151
 30
0.000000
  70
    32
  0
VERTEX
  8
0
  5
2EFC
 10
89.6952
 20
-24.3946
 30
0.000000
  70
    32
  0
VERTEX
  8
0
  5
2EFD
 10
89.7019
 20
-24.4739
 30
0.000000
  70
    32
  0
VERTEX
  8
0
  5
2EFE
 10
89.7102
 20
-24.5529
 30
0.000000
  70
    32
  0
VERTEX
  8
0
  5
2EFF
 10
89.7199
 20
-24.6317
 30
0.000000
  70
    32
  0
VERTEX
  8
0
  5
2F00
 10
89.7312
 20
-24.7101
 30
0.000000
  70
    32
  0
VERTEX
  8
0
  5
2F01
 10
89.7439
 20
-24.7881
 30
0.000000
  70
    32
  0
VERTEX
  8
0
  5
2F02
 10
89.7580
 20
-24.8657
 30
0.000000
  70
    32
  0
VERTEX
  8
0
  5
2F03
 10
89.7737
 20
-24.9429
 30
0.000000
  70
    32
  0
VERTEX
  8
0
  5
2F04
 10
89.7908
 20
-25.0195
 30
0.000000
  70
    32
  0
VERTEX
  8
0
  5
2F05
 10
89.8093
 20
-25.0955
 30
0.000000
  70
    32
  0
VERTEX
  8
0
  5
2F06
 10
89.8293
 20
-25.1710
 30
0.000000
  70
    32
  0
VERTEX
  8
0
  5
2F07
 10
89.8506
 20
-25.2457
 30
0.000000
  70
    32
  0
VERTEX
  8
0
  5
2F08
 10
89.8734
 20
-25.3198
 30
0.000000
  70
    32
  0
VERTEX
  8
0
  5
2F09
 10
89.8976
 20
-25.3931
 30
0.000000
  70
    32
  0
VERTEX
  8
0
  5
2F0A
 10
89.9232
 20
-25.4656
 30
0.000000
  70
    32
  0
VERTEX
  8
0
  5
2F0B
 10
89.9501
 20
-25.5373
 30
0.000000
  70
    32
  0
VERTEX
  8
0
  5
2F0C
 10
89.9783
 20
-25.6081
 30
0.000000
  70
    32
  0
VERTEX
  8
0
  5
2F0D
 10
90.0079
 20
-25.6780
 30
0.000000
  70
    32
  0
VERTEX
  8
0
  5
2F0E
 10
90.0388
 20
-25.7469
 30
0.000000
  70
    32
  0
VERTEX
  8
0
  5
2F0F
 10
90.0710
 20
-25.8148
 30
0.000000
  70
    32
  0
VERTEX
  8
0
  5
2F10
 10
90.1045
 20
-25.8817
 30
0.000000
  70
    32
  0
VERTEX
  8
0
  5
2F11
 10
90.1392
 20
-25.9474
 30
0.000000
  70
    32
  0
VERTEX
  8
0
  5
2F12
 10
90.1751
 20
-26.0121
 30
0.000000
  70
    32
  0
VERTEX
  8
0
  5
2F13
 10
90.2123
 20
-26.0756
 30
0.000000
  70
    32
  0
VERTEX
  8
0
  5
2F14
 10
90.2506
 20
-26.1378
 30
0.000000
  70
    32
  0
VERTEX
  8
0
  5
2F15
 10
90.2901
 20
-26.1989
 30
0.000000
  70
    32
  0
VERTEX
  8
0
  5
2F16
 10
90.3307
 20
-26.2586
 30
0.000000
  70
    32
  0
VERTEX
  8
0
  5
2F17
 10
90.3725
 20
-26.3171
 30
0.000000
  70
    32
  0
VERTEX
  8
0
  5
2F18
 10
90.4154
 20
-26.3742
 30
0.000000
  70
    32
  0
VERTEX
  8
0
  5
2F19
 10
90.4593
 20
-26.4299
 30
0.000000
  70
    32
  0
VERTEX
  8
0
  5
2F1A
 10
90.5042
 20
-26.4842
 30
0.000000
  70
    32
  0
VERTEX
  8
0
  5
2F1B
 10
90.5502
 20
-26.5370
 30
0.000000
  70
    32
  0
VERTEX
  8
0
  5
2F1C
 10
90.5971
 20
-26.5883
 30
0.000000
  70
    32
  0
VERTEX
  8
0
  5
2F1D
 10
90.6450
 20
-26.6382
 30
0.000000
  70
    32
  0
VERTEX
  8
0
  5
2F1E
 10
90.6939
 20
-26.6865
 30
0.000000
  70
    32
  0
VERTEX
  8
0
  5
2F1F
 10
90.7436
 20
-26.7332
 30
0.000000
  70
    32
  0
VERTEX
  8
0
  5
2F20
 10
90.7942
 20
-26.7783
 30
0.000000
  70
    32
  0
VERTEX
  8
0
  5
2F21
 10
90.8456
 20
-26.8218
 30
0.000000
  70
    32
  0
VERTEX
  8
0
  5
2F22
 10
90.8979
 20
-26.8637
 30
0.000000
  70
    32
  0
VERTEX
  8
0
  5
2F23
 10
90.9509
 20
-26.9038
 30
0.000000
  70
    32
  0
VERTEX
  8
0
  5
2F24
 10
91.0046
 20
-26.9423
 30
0.000000
  70
    32
  0
VERTEX
  8
0
  5
2F25
 10
91.0591
 20
-26.9790
 30
0.000000
  70
    32
  0
VERTEX
  8
0
  5
2F26
 10
91.1142
 20
-27.0140
 30
0.000000
  70
    32
  0
VERTEX
  8
0
  5
2F27
 10
91.1700
 20
-27.0472
 30
0.000000
  70
    32
  0
VERTEX
  8
0
  5
2F28
 10
91.2264
 20
-27.0787
 30
0.000000
  70
    32
  0
VERTEX
  8
0
  5
2F29
 10
91.2834
 20
-27.1083
 30
0.000000
  70
    32
  0
VERTEX
  8
0
  5
2F2A
 10
91.3409
 20
-27.1361
 30
0.000000
  70
    32
  0
VERTEX
  8
0
  5
2F2B
 10
91.3989
 20
-27.1620
 30
0.000000
  70
    32
  0
VERTEX
  8
0
  5
2F2C
 10
91.4574
 20
-27.1861
 30
0.000000
  70
    32
  0
VERTEX
  8
0
  5
2F2D
 10
91.5163
 20
-27.2083
 30
0.000000
  70
    32
  0
VERTEX
  8
0
  5
2F2E
 10
91.5757
 20
-27.2287
 30
0.000000
  70
    32
  0
VERTEX
  8
0
  5
2F2F
 10
91.6354
 20
-27.2471
 30
0.000000
  70
    32
  0
VERTEX
  8
0
  5
2F30
 10
91.6954
 20
-27.2636
 30
0.000000
  70
    32
  0
VERTEX
  8
0
  5
2F31
 10
91.7557
 20
-27.2782
 30
0.000000
  70
    32
  0
VERTEX
  8
0
  5
2F32
 10
91.8163
 20
-27.2909
 30
0.000000
  70
    32
  0
VERTEX
  8
0
  5
2F33
 10
91.8771
 20
-27.3016
 30
0.000000
  70
    32
  0
VERTEX
  8
0
  5
2F34
 10
91.9381
 20
-27.3104
 30
0.000000
  70
    32
  0
VERTEX
  8
0
  5
2F35
 10
91.9992
 20
-27.3173
 30
0.000000
  70
    32
  0
VERTEX
  8
0
  5
2F36
 10
92.0605
 20
-27.3221
 30
0.000000
  70
    32
  0
VERTEX
  8
0
  5
2F37
 10
92.1218
 20
-27.3251
 30
0.000000
  70
    32
  0
VERTEX
  8
0
  5
2F38
 10
92.1831
 20
-27.3261
 30
0.000000
  70
    32
  0
SEQEND
  8
0
  5
2F39
  0
POLYLINE
  5
2209
  8
0
 10
92.183125141511724
 20
27.326070100000067
 30
0.0
 66
     1
 70
     8
  0
VERTEX
  8
0
  5
2F3A
 10
92.1831
 20
27.3261
 30
0.000000
  70
    32
  0
VERTEX
  8
0
  5
2F3B
 10
92.1218
 20
27.3251
 30
0.000000
  70
    32
  0
VERTEX
  8
0
  5
2F3C
 10
92.0605
 20
27.3222
 30
0.000000
  70
    32
  0
VERTEX
  8
0
  5
2F3D
 10
91.9992
 20
27.3173
 30
0.000000
  70
    32
  0
VERTEX
  8
0
  5
2F3E
 10
91.9381
 20
27.3104
 30
0.000000
  70
    32
  0
VERTEX
  8
0
  5
2F3F
 10
91.8771
 20
27.3016
 30
0.000000
  70
    32
  0
VERTEX
  8
0
  5
2F40
 10
91.8163
 20
27.2909
 30
0.000000
  70
    32
  0
VERTEX
  8
0
  5
2F41
 10
91.7557
 20
27.2782
 30
0.000000
  70
    32
  0
VERTEX
  8
0
  5
2F42
 10
91.6954
 20
27.2636
 30
0.000000
  70
    32
  0
VERTEX
  8
0
  5
2F43
 10
91.6354
 20
27.2471
 30
0.000000
  70
    32
  0
VERTEX
  8
0
  5
2F44
 10
91.5757
 20
27.2287
 30
0.000000
  70
    32
  0
VERTEX
  8
0
  5
2F45
 10
91.5163
 20
27.2083
 30
0.000000
  70
    32
  0
VERTEX
  8
0
  5
2F46
 10
91.4574
 20
27.1861
 30
0.000000
  70
    32
  0
VERTEX
  8
0
  5
2F47
 10
91.3989
 20
27.1620
 30
0.000000
  70
    32
  0
VERTEX
  8
0
  5
2F48
 10
91.3409
 20
27.1361
 30
0.000000
  70
    32
  0
VERTEX
  8
0
  5
2F49
 10
91.2834
 20
27.1083
 30
0.000000
  70
    32
  0
VERTEX
  8
0
  5
2F4A
 10
91.2264
 20
27.0787
 30
0.000000
  70
    32
  0
VERTEX
  8
0
  5
2F4B
 10
91.1700
 20
27.0473
 30
0.000000
  70
    32
  0
VERTEX
  8
0
  5
2F4C
 10
91.1142
 20
27.0140
 30
0.000000
  70
    32
  0
VERTEX
  8
0
  5
2F4D
 10
91.0591
 20
26.9790
 30
0.000000
  70
    32
  0
VERTEX
  8
0
  5
2F4E
 10
91.0046
 20
26.9423
 30
0.000000
  70
    32
  0
VERTEX
  8
0
  5
2F4F
 10
90.9509
 20
26.9039
 30
0.000000
  70
    32
  0
VERTEX
  8
0
  5
2F50
 10
90.8979
 20
26.8637
 30
0.000000
  70
    32
  0
VERTEX
  8
0
  5
2F51
 10
90.8456
 20
26.8218
 30
0.000000
  70
    32
  0
VERTEX
  8
0
  5
2F52
 10
90.7942
 20
26.7783
 30
0.000000
  70
    32
  0
VERTEX
  8
0
  5
2F53
 10
90.7436
 20
26.7332
 30
0.000000
  70
    32
  0
VERTEX
  8
0
  5
2F54
 10
90.6939
 20
26.6865
 30
0.000000
  70
    32
  0
VERTEX
  8
0
  5
2F55
 10
90.6450
 20
26.6382
 30
0.000000
  70
    32
  0
VERTEX
  8
0
  5
2F56
 10
90.5971
 20
26.5884
 30
0.000000
  70
    32
  0
VERTEX
  8
0
  5
2F57
 10
90.5502
 20
26.5370
 30
0.000000
  70
    32
  0
VERTEX
  8
0
  5
2F58
 10
90.5042
 20
26.4842
 30
0.000000
  70
    32
  0
VERTEX
  8
0
  5
2F59
 10
90.4593
 20
26.4299
 30
0.000000
  70
    32
  0
VERTEX
  8
0
  5
2F5A
 10
90.4154
 20
26.3742
 30
0.000000
  70
    32
  0
VERTEX
  8
0
  5
2F5B
 10
90.3725
 20
26.3171
 30
0.000000
  70
    32
  0
VERTEX
  8
0
  5
2F5C
 10
90.3307
 20
26.2586
 30
0.000000
  70
    32
  0
VERTEX
  8
0
  5
2F5D
 10
90.2901
 20
26.1989
 30
0.000000
  70
    32
  0
VERTEX
  8
0
  5
2F5E
 10
90.2506
 20
26.1378
 30
0.000000
  70
    32
  0
VERTEX
  8
0
  5
2F5F
 10
90.2123
 20
26.0756
 30
0.000000
  70
    32
  0
VERTEX
  8
0
  5
2F60
 10
90.1751
 20
26.0121
 30
0.000000
  70
    32
  0
VERTEX
  8
0
  5
2F61
 10
90.1392
 20
25.9474
 30
0.000000
  70
    32
  0
VERTEX
  8
0
  5
2F62
 10
90.1045
 20
25.8817
 30
0.000000
  70
    32
  0
VERTEX
  8
0
  5
2F63
 10
90.0710
 20
25.8148
 30
0.000000
  70
    32
  0
VERTEX
  8
0
  5
2F64
 10
90.0388
 20
25.7469
 30
0.000000
  70
    32
  0
VERTEX
  8
0
  5
2F65
 10
90.0079
 20
25.6780
 30
0.000000
  70
    32
  0
VERTEX
  8
0
  5
2F66
 10
89.9783
 20
25.6081
 30
0.000000
  70
    32
  0
VERTEX
  8
0
  5
2F67
 10
89.9501
 20
25.5373
 30
0.000000
  70
    32
  0
VERTEX
  8
0
  5
2F68
 10
89.9232
 20
25.4656
 30
0.000000
  70
    32
  0
VERTEX
  8
0
  5
2F69
 10
89.8976
 20
25.3931
 30
0.000000
  70
    32
  0
VERTEX
  8
0
  5
2F6A
 10
89.8734
 20
25.3198
 30
0.000000
  70
    32
  0
VERTEX
  8
0
  5
2F6B
 10
89.8506
 20
25.2457
 30
0.000000
  70
    32
  0
VERTEX
  8
0
  5
2F6C
 10
89.8293
 20
25.1710
 30
0.000000
  70
    32
  0
VERTEX
  8
0
  5
2F6D
 10
89.8093
 20
25.0955
 30
0.000000
  70
    32
  0
VERTEX
  8
0
  5
2F6E
 10
89.7908
 20
25.0195
 30
0.000000
  70
    32
  0
VERTEX
  8
0
  5
2F6F
 10
89.7737
 20
24.9429
 30
0.000000
  70
    32
  0
VERTEX
  8
0
  5
2F70
 10
89.7580
 20
24.8658
 30
0.000000
  70
    32
  0
VERTEX
  8
0
  5
2F71
 10
89.7439
 20
24.7881
 30
0.000000
  70
    32
  0
VERTEX
  8
0
  5
2F72
 10
89.7312
 20
24.7101
 30
0.000000
  70
    32
  0
VERTEX
  8
0
  5
2F73
 10
89.7199
 20
24.6317
 30
0.000000
  70
    32
  0
VERTEX
  8
0
  5
2F74
 10
89.7102
 20
24.5529
 30
0.000000
  70
    32
  0
VERTEX
  8
0
  5
2F75
 10
89.7019
 20
24.4739
 30
0.000000
  70
    32
  0
VERTEX
  8
0
  5
2F76
 10
89.6952
 20
24.3946
 30
0.000000
  70
    32
  0
VERTEX
  8
0
  5
2F77
 10
89.6899
 20
24.3152
 30
0.000000
  70
    32
  0
VERTEX
  8
0
  5
2F78
 10
89.6861
 20
24.2355
 30
0.000000
  70
    32
  0
VERTEX
  8
0
  5
2F79
 10
89.6839
 20
24.1558
 30
0.000000
  70
    32
  0
VERTEX
  8
0
  5
2F7A
 10
89.6831
 20
24.0761
 30
0.000000
  70
    32
  0
VERTEX
  8
0
  5
2F7B
 10
89.6839
 20
23.9963
 30
0.000000
  70
    32
  0
VERTEX
  8
0
  5
2F7C
 10
89.6861
 20
23.9166
 30
0.000000
  70
    32
  0
VERTEX
  8
0
  5
2F7D
 10
89.6899
 20
23.8370
 30
0.000000
  70
    32
  0
VERTEX
  8
0
  5
2F7E
 10
89.6952
 20
23.7575
 30
0.000000
  70
    32
  0
VERTEX
  8
0
  5
2F7F
 10
89.7019
 20
23.6782
 30
0.000000
  70
    32
  0
VERTEX
  8
0
  5
2F80
 10
89.7102
 20
23.5992
 30
0.000000
  70
    32
  0
VERTEX
  8
0
  5
2F81
 10
89.7199
 20
23.5204
 30
0.000000
  70
    32
  0
VERTEX
  8
0
  5
2F82
 10
89.7312
 20
23.4420
 30
0.000000
  70
    32
  0
VERTEX
  8
0
  5
2F83
 10
89.7439
 20
23.3640
 30
0.000000
  70
    32
  0
VERTEX
  8
0
  5
2F84
 10
89.7580
 20
23.2864
 30
0.000000
  70
    32
  0
VERTEX
  8
0
  5
2F85
 10
89.7737
 20
23.2093
 30
0.000000
  70
    32
  0
VERTEX
  8
0
  5
2F86
 10
89.7908
 20
23.1326
 30
0.000000
  70
    32
  0
VERTEX
  8
0
  5
2F87
 10
89.8093
 20
23.0566
 30
0.000000
  70
    32
  0
VERTEX
  8
0
  5
2F88
 10
89.8293
 20
22.9812
 30
0.000000
  70
    32
  0
VERTEX
  8
0
  5
2F89
 10
89.8506
 20
22.9064
 30
0.000000
  70
    32
  0
VERTEX
  8
0
  5
2F8A
 10
89.8734
 20
22.8323
 30
0.000000
  70
    32
  0
VERTEX
  8
0
  5
2F8B
 10
89.8976
 20
22.7590
 30
0.000000
  70
    32
  0
VERTEX
  8
0
  5
2F8C
 10
89.9232
 20
22.6865
 30
0.000000
  70
    32
  0
VERTEX
  8
0
  5
2F8D
 10
89.9501
 20
22.6148
 30
0.000000
  70
    32
  0
VERTEX
  8
0
  5
2F8E
 10
89.9783
 20
22.5440
 30
0.000000
  70
    32
  0
VERTEX
  8
0
  5
2F8F
 10
90.0079
 20
22.4742
 30
0.000000
  70
    32
  0
VERTEX
  8
0
  5
2F90
 10
90.0388
 20
22.4052
 30
0.000000
  70
    32
  0
VERTEX
  8
0
  5
2F91
 10
90.0710
 20
22.3373
 30
0.000000
  70
    32
  0
VERTEX
  8
0
  5
2F92
 10
90.1045
 20
22.2705
 30
0.000000
  70
    32
  0
VERTEX
  8
0
  5
2F93
 10
90.1392
 20
22.2047
 30
0.000000
  70
    32
  0
VERTEX
  8
0
  5
2F94
 10
90.1751
 20
22.1400
 30
0.000000
  70
    32
  0
VERTEX
  8
0
  5
2F95
 10
90.2123
 20
22.0766
 30
0.000000
  70
    32
  0
VERTEX
  8
0
  5
2F96
 10
90.2506
 20
22.0143
 30
0.000000
  70
    32
  0
VERTEX
  8
0
  5
2F97
 10
90.2901
 20
21.9533
 30
0.000000
  70
    32
  0
VERTEX
  8
0
  5
2F98
 10
90.3307
 20
21.8935
 30
0.000000
  70
    32
  0
VERTEX
  8
0
  5
2F99
 10
90.3725
 20
21.8351
 30
0.000000
  70
    32
  0
VERTEX
  8
0
  5
2F9A
 10
90.4154
 20
21.7780
 30
0.000000
  70
    32
  0
VERTEX
  8
0
  5
2F9B
 10
90.4593
 20
21.7223
 30
0.000000
  70
    32
  0
VERTEX
  8
0
  5
2F9C
 10
90.5042
 20
21.6680
 30
0.000000
  70
    32
  0
VERTEX
  8
0
  5
2F9D
 10
90.5502
 20
21.6151
 30
0.000000
  70
    32
  0
VERTEX
  8
0
  5
2F9E
 10
90.5971
 20
21.5638
 30
0.000000
  70
    32
  0
VERTEX
  8
0
  5
2F9F
 10
90.6450
 20
21.5139
 30
0.000000
  70
    32
  0
VERTEX
  8
0
  5
2FA0
 10
90.6939
 20
21.4656
 30
0.000000
  70
    32
  0
VERTEX
  8
0
  5
2FA1
 10
90.7436
 20
21.4189
 30
0.000000
  70
    32
  0
VERTEX
  8
0
  5
2FA2
 10
90.7942
 20
21.3738
 30
0.000000
  70
    32
  0
VERTEX
  8
0
  5
2FA3
 10
90.8456
 20
21.3303
 30
0.000000
  70
    32
  0
VERTEX
  8
0
  5
2FA4
 10
90.8979
 20
21.2885
 30
0.000000
  70
    32
  0
VERTEX
  8
0
  5
2FA5
 10
90.9509
 20
21.2483
 30
0.000000
  70
    32
  0
VERTEX
  8
0
  5
2FA6
 10
91.0046
 20
21.2098
 30
0.000000
  70
    32
  0
VERTEX
  8
0
  5
2FA7
 10
91.0591
 20
21.1731
 30
0.000000
  70
    32
  0
VERTEX
  8
0
  5
2FA8
 10
91.1142
 20
21.1381
 30
0.000000
  70
    32
  0
VERTEX
  8
0
  5
2FA9
 10
91.1700
 20
21.1049
 30
0.000000
  70
    32
  0
VERTEX
  8
0
  5
2FAA
 10
91.2264
 20
21.0735
 30
0.000000
  70
    32
  0
VERTEX
  8
0
  5
2FAB
 10
91.2834
 20
21.0438
 30
0.000000
  70
    32
  0
VERTEX
  8
0
  5
2FAC
 10
91.3409
 20
21.0161
 30
0.000000
  70
    32
  0
VERTEX
  8
0
  5
2FAD
 10
91.3989
 20
20.9901
 30
0.000000
  70
    32
  0
VERTEX
  8
0
  5
2FAE
 10
91.4574
 20
20.9660
 30
0.000000
  70
    32
  0
VERTEX
  8
0
  5
2FAF
 10
91.5163
 20
20.9438
 30
0.000000
  70
    32
  0
VERTEX
  8
0
  5
2FB0
 10
91.5757
 20
20.9235
 30
0.000000
  70
    32
  0
VERTEX
  8
0
  5
2FB1
 10
91.6354
 20
20.9050
 30
0.000000
  70
    32
  0
VERTEX
  8
0
  5
2FB2
 10
91.6954
 20
20.8885
 30
0.000000
  70
    32
  0
VERTEX
  8
0
  5
2FB3
 10
91.7557
 20
20.8739
 30
0.000000
  70
    32
  0
VERTEX
  8
0
  5
2FB4
 10
91.8163
 20
20.8612
 30
0.000000
  70
    32
  0
VERTEX
  8
0
  5
2FB5
 10
91.8771
 20
20.8505
 30
0.000000
  70
    32
  0
VERTEX
  8
0
  5
2FB6
 10
91.9381
 20
20.8417
 30
0.000000
  70
    32
  0
VERTEX
  8
0
  5
2FB7
 10
91.9992
 20
20.8349
 30
0.000000
  70
    32
  0
VERTEX
  8
0
  5
2FB8
 10
92.0605
 20
20.8300
 30
0.000000
  70
    32
  0
VERTEX
  8
0
  5
2FB9
 10
92.1218
 20
20.8270
 30
0.000000
  70
    32
  0
VERTEX
  8
0
  5
2FBA
 10
92.1831
 20
20.8261
 30
0.000000
  70
    32
  0
SEQEND
  8
0
  5
2FBB
  0
ARC
  5
2BF6
  8
0
 10
45.0
 20
13.99999999999954
 30
0.0
 40
1.0
 50
0.0
 51
90.0
  0
LINE
  5
2BF7
  8
0
 10
34.999999999999972
 20
29.467959192431401
 30
0.0
 11
35.0
 21
39.42823000000044
 31
0.0
  0
LINE
  5
2BF8
  8
0
 10
42.999999999999972
 20
29.467959192431401
 30
0.0
 11
43.0
 21
39.42823000000044
 31
0.0
  0
LINE
  5
2BF9
  8
0
 10
33.25
 20
29.20001000000093
 30
0.0
 11
44.75
 21
29.200010000000471
 31
0.0
  0
ARC
  5
2BFA
  8
0
 10
44.75
 20
27.200010000000471
 30
0.0
 40
2.0
 50
0.0
 51
90.0
  0
ARC
  5
2BFB
  8
0
 10
33.25
 20
27.20001000000093
 30
0.0
 40
2.0
 50
90.0
 51
180.0
  0
LINE
  5
2BFC
  8
0
  6
CENTER
 10
0.0
 20
0.0
 30
0.0
 11
-21.932930000000169
 21
37.988949999999932
 31
0.0
  0
LINE
  5
2BFE
  8
0
 10
-11.96164999999996
 20
22.131719999999849
 30
0.0
 11
-11.1576
 21
31.322049999999759
 31
0.0
  0
LINE
  5
2BFF
  8
0
 10
-25.764010000000091
 20
21.422160000000069
 30
0.0
 11
-22.10541000000012
 21
31.474069999999749
 31
0.0
  0
LINE
  5
2C00
  8
0
 10
-12.69116000000008
 20
19.530159999999789
 30
0.0
 11
-11.84520999999995
 21
29.199429999999658
 31
0.0
  0
LINE
  5
2C01
  8
0
 10
-10.568110000000161
 20
20.755909999999851
 30
0.0
 11
-11.388059999999991
 21
21.138259999999718
 31
0.0
  0
LINE
  5
2C02
  8
0
 10
-5.6702800000000471
 20
33.023329999999987
 30
0.0
 11
-16.204699999999999
 21
34.88083000000006
 31
0.0
  0
LINE
  5
2C03
  8
0
 10
0.5482899999999518
 20
25.57756999999992
 30
0.0
 11
-10.04809999999997
 21
31.695399999999601
 31
0.0
  0
LINE
  5
2C04
  8
0
 10
-20.032020000000099
 20
17.221419999999849
 30
0.0
 11
-26.0320999999999
 21
20.68556999999964
 31
0.0
  0
LINE
  5
2C05
  8
0
 10
25.368199999999881
 20
12.51387999999951
 30
0.0
 11
29.67427999999995
 21
15.0
 31
0.0
  0
ARC
  5
2C06
  8
0
 10
0.0
 20
0.0
 30
0.0
 40
33.25
 50
142.78807000002359
 51
217.211930000004
  0
ARC
  5
2C07
  8
0
 10
0.0
 20
0.0
 30
0.0
 40
22.25
 50
128.38768000000269
 51
231.61231999999981
  0
ARC
  5
2C08
  8
0
  6
CENTER
 10
0.0
 20
0.0
 30
0.0
 40
34.25
 50
104.661329999998
 51
131.3772399999805
  0
ARC
  5
2C09
  8
0
 10
-9.3002699999999532
 20
23.474839999999851
 30
0.0
 40
3.0
 50
245.00000000001049
 51
291.61247100000048
  0
ARC
  5
2C0A
  8
0
 10
-4.8020400000000327
 20
37.947369999999857
 30
0.0
 40
5.0
 50
260.00000000000409
 51
277.21213099999522
  0
ARC
  5
2C0B
  8
0
 10
-30.462469999999929
 20
23.132249999999651
 30
0.0
 40
5.0
 50
322.78807799999339
 51
340.00000099996703
  0
ARC
  5
2C0C
  8
0
 10
-10.96542999999996
 20
22.044570000000022
 30
0.0
 40
1.0
 50
174.99999999997399
 51
245.00000000001049
  0
ARC
  5
2C0D
  8
0
 10
-17.125029999999921
 20
29.661339999999651
 30
0.0
 40
5.3000002000000004
 50
355.00000009998928
 51
159.9997975945241
  0
ARC
  5
2C0E
  8
0
 10
-15.67972000000009
 20
19.791619999999959
 30
0.0
 40
3.0
 50
308.38769599997931
 51
355.00000009998928
  0
ARC
  5
2C0F
  8
0
 10
0.0
 20
0.0
 30
0.0
 40
33.25
 50
28.833729999999299
 51
109.6069799999987
  0
ARC
  5
2C10
  8
0
 10
0.0
 20
0.0
 30
0.0
 40
25.25
 50
141.45985999997839
 51
218.5401399999931
  0
ARC
  5
2C11
  8
0
 10
0.0
 20
0.0
 30
0.0
 40
25.25
 50
32.339619999990347
 51
85.842059999998568
  0
ARC
  5
2C12
  8
0
 10
-20.532020000000099
 20
16.35541000000012
 30
0.0
 40
1.0
 50
321.45985200001309
 51
59.999999999994259
  0
ARC
  5
2C13
  8
0
 10
2.0483100000001282
 20
28.175639999999468
 30
0.0
 40
3.0
 50
239.9999999999942
 51
265.84206500000141
  0
ARC
  5
2C14
  8
0
 10
0.0
 20
0.0
 30
0.0
 40
22.25
 50
16.094820000033021
 51
111.61247000001219
  0
ARC
  5
2C15
  8
0
 10
23.86818999999991
 20
15.11196999999993
 30
0.0
 40
3.0
 50
212.33963000001179
 51
299.99999799998881
  0
CIRCLE
  5
2C18
  8
0
 10
-17.125029999999921
 20
-29.661339999999651
 30
0.0
 40
2.5999998999999989
  0
CIRCLE
  5
2C19
  8
0
 10
-17.125029999999921
 20
29.661339999999651
 30
0.0
 40
2.5999998999999989
  0
CIRCLE
  5
2C67
  8
0
 10
39.0
 20
-9.5
 30
0.0
 40
3.2500000999998511
  0
TEXT
  5
2C9C
  8
0
 10
11.47545942518593
 20
77.344016916450016
 30
0.0
 40
5.0
  1
13MHHM-3LW 1S-1.5S
  0
VIEWPORT
  5
79
 67
     1
  8
0
 10
5.2499996395561617
 20
3.9999998836066761
 30
0.0
 40
15.015580297613511
 41
8.5939224089826052
 68
     1
 69
     1
1001
ACAD
1000
MVIEW
1002
{
1070
    16
1010
0.0
1020
0.0
1030
0.0
1010
0.0
1020
0.0
1030
1.0
1040
0.0
1040
8.5939224089826052
1040
5.2499996395561617
1040
3.9999998836066761
1040
50.0
1040
0.0
1040
0.0
1070
     0
1070
   100
1070
     1
1070
     1
1070
     0
1070
     0
1070
     0
1070
     0
1040
0.0
1040
0.0
1040
0.0
1040
10.0
1040
10.0
1040
10.0
1040
10.0
1070
     0
1002
{
1002
}
1002
}
1001
GENIUS_GENOBJ-N-SDF_13
1002
{
1000
OWNER
1000
GEN
1002
}
1001
GENIUS_GENODEF_13
1002
{
1000
HIER
1070
     0
1002
}
1002
{
1000
MANEDIT
1070
     0
1002
}
1002
{
1000
NOSEL
1070
     0
1002
}
1002
{
1000
BEHIND
1070
     0
1002
}
1002
{
1000
OTHER
1070
     0
1002
}
1002
{
1000
REACTOR
1002
}
1001
GENIUS_GENSCREG_15
1000
PF
1040
1.0
1000
DF
1040
1.0
1000
MIN
1011
-2.2577905092505972
1021
0.0
1031
0.0
1021
-0.2969613208846251
1031
0.0
1000
MAX
1011
12.757789788362921
1021
0.0
1031
0.0
1021
8.2969610880979801
1031
0.0
1000
FLAGS
1070
     4
  0
VIEWPORT
  5
7B
 67
     1
  8
0
 10
5.24999976158142
 20
3.99999976158142
 30
0.0
 40
8.3999996185302717
 41
6.3999996185302717
 68
     2
 69
     2
1001
ACAD
1000
MVIEW
1002
{
1070
    16
1010
0.0
1020
0.0
1030
0.0
1010
0.0
1020
0.0
1030
1.0
1040
0.0
1040
9.2590797717467002
1040
6.0
1040
4.5
1040
50.0
1040
0.0
1040
0.0
1070
     0
1070
   100
1070
     1
1070
     3
1070
     0
1070
     0
1070
     0
1070
     0
1040
0.0
1040
0.0
1040
0.0
1040
0.5
1040
0.5
1040
0.5
1040
0.5
1070
     0
1002
{
1002
}
1002
}
1001
GENIUS_GENODEF_13
1002
{
1000
HIER
1070
     0
1002
}
1002
{
1000
MANEDIT
1070
     0
1002
}
1002
{
1000
NOSEL
1070
     0
1002
}
1002
{
1000
BEHIND
1070
     0
1002
}
1002
{
1000
OTHER
1070
     0
1002
}
1002
{
1000
REACTOR
1002
}
1001
GENIUS_GENOBJ-N-SDF_13
1002
{
1000
OWNER
1000
GEN
1002
}
1001
GENIUS_GENSCREG_15
1000
PF
1040
0.0
1000
DF
1040
0.0
1000
MIN
1011
1.049999952316284
1021
0.0
1031
0.0
1021
0.7999999523162842
1031
0.0
1000
MAX
1011
9.4499995708465558
1021
0.0
1031
0.0
1021
7.1999995708465558
1031
0.0
1000
FLAGS
1070
     4
  0
ENDSEC
  0
EOF
