  0
SECTION
  2
HEADER
  9
$ACADVER
  1
AC1009
  9
$INSBASE
 10
0.0
 20
0.0
 30
0.0
  9
$EXTMIN
 10
-362.61911861904809
 20
-136.11227588370821
 30
0.0
  9
$EXTMAX
 10
362.61897661904698
 20
422.18636689771199
 30
0.0
  9
$LIMMIN
 10
0.0
 20
0.0
  9
$LIMMAX
 10
420.0
 20
297.0
  9
$ORTHOMODE
 70
     0
  9
$REGENMODE
 70
     1
  9
$FILLMODE
 70
     1
  9
$QTEXTMODE
 70
     0
  9
$MIRRTEXT
 70
     1
  9
$DRAGMODE
 70
     2
  9
$LTSCALE
 40
1.0
  9
$OSMODE
 70
    37
  9
$ATTMODE
 70
     1
  9
$TEXTSIZE
 40
73.985717453579113
  9
$TRACEWID
 40
1.0
  9
$TEXTSTYLE
  7
STANDARD
  9
$CLAYER
  8
0
  9
$CELTYPE
  6
BYLAYER
  9
$CECOLOR
 62
   256
  9
$DIMSCALE
 40
1.0
  9
$DIMASZ
 40
0.18
  9
$DIMEXO
 40
0.0625
  9
$DIMDLI
 40
0.38
  9
$DIMRND
 40
0.0
  9
$DIMDLE
 40
0.0
  9
$DIMEXE
 40
0.18
  9
$DIMTP
 40
0.0
  9
$DIMTM
 40
0.0
  9
$DIMTXT
 40
30.0
  9
$DIMCEN
 40
0.09
  9
$DIMTSZ
 40
0.0
  9
$DIMTOL
 70
     0
  9
$DIMLIM
 70
     0
  9
$DIMTIH
 70
     1
  9
$DIMTOH
 70
     1
  9
$DIMSE1
 70
     0
  9
$DIMSE2
 70
     0
  9
$DIMTAD
 70
     0
  9
$DIMZIN
 70
     0
  9
$DIMBLK
  1

  9
$DIMASO
 70
     1
  9
$DIMSHO
 70
     1
  9
$DIMPOST
  1

  9
$DIMAPOST
  1

  9
$DIMALT
 70
     0
  9
$DIMALTD
 70
     2
  9
$DIMALTF
 40
25.399999999999999
  9
$DIMLFAC
 40
1.0
  9
$DIMTOFL
 70
     0
  9
$DIMTVP
 40
0.0
  9
$DIMTIX
 70
     0
  9
$DIMSOXD
 70
     0
  9
$DIMSAH
 70
     0
  9
$DIMBLK1
  1

  9
$DIMBLK2
  1

  9
$DIMSTYLE
  2
STANDARD
  9
$DIMCLRD
 70
     0
  9
$DIMCLRE
 70
     0
  9
$DIMCLRT
 70
     0
  9
$DIMTFAC
 40
1.0
  9
$DIMGAP
 40
0.09
  9
$LUNITS
 70
     2
  9
$LUPREC
 70
     8
  9
$SKETCHINC
 40
1.0
  9
$FILLETRAD
 40
0.0
  9
$AUNITS
 70
     0
  9
$AUPREC
 70
     8
  9
$MENU
  1
.
  9
$ELEVATION
 40
0.0
  9
$PELEVATION
 40
0.0
  9
$THICKNESS
 40
0.0
  9
$LIMCHECK
 70
     0
  9
$BLIPMODE
 70
     0
  9
$CHAMFERA
 40
2.5
  9
$CHAMFERB
 40
2.5
  9
$SKPOLY
 70
     0
  9
$TDCREATE
 40
2454739.7204081588
  9
$TDUPDATE
 40
2454749.756978252
  9
$TDINDWG
 40
0.2971517014
  9
$TDUSRTIMER
 40
0.2971517014
  9
$USRTIMER
 70
     1
  9
$ANGBASE
 50
0.0
  9
$ANGDIR
 70
     1
  9
$PDMODE
 70
     0
  9
$PDSIZE
 40
0.0
  9
$PLINEWID
 40
0.0
  9
$COORDS
 70
     1
  9
$SPLFRAME
 70
     0
  9
$SPLINETYPE
 70
     6
  9
$SPLINESEGS
 70
     8
  9
$ATTDIA
 70
     0
  9
$ATTREQ
 70
     1
  9
$HANDLING
 70
 22529
  9
$HANDSEED
  5
80A5
  9
$SURFTAB1
 70
     6
  9
$SURFTAB2
 70
     6
  9
$SURFTYPE
 70
     6
  9
$SURFU
 70
     6
  9
$SURFV
 70
     6
  9
$UCSNAME
  2

  9
$UCSORG
 10
0.0
 20
0.0
 30
0.0
  9
$UCSXDIR
 10
1.0
 20
0.0
 30
0.0
  9
$UCSYDIR
 10
0.0
 20
1.0
 30
0.0
  9
$PUCSNAME
  2

  9
$PUCSORG
 10
0.0
 20
0.0
 30
0.0
  9
$PUCSXDIR
 10
1.0
 20
0.0
 30
0.0
  9
$PUCSYDIR
 10
0.0
 20
1.0
 30
0.0
  9
$USERI1
 70
     0
  9
$USERI2
 70
     0
  9
$USERI3
 70
     0
  9
$USERI4
 70
     0
  9
$USERI5
 70
     0
  9
$USERR1
 40
0.0
  9
$USERR2
 40
0.0
  9
$USERR3
 40
0.0
  9
$USERR4
 40
0.0
  9
$USERR5
 40
0.0
  9
$WORLDVIEW
 70
     1
  9
$SHADEDGE
 70
     3
  9
$SHADEDIF
 70
    70
  9
$TILEMODE
 70
     1
  9
$MAXACTVP
 70
    48
  9
$PLIMCHECK
 70
     0
  9
$PEXTMIN
 10
1.0000000000000000E+020
 20
1.0000000000000000E+020
 30
1.0000000000000000E+020
  9
$PEXTMAX
 10
-1.0000000000000000E+020
 20
-1.0000000000000000E+020
 30
-1.0000000000000000E+020
  9
$PLIMMIN
 10
0.0
 20
0.0
  9
$PLIMMAX
 10
420.0
 20
297.0
  9
$UNITMODE
 70
     0
  9
$VISRETAIN
 70
     1
  9
$PLINEGEN
 70
     0
  9
$PSLTSCALE
 70
     1
  0
ENDSEC
  0
SECTION
  2
TABLES
  0
TABLE
  2
VPORT
 70
     2
  0
VPORT
  2
*ACTIVE
 70
     0
 10
0.0
 20
0.0
 11
1.0
 21
1.0
 12
-0.0003629570095427
 22
143.0255545077915
 13
0.0
 23
0.0
 14
2.5
 24
2.5
 15
10.0
 25
10.0
 16
0.0
 26
0.0
 36
1.0
 17
0.0
 27
0.0
 37
0.0
 40
562.76234659759155
 41
1.531806615776081
 42
50.0
 43
0.0
 44
0.0
 50
0.0
 51
0.0
 71
     0
 72
   100
 73
     1
 74
     3
 75
     0
 76
     0
 77
     0
 78
     0
  0
ENDTAB
  0
TABLE
  2
LTYPE
 70
     2
  0
LTYPE
  2
CONTINUOUS
 70
     0
  3
Solid line
 72
    65
 73
     0
 40
0.0
  0
LTYPE
  2
CENTER
 70
     0
  3
__ . __
 72
    65
 73
     4
 40
7.0
 49
4.0
 49
-1.0
 49
1.0
 49
-1.0
  0
ENDTAB
  0
TABLE
  2
LAYER
 70
     1
  0
LAYER
  2
0
 70
     0
 62
     7
  6
CONTINUOUS
  0
ENDTAB
  0
TABLE
  2
STYLE
 70
     2
  0
STYLE
  2
STANDARD
 70
     0
 40
0.0
 41
0.7
 50
0.0
 71
     0
 42
73.985717453579113
  3
romans.shx
  4
bigfont.shx
  0
STYLE
  2
TSKDIM
 70
     0
 40
0.0
 41
0.75
 50
0.0
 71
     0
 42
4.0
  3
romans.shx
  4
EXTFONT.SHX
  0
ENDTAB
  0
TABLE
  2
VIEW
 70
     0
  0
ENDTAB
  0
TABLE
  2
UCS
 70
     0
  0
ENDTAB
  0
TABLE
  2
APPID
 70
    41
  0
APPID
  2
ACAD
 70
     0
  0
APPID
  2
MCAD_NO_VIS
 70
     0
  0
APPID
  2
ACAD_TEMP_GRAPHIC
 70
     0
  0
APPID
  2
ACATTRIBSERVICES
 70
     0
  0
APPID
  2
AD_DRAW
 70
     0
  0
APPID
  2
DESIGNERASSEMBLIES
 70
     0
  0
APPID
  2
ASURF_PCURVE_APPNAME
 70
     0
  0
APPID
  2
ACADM_DIM_EDIT
 70
     0
  0
APPID
  2
GENIUS_GENDIM_13
 70
     0
  0
APPID
  2
GENIUS_GENDTOL_13
 70
     0
  0
APPID
  2
GENIUS_GE3DTOL_13
 70
     0
  0
APPID
  2
AMG_3D2D_5_0
 70
     0
  0
APPID
  2
AMDT_DM_ADJ
 70
     0
  0
APPID
  2
CK_MATE-SERIES
 70
     0
  0
APPID
  2
GEVID1042077799
 70
     0
  0
APPID
  2
GEVMK
 70
     0
  0
APPID
  2
GEVDC
 70
     0
  0
APPID
  2
GENIUS_GENBH_13
 70
     0
  0
APPID
  2
GENIUS_GENOLIS_13
 70
     0
  0
APPID
  2
GENIUS_GENOENT_13
 70
     0
  0
APPID
  2
GENIUS_GENODEF_13
 70
     0
  0
APPID
  2
GENIUS_GENOBJ-NBEHI-BHF_13
 70
     0
  0
APPID
  2
GENIUS_GENOREF_13
 70
     0
  0
APPID
  2
GENIUS_GENOBJ-NBEHI-BHB_13
 70
     0
  0
APPID
  2
GEVID1042183772
 70
     0
  0
APPID
  2
GEVID1042183773
 70
     0
  0
APPID
  2
GEVID1042183774
 70
     0
  0
APPID
  2
DCO15
 70
     0
  0
APPID
  2
ACAD_DSTYLE_DIMARC_LENGTH_
 70
     0
  0
APPID
  2
ACAD_DSTYLE_DIMJOGGED_JOGA
 70
     0
  0
APPID
  2
ACAD_MLEADERVER
 70
     0
  0
APPID
  2
ACAD_DSTYLE_DIMJAG
 70
     0
  0
APPID
  2
ACAD_DSTYLE_DIMTALN
 70
     0
  0
APPID
  2
ACAD_PSEXT
 70
     0
  0
APPID
  2
ACAD_EXEMPT_FROM_CAD_STANDARDS
 70
     0
  0
APPID
  2
ACAD_DSTYLE_DIMINSPECT
 70
     0
  0
APPID
  2
ACAD_DSTYLE_DIMANGULAR_EXT
 70
     0
  0
APPID
  2
GENIUS_GENOBJ-N-FIL_13
 70
     0
  0
APPID
  2
ACAD_DSTYLE_DIM_LINETYPE
 70
     0
  0
APPID
  2
ACAD_DSTYLE_DIM_EXT1_LINETYPE
 70
     0
  0
APPID
  2
ACAD_DSTYLE_DIM_EXT2_LINETYPE
 70
     0
  0
ENDTAB
  0
TABLE
  2
DIMSTYLE
 70
     1
  0
DIMSTYLE
  2
STANDARD
 70
     0
  3

  4

  5

  6

  7

 40
1.0
 41
0.18
 42
0.0625
 43
0.38
 44
0.18
 45
0.0
 46
0.0
 47
0.0
 48
0.0
140
30.0
141
0.09
142
0.0
143
25.399999999999999
144
1.0
145
0.0
146
1.0
147
0.09
 71
     0
 72
     0
 73
     1
 74
     1
 75
     0
 76
     0
 77
     0
 78
     0
170
     0
171
     2
172
     0
173
     0
174
     0
175
     0
176
     0
177
     0
178
     0
  0
ENDTAB
  0
ENDSEC
  0
SECTION
  2
BLOCKS
  0
BLOCK
  8
0
  2
$MODEL_SPACE
 70
     0
 10
0.0
 20
0.0
 30
0.0
  3
$MODEL_SPACE
  1

  0
ENDBLK
  5
21
  8
0
  0
BLOCK
 67
     1
  8
0
  2
$PAPER_SPACE
 70
     0
 10
0.0
 20
0.0
 30
0.0
  3
$PAPER_SPACE
  1

  0
ENDBLK
  5
1D
 67
     1
  8
0
  0
BLOCK
  8
0
  2
_OPEN
 70
     0
 10
0.0
 20
0.0
 30
0.0
  3
_OPEN
  1

  0
LINE
  5
15A
  8
0
  6
BYBLOCK
 62
     0
 10
-1.0
 20
0.1666666666666666
 30
0.0
 11
0.0
 21
0.0
 31
0.0
  0
LINE
  5
15B
  8
0
  6
BYBLOCK
 62
     0
 10
-1.0
 20
-0.1666666666666666
 30
0.0
 11
0.0
 21
0.0
 31
0.0
  0
LINE
  5
15C
  8
0
  6
BYBLOCK
 62
     0
 10
0.0
 20
0.0
 30
0.0
 11
-1.0
 21
0.0
 31
0.0
  0
ENDBLK
  5
15E
  8
0
  0
ENDSEC
  0
SECTION
  2
ENTITIES
  0
LINE
  5
7BE0
  8
0
 10
8.1393582999999126
 20
-95.899970999999809
 30
0.0
 11
8.1393582999999126
 21
-113.8999899999998
 31
0.0
  0
LINE
  5
7BE1
  8
0
 10
14.499893000000149
 20
-100.89995999999969
 30
0.0
 11
8.1393582999999126
 21
-100.89995999999969
 31
0.0
  0
LINE
  5
7BE2
  8
0
 10
13.99992299999985
 20
-102.8999800000001
 30
0.0
 11
8.1393582999999126
 21
-102.8999800000001
 31
0.0
  0
LINE
  5
7BE3
  8
0
 10
13.99992299999985
 20
-112.89995999999969
 30
0.0
 11
8.1393582999999126
 21
-112.89995999999969
 31
0.0
  0
LINE
  5
7BE4
  8
0
 10
8.5000149999996211
 20
-113.8999400000002
 30
0.0
 11
10.000014999999619
 21
-116.49802
 31
0.0
  0
LINE
  5
7BE5
  8
0
 10
-110.0000159999999
 20
-75.899978999999803
 30
0.0
 11
109.9999739999998
 21
-75.899978999999803
 31
0.0
  0
LINE
  5
7BE6
  8
0
 10
-110.0000159999999
 20
-75.899978999999803
 30
0.0
 11
-110.0000159999999
 21
-78.899978999999803
 31
0.0
  0
LINE
  5
7BE7
  8
0
 10
109.9999739999998
 20
-75.899978999999803
 30
0.0
 11
109.9999739999998
 21
-78.899978999999803
 31
0.0
  0
LINE
  5
7BE8
  8
0
 10
104.9999539999998
 20
-75.899978999999803
 30
0.0
 11
104.9999539999998
 21
-79.382668000000194
 31
0.0
  0
LINE
  5
7BE9
  8
0
 10
-110.0000159999999
 20
-78.899978999999803
 30
0.0
 11
-105.0000460000001
 21
-78.899978999999803
 31
0.0
  0
LINE
  5
7BEA
  8
0
 10
25.601996999999749
 20
-95.899970999999809
 30
0.0
 11
102.5208939999997
 21
-82.337097000000085
 31
0.0
  0
LINE
  5
7BEB
  8
0
 10
-105.0000460000001
 20
-75.899978999999803
 30
0.0
 11
-105.0000460000001
 21
-79.382668000000194
 31
0.0
  0
LINE
  5
7BEC
  8
0
 10
-25.602072000000131
 20
-95.899978999999803
 30
0.0
 11
-102.52098599999989
 21
-82.337097000000085
 31
0.0
  0
LINE
  5
7BED
  8
0
 10
104.9999539999998
 20
-78.899978999999803
 30
0.0
 11
109.9999739999998
 21
-78.899978999999803
 31
0.0
  0
LINE
  5
7BEE
  8
0
 10
9.9998930000001565
 20
-113.8999899999998
 30
0.0
 11
9.9998930000001565
 21
-118.89995999999969
 31
0.0
  0
LINE
  5
7BEF
  8
0
 10
18.500014999999621
 20
-69.899978999999803
 30
0.0
 11
-18.500015000000069
 21
-69.899978999999803
 31
0.0
  0
LINE
  5
7BF0
  8
0
 10
18.999984999999921
 20
-70.399993999999879
 30
0.0
 11
18.999984999999921
 21
-75.399962999999843
 31
0.0
  0
LINE
  5
7BF1
  8
0
 10
19.00002099999983
 20
-75.40002400000003
 30
0.0
 11
18.500019000000059
 21
-75.90002400000003
 31
0.0
  0
LINE
  5
7BF2
  8
0
 10
18.999928999999611
 20
-70.399956000000202
 30
0.0
 11
18.499896999999692
 21
-69.899924999999712
 31
0.0
  0
LINE
  5
7BF3
  8
0
 10
-18.999985000000368
 20
-70.399993999999879
 30
0.0
 11
-18.999985000000368
 21
-75.399962999999843
 31
0.0
  0
LINE
  5
7BF4
  8
0
 10
-18.500054000000091
 20
-75.899993999999879
 30
0.0
 11
-19.00008600000001
 21
-75.399956000000202
 31
0.0
  0
LINE
  5
7BF5
  8
0
 10
-18.500046000000111
 20
-69.90002400000003
 30
0.0
 11
-19.000015000000069
 21
-70.399993999999879
 31
0.0
  0
LINE
  5
7BF6
  8
0
 10
-18.999985000000368
 20
-70.399993999999879
 30
0.0
 11
18.999984999999921
 21
-70.399993999999879
 31
0.0
  0
LINE
  5
7BF7
  8
0
 10
-18.999985000000368
 20
-75.399962999999843
 30
0.0
 11
18.999984999999921
 21
-75.399962999999843
 31
0.0
  0
LINE
  5
7BF8
  8
0
 10
-14.49998500000037
 20
-95.899970999999809
 30
0.0
 11
-14.49998500000037
 21
-100.89995999999969
 31
0.0
  0
LINE
  5
7BF9
  8
0
 10
8.1393563999999952
 20
-101.90002
 30
0.0
 11
0.6259938599996531
 21
-95.899970999999809
 31
0.0
  0
LINE
  5
7BFA
  8
0
 10
14.499984999999921
 20
-95.899970999999809
 30
0.0
 11
14.499984999999921
 21
-100.89995999999969
 31
0.0
  0
LINE
  5
7BFB
  8
0
 10
-13.500046000000109
 20
-101.8999899999998
 30
0.0
 11
13.49987699999974
 21
-101.8999899999998
 31
0.0
  0
LINE
  5
7BFC
  8
0
 10
-8.139450300000135
 20
-95.899970999999809
 30
0.0
 11
-8.139450300000135
 21
-113.8999899999998
 31
0.0
  0
LINE
  5
7BFD
  8
0
 10
-0.6261972600000263
 20
-95.899970999999809
 30
0.0
 11
-8.1394665000002533
 21
-101.8999499999999
 31
0.0
  0
LINE
  5
7BFE
  8
0
 10
-14.50004400000034
 20
-100.8999899999998
 30
0.0
 11
-13.50010800000018
 21
-101.89993
 31
0.0
  0
LINE
  5
7BFF
  8
0
 10
-14.49998500000037
 20
-100.89995999999969
 30
0.0
 11
-8.139450300000135
 21
-100.89995999999969
 31
0.0
  0
LINE
  5
7C00
  8
0
 10
14.499917000000091
 20
-100.89995999999969
 30
0.0
 11
13.49991599999975
 21
-101.89995999999969
 31
0.0
  0
LINE
  5
7C01
  8
0
 10
14.000014999999619
 20
-102.8999800000001
 30
0.0
 11
14.000014999999619
 21
-112.89995999999969
 31
0.0
  0
LINE
  5
7C02
  8
0
 10
12.99991899999986
 20
-113.8999699999999
 30
0.0
 11
13.999952000000119
 21
-112.8999400000002
 31
0.0
  0
LINE
  5
7C03
  8
0
 10
13.99992299999985
 20
-102.89995999999969
 30
0.0
 11
12.999984999999921
 21
-101.90002
 31
0.0
  0
LINE
  5
7C04
  8
0
 10
-14.000015999999951
 20
-102.89995999999969
 30
0.0
 11
-13.00001500000007
 21
-101.89995999999969
 31
0.0
  0
LINE
  5
7C05
  8
0
 10
-14.00001500000007
 20
-102.8999800000001
 30
0.0
 11
-14.00001500000007
 21
-112.89995999999969
 31
0.0
  0
LINE
  5
7C06
  8
0
 10
-12.999985000000381
 20
-113.8999899999998
 30
0.0
 11
12.9999029999999
 21
-113.8999899999998
 31
0.0
  0
LINE
  5
7C07
  8
0
 10
-13.00001599999996
 20
-113.8999699999999
 30
0.0
 11
-14.000017000000289
 21
-112.89995999999969
 31
0.0
  0
LINE
  5
7C08
  8
0
 10
8.1393582999999126
 20
-101.89995999999969
 30
0.0
 11
-8.1394999000003736
 21
-113.8999899999998
 31
0.0
  0
LINE
  5
7C09
  8
0
 10
8.1393582999999126
 20
-113.8999899999998
 30
0.0
 11
-8.1394303000001855
 21
-101.90000000000011
 31
0.0
  0
LINE
  5
7C0A
  8
0
 10
-14.00001500000007
 20
-102.8999800000001
 30
0.0
 11
-8.139450300000135
 21
-102.8999800000001
 31
0.0
  0
LINE
  5
7C0B
  8
0
 10
-14.00001500000007
 20
-112.89995999999969
 30
0.0
 11
-8.139450300000135
 21
-112.89995999999969
 31
0.0
  0
LINE
  5
7C0C
  8
0
 10
20.000014999999621
 20
-131.89998999999989
 30
0.0
 11
-20.000015000000069
 21
-131.89998999999989
 31
0.0
  0
LINE
  5
7C0D
  8
0
 10
20.999953999999882
 20
-125.6489599999999
 30
0.0
 11
20.999953999999882
 21
-130.89995999999971
 31
0.0
  0
LINE
  5
7C0E
  8
0
 10
14.499984999999921
 20
-119.8999899999998
 30
0.0
 11
14.499984999999921
 21
-120.4986600000002
 31
0.0
  0
LINE
  5
7C0F
  8
0
 10
16.32561999999961
 20
-122.4910399999998
 30
0.0
 11
18.261343000000121
 21
-122.66039000000001
 31
0.0
  0
LINE
  5
7C10
  8
0
 10
-13.500046000000109
 20
-118.89995999999969
 30
0.0
 11
13.49995399999988
 21
-118.89995999999969
 31
0.0
  0
LINE
  5
7C11
  8
0
 10
-21.000046000000111
 20
-125.6489599999999
 30
0.0
 11
-21.000046000000111
 21
-130.89995999999971
 31
0.0
  0
LINE
  5
7C12
  8
0
 10
-14.49998500000037
 20
-119.8999899999998
 30
0.0
 11
-14.49998500000037
 21
-120.4986600000002
 31
0.0
  0
LINE
  5
7C13
  8
0
 10
-9.9999850000003772
 20
-113.8999899999998
 30
0.0
 11
-9.9999850000003772
 21
-118.89995999999969
 31
0.0
  0
LINE
  5
7C14
  8
0
 10
-8.5001069999998435
 20
-113.8999400000002
 30
0.0
 11
-10.00010699999984
 21
-116.49802
 31
0.0
  0
LINE
  5
7C15
  8
0
 10
-16.325791000000201
 20
-122.49101999999991
 30
0.0
 11
-18.261511000000151
 21
-122.66037
 31
0.0
  0
LINE
  5
7C16
  8
0
 10
-13.500046000000109
 20
-122.33131
 30
0.0
 11
14.499984999999921
 21
-122.33131
 31
0.0
  0
LINE
  5
7C17
  8
0
 10
-20.00005700000019
 20
-131.8999499999999
 30
0.0
 11
-20.999993000000352
 21
-130.90002000000001
 31
0.0
  0
LINE
  5
7C18
  8
0
 10
20.99992299999985
 20
-130.8999499999999
 30
0.0
 11
19.999921999999959
 21
-131.89995999999971
 31
0.0
  0
LINE
  5
7C19
  8
0
 10
-21.000046000000111
 20
-130.89995999999971
 30
0.0
 11
20.999953999999882
 21
-130.89995999999971
 31
0.0
  0
LINE
  5
7C1A
  8
0
 10
-18.261511000000151
 20
-122.89995999999969
 30
0.0
 11
18.261343000000121
 21
-122.89995999999969
 31
0.0
  0
LINE
  5
7C1B
  8
0
 10
-72.000046000000111
 20
-2.0999756000001071
 30
0.0
 11
-72.000046000000111
 21
-56.299957000000177
 31
0.0
  0
LINE
  5
7C1C
  8
0
 10
-88.000077000000147
 20
-2.0999756000001071
 30
0.0
 11
-88.000077000000147
 21
-56.299957000000177
 31
0.0
  0
LINE
  5
7C1D
  8
0
 10
-88.000077000000147
 20
-122.0999799999999
 30
0.0
 11
-72.000046000000111
 21
-122.0999799999999
 31
0.0
  0
LINE
  5
7C1E
  8
0
 10
-88.000077000000147
 20
-52.09997599999997
 30
0.0
 11
-72.000046000000111
 21
-52.09997599999997
 31
0.0
  0
LINE
  5
7C1F
  8
0
 10
-86.500077000000147
 20
-52.09997599999997
 30
0.0
 11
-86.500077000000147
 21
-56.299957000000177
 31
0.0
  0
LINE
  5
7C20
  8
0
 10
-73.500046000000111
 20
-52.09997599999997
 30
0.0
 11
-73.500046000000111
 21
-56.299957000000177
 31
0.0
  0
LINE
  5
7C21
  8
0
 10
-73.499764000000141
 20
-52.10014000000001
 30
0.0
 11
-71.999764000000141
 21
-49.502064000000239
 31
0.0
  0
LINE
  5
7C22
  8
0
 10
-86.499870999999985
 20
-52.099860999999692
 30
0.0
 11
-87.999870999999985
 21
-49.50178499999992
 31
0.0
  0
LINE
  5
7C23
  8
0
 10
-65.000015000000076
 20
-72.899978999999803
 30
0.0
 11
-65.000015000000076
 21
-75.899978999999803
 31
0.0
  0
LINE
  5
7C24
  8
0
 10
-95.000015000000076
 20
-72.899978999999803
 30
0.0
 11
-95.000015000000076
 21
-75.899978999999803
 31
0.0
  0
LINE
  5
7C25
  8
0
 10
-95.000015000000076
 20
-72.899978999999803
 30
0.0
 11
-65.000015000000076
 21
-72.899978999999803
 31
0.0
  0
LINE
  5
7C26
  8
0
 10
-93.856429999999818
 20
-71.099983000000066
 30
0.0
 11
-66.143601000000217
 21
-71.099983000000066
 31
0.0
  0
LINE
  5
7C27
  8
0
 10
-93.000046000000111
 20
-71.099983000000066
 30
0.0
 11
-93.000046000000111
 21
-72.899978999999803
 31
0.0
  0
LINE
  5
7C28
  8
0
 10
-67.000077000000147
 20
-71.099983000000066
 30
0.0
 11
-67.000077000000147
 21
-72.899978999999803
 31
0.0
  0
LINE
  5
7C29
  8
0
 10
-91.831192000000101
 20
-71.099983000000066
 30
0.0
 11
-91.831192000000101
 21
-72.899978999999803
 31
0.0
  0
LINE
  5
7C2A
  8
0
 10
-90.581223000000136
 20
-71.099983000000066
 30
0.0
 11
-90.581223000000136
 21
-72.899978999999803
 31
0.0
  0
LINE
  5
7C2B
  8
0
 10
-87.552474999999944
 20
-71.099983000000066
 30
0.0
 11
-87.552474999999944
 21
-72.899978999999803
 31
0.0
  0
LINE
  5
7C2C
  8
0
 10
-85.38743599999998
 20
-71.099983000000066
 30
0.0
 11
-85.38743599999998
 21
-72.899978999999803
 31
0.0
  0
LINE
  5
7C2D
  8
0
 10
-81.250077000000147
 20
-71.099983000000066
 30
0.0
 11
-81.250077000000147
 21
-72.899978999999803
 31
0.0
  0
LINE
  5
7C2E
  8
0
 10
-78.750046000000111
 20
-71.099983000000066
 30
0.0
 11
-78.750046000000111
 21
-72.899978999999803
 31
0.0
  0
LINE
  5
7C2F
  8
0
 10
-74.612686000000394
 20
-71.099983000000066
 30
0.0
 11
-74.612686000000394
 21
-72.899978999999803
 31
0.0
  0
LINE
  5
7C30
  8
0
 10
-72.447646999999961
 20
-71.099983000000066
 30
0.0
 11
-72.447646999999961
 21
-72.899978999999803
 31
0.0
  0
LINE
  5
7C31
  8
0
 10
-69.418900000000122
 20
-71.099983000000066
 30
0.0
 11
-69.418900000000122
 21
-72.899978999999803
 31
0.0
  0
LINE
  5
7C32
  8
0
 10
-68.168838999999934
 20
-71.099983000000066
 30
0.0
 11
-68.168838999999934
 21
-72.899978999999803
 31
0.0
  0
LINE
  5
7C33
  8
0
 10
-93.856429999999818
 20
-57.371764999999868
 30
0.0
 11
-93.856429999999818
 21
-71.099983000000066
 31
0.0
  0
LINE
  5
7C34
  8
0
 10
-66.143601000000217
 20
-57.371764999999868
 30
0.0
 11
-66.143601000000217
 21
-71.099983000000066
 31
0.0
  0
LINE
  5
7C35
  8
0
 10
-68.000015000000076
 20
-56.299957000000177
 30
0.0
 11
-92.000015000000076
 21
-56.299957000000177
 31
0.0
  0
LINE
  5
7C36
  8
0
 10
-68.000023000000056
 20
-56.299884999999897
 30
0.0
 11
-66.143593000000237
 21
-57.37169300000005
 31
0.0
  0
LINE
  5
7C37
  8
0
 10
-91.999901000000136
 20
-56.300116999999773
 30
0.0
 11
-93.856330999999955
 21
-57.371924999999912
 31
0.0
  0
LINE
  5
7C38
  8
0
 10
-86.928269
 20
-57.37174200000026
 30
0.0
 11
-86.928269
 21
-71.099983000000066
 31
0.0
  0
LINE
  5
7C39
  8
0
 10
-73.071854000000258
 20
-57.371764999999868
 30
0.0
 11
-73.071854000000258
 21
-71.099983000000066
 31
0.0
  0
LINE
  5
7C3A
  8
0
 10
-93.856429999999818
 20
-97.428192000000308
 30
0.0
 11
-93.856429999999818
 21
-83.864891000000185
 31
0.0
  0
LINE
  5
7C3B
  8
0
 10
-68.000015000000076
 20
-98.500000000000014
 30
0.0
 11
-92.000015000000076
 21
-98.500000000000014
 31
0.0
  0
LINE
  5
7C3C
  8
0
 10
-91.999939000000268
 20
-98.499947000000233
 30
0.0
 11
-93.856369000000086
 21
-97.428139000000101
 31
0.0
  0
LINE
  5
7C3D
  8
0
 10
-86.928269
 20
-97.428192000000308
 30
0.0
 11
-86.928269
 21
-85.086516999999731
 31
0.0
  0
LINE
  5
7C3E
  8
0
 10
-67.999901000000136
 20
-98.500136999999995
 30
0.0
 11
-66.143516999999974
 21
-97.428351999999904
 31
0.0
  0
LINE
  5
7C3F
  8
0
 10
-73.071854000000258
 20
-97.428192000000308
 30
0.0
 11
-73.071854000000258
 21
-87.529770000000099
 31
0.0
  0
LINE
  5
7C40
  8
0
 10
-66.143601000000217
 20
-97.428192000000308
 30
0.0
 11
-66.143601000000217
 21
-88.751411000000189
 31
0.0
  0
LINE
  5
7C41
  8
0
 10
-88.000077000000147
 20
-98.500000000000014
 30
0.0
 11
-88.000077000000147
 21
-122.0999799999999
 31
0.0
  0
LINE
  5
7C42
  8
0
 10
-86.500077000000147
 20
-98.500000000000014
 30
0.0
 11
-86.500077000000147
 21
-122.0999799999999
 31
0.0
  0
LINE
  5
7C43
  8
0
 10
-73.500046000000111
 20
-98.500000000000014
 30
0.0
 11
-73.500046000000111
 21
-122.0999799999999
 31
0.0
  0
LINE
  5
7C44
  8
0
 10
-72.000046000000111
 20
-98.500000000000014
 30
0.0
 11
-72.000046000000111
 21
-122.0999799999999
 31
0.0
  0
LINE
  5
7C45
  8
0
 10
71.999953999999889
 20
-2.0999756000001071
 30
0.0
 11
71.999953999999889
 21
-56.299957000000177
 31
0.0
  0
LINE
  5
7C46
  8
0
 10
87.999938999999799
 20
-2.0999756000001071
 30
0.0
 11
87.999938999999799
 21
-56.299957000000177
 31
0.0
  0
LINE
  5
7C47
  8
0
 10
87.999938999999799
 20
-52.09997599999997
 30
0.0
 11
71.999953999999889
 21
-52.09997599999997
 31
0.0
  0
LINE
  5
7C48
  8
0
 10
86.499938999999813
 20
-52.09997599999997
 30
0.0
 11
86.499938999999813
 21
-56.299957000000177
 31
0.0
  0
LINE
  5
7C49
  8
0
 10
73.499953999999889
 20
-52.09997599999997
 30
0.0
 11
73.499953999999889
 21
-56.299957000000177
 31
0.0
  0
LINE
  5
7C4A
  8
0
 10
73.500006999999641
 20
-52.099944999999927
 30
0.0
 11
72.000006999999641
 21
-49.501868999999708
 31
0.0
  0
LINE
  5
7C4B
  8
0
 10
86.500067999999828
 20
-52.100062999999857
 30
0.0
 11
88.000067999999814
 21
-49.501983999999993
 31
0.0
  0
LINE
  5
7C4C
  8
0
 10
64.999922999999853
 20
-72.899978999999803
 30
0.0
 11
64.999922999999853
 21
-75.899978999999803
 31
0.0
  0
LINE
  5
7C4D
  8
0
 10
94.999968999999965
 20
-72.899978999999803
 30
0.0
 11
94.999968999999965
 21
-75.899978999999803
 31
0.0
  0
LINE
  5
7C4E
  8
0
 10
94.999968999999965
 20
-72.899978999999803
 30
0.0
 11
64.999922999999853
 21
-72.899978999999803
 31
0.0
  0
LINE
  5
7C4F
  8
0
 10
93.856337999999596
 20
-71.099983000000066
 30
0.0
 11
66.143508999999995
 21
-71.099983000000066
 31
0.0
  0
LINE
  5
7C50
  8
0
 10
92.999953999999889
 20
-71.099983000000066
 30
0.0
 11
92.999953999999889
 21
-72.899978999999803
 31
0.0
  0
LINE
  5
7C51
  8
0
 10
66.999984999999924
 20
-71.099983000000066
 30
0.0
 11
66.999984999999924
 21
-72.899978999999803
 31
0.0
  0
LINE
  5
7C52
  8
0
 10
91.831099999999878
 20
-71.099983000000066
 30
0.0
 11
91.831099999999878
 21
-72.899978999999803
 31
0.0
  0
LINE
  5
7C53
  8
0
 10
90.581130999999914
 20
-71.099983000000066
 30
0.0
 11
90.581130999999914
 21
-72.899978999999803
 31
0.0
  0
LINE
  5
7C54
  8
0
 10
87.552382999999736
 20
-71.099983000000066
 30
0.0
 11
87.552382999999736
 21
-72.899978999999803
 31
0.0
  0
LINE
  5
7C55
  8
0
 10
85.387297999999646
 20
-71.099983000000066
 30
0.0
 11
85.387297999999646
 21
-72.899978999999803
 31
0.0
  0
LINE
  5
7C56
  8
0
 10
81.249938999999813
 20
-71.099983000000066
 30
0.0
 11
81.249938999999813
 21
-72.899978999999803
 31
0.0
  0
LINE
  5
7C57
  8
0
 10
78.749953999999875
 20
-71.099983000000066
 30
0.0
 11
78.749953999999875
 21
-72.899978999999803
 31
0.0
  0
LINE
  5
7C58
  8
0
 10
74.612594000000172
 20
-71.099983000000066
 30
0.0
 11
74.612594000000172
 21
-72.899978999999803
 31
0.0
  0
LINE
  5
7C59
  8
0
 10
72.447554999999738
 20
-71.099983000000066
 30
0.0
 11
72.447554999999738
 21
-72.899978999999803
 31
0.0
  0
LINE
  5
7C5A
  8
0
 10
69.418807999999899
 20
-71.099983000000066
 30
0.0
 11
69.418807999999899
 21
-72.899978999999803
 31
0.0
  0
LINE
  5
7C5B
  8
0
 10
68.168792999999823
 20
-71.099983000000066
 30
0.0
 11
68.168792999999823
 21
-72.899978999999803
 31
0.0
  0
LINE
  5
7C5C
  8
0
 10
93.856337999999596
 20
-57.371764999999868
 30
0.0
 11
93.856337999999596
 21
-71.099983000000066
 31
0.0
  0
LINE
  5
7C5D
  8
0
 10
66.143508999999995
 20
-57.371764999999868
 30
0.0
 11
66.143508999999995
 21
-71.099983000000066
 31
0.0
  0
LINE
  5
7C5E
  8
0
 10
67.999922999999853
 20
-56.299957000000177
 30
0.0
 11
91.999968999999965
 21
-56.299957000000177
 31
0.0
  0
LINE
  5
7C5F
  8
0
 10
67.999968999999965
 20
-56.300097999999707
 30
0.0
 11
66.143584999999803
 21
-57.371882999999798
 31
0.0
  0
LINE
  5
7C60
  8
0
 10
91.999938999999813
 20
-56.299952999999732
 30
0.0
 11
93.856369000000086
 21
-57.371761000000333
 31
0.0
  0
LINE
  5
7C61
  8
0
 10
86.928176999999764
 20
-57.37174200000026
 30
0.0
 11
86.928176999999764
 21
-71.099983000000066
 31
0.0
  0
LINE
  5
7C62
  8
0
 10
73.071762000000035
 20
-57.371764999999868
 30
0.0
 11
73.071762000000035
 21
-71.099983000000066
 31
0.0
  0
LINE
  5
7C63
  8
0
 10
93.856337999999596
 20
-97.428192000000308
 30
0.0
 11
93.856337999999596
 21
-83.864891000000185
 31
0.0
  0
LINE
  5
7C64
  8
0
 10
86.928176999999764
 20
-97.428192000000308
 30
0.0
 11
86.928176999999764
 21
-85.086516999999731
 31
0.0
  0
LINE
  5
7C65
  8
0
 10
73.071762000000035
 20
-97.428192000000308
 30
0.0
 11
73.071762000000035
 21
-87.529770000000099
 31
0.0
  0
LINE
  5
7C66
  8
0
 10
66.143599999999878
 20
-97.428192000000308
 30
0.0
 11
66.143599999999878
 21
-88.751396000000113
 31
0.0
  0
LINE
  5
7C67
  8
0
 10
87.999938999999799
 20
-122.0999799999999
 30
0.0
 11
71.999953999999889
 21
-122.0999799999999
 31
0.0
  0
LINE
  5
7C68
  8
0
 10
67.999922999999853
 20
-98.500000000000014
 30
0.0
 11
91.999968999999965
 21
-98.500000000000014
 31
0.0
  0
LINE
  5
7C69
  8
0
 10
91.999938999999813
 20
-98.500144999999975
 30
0.0
 11
93.856361000000106
 21
-97.428337000000283
 31
0.0
  0
LINE
  5
7C6A
  8
0
 10
67.999922999999853
 20
-98.500000000000014
 30
0.0
 11
66.143501000000015
 21
-97.428192000000308
 31
0.0
  0
LINE
  5
7C6B
  8
0
 10
87.999938999999799
 20
-98.500000000000014
 30
0.0
 11
87.999938999999799
 21
-122.0999799999999
 31
0.0
  0
LINE
  5
7C6C
  8
0
 10
86.499938999999813
 20
-98.500000000000014
 30
0.0
 11
86.499938999999813
 21
-122.0999799999999
 31
0.0
  0
LINE
  5
7C6D
  8
0
 10
73.499953999999889
 20
-98.500000000000014
 30
0.0
 11
73.499953999999889
 21
-122.0999799999999
 31
0.0
  0
LINE
  5
7C6E
  8
0
 10
71.999953999999889
 20
-98.500000000000014
 30
0.0
 11
71.999953999999889
 21
-122.0999799999999
 31
0.0
  0
LINE
  5
7C6F
  8
0
 10
-25.60210800000004
 20
-95.899970999999809
 30
0.0
 11
25.601944
 21
-95.899970999999809
 31
0.0
  0
ARC
  5
7C70
  8
0
 10
101.9999539999998
 20
-79.382668000000194
 30
0.0
 40
3.0
 50
279.99996999999189
 51
0.0
  0
ARC
  5
7C71
  8
0
 10
-102.0000460000001
 20
-79.382668000000194
 30
0.0
 40
3.0
 50
180.0
 51
260.00003000000788
  0
ARC
  5
7C72
  8
0
 10
-13.500046000000109
 20
-119.8999899999998
 30
0.0
 40
1.0
 50
90.0
 51
180.0
  0
ARC
  5
7C73
  8
0
 10
13.49995399999988
 20
-119.8999899999998
 30
0.0
 40
1.0
 50
0.0
 51
90.0
  0
ARC
  5
7C74
  8
0
 10
17.999953999999882
 20
-125.6489599999999
 30
0.0
 40
3.0
 50
0.0
 51
85.000009000017926
  0
ARC
  5
7C75
  8
0
 10
16.499953999999889
 20
-120.4986600000002
 30
0.0
 40
2.0
 50
180.0
 51
265.0000100000139
  0
ARC
  5
7C76
  8
0
 10
-16.500046000000111
 20
-120.4986600000002
 30
0.0
 40
2.0
 50
274.99998999998598
 51
0.0
  0
ARC
  5
7C77
  8
0
 10
-18.000046000000111
 20
-125.6489599999999
 30
0.0
 40
3.0
 50
94.999990999982074
 51
180.0
  0
ARC
  5
7C78
  8
0
 10
-0.0000460000001112
 20
-2.0999756000001071
 30
0.0
 40
72.0
 50
0.0
 51
180.0
  0
ARC
  5
7C79
  8
0
 10
-0.0000460000001112
 20
-2.0999756000001071
 30
0.0
 40
88.0
 50
0.0
 51
180.0
  0
ARC
  5
7C7A
  8
0
 10
-80.000015000000076
 20
-79.22814900000003
 30
0.0
 40
22.928204000000001
 50
72.412054999996812
 51
107.58794000001051
  0
ARC
  5
7C7B
  8
0
 10
-69.607680999999957
 20
-62.433922000000159
 30
0.0
 40
6.1339746000000002
 50
64.384247999989014
 51
124.3842499999957
  0
ARC
  5
7C7C
  8
0
 10
-90.392349000000195
 20
-62.433922000000159
 30
0.0
 40
6.1339746000000002
 50
55.615745999992747
 51
115.6157500000097
  0
ARC
  5
7C7D
  8
0
 10
-90.392349000000195
 20
-92.366012999999839
 30
0.0
 40
6.1339746000000002
 50
244.3842499999902
 51
304.3842499999958
  0
ARC
  5
7C7E
  8
0
 10
-80.000015000000076
 20
-75.571807999999692
 30
0.0
 40
22.928204000000001
 50
252.4120599999894
 51
287.58794000001058
  0
ARC
  5
7C7F
  8
0
 10
-69.607680999999957
 20
-92.366012999999839
 30
0.0
 40
6.1339746000000002
 50
235.6157500000042
 51
295.61575000000971
  0
ARC
  5
7C80
  8
0
 10
79.999968999999965
 20
-75.571807999999692
 30
0.0
 40
22.928204000000001
 50
252.4120599999894
 51
287.58794000001058
  0
ARC
  5
7C81
  8
0
 10
79.999968999999965
 20
-79.22814900000003
 30
0.0
 40
22.928204000000001
 50
72.412054999996812
 51
107.58794000001051
  0
ARC
  5
7C82
  8
0
 10
69.607634999999846
 20
-62.433922000000159
 30
0.0
 40
6.1339746000000002
 50
55.615745999992747
 51
115.6157500000097
  0
ARC
  5
7C83
  8
0
 10
90.392211999999745
 20
-62.433922000000159
 30
0.0
 40
6.1339746000000002
 50
64.384247999989014
 51
124.3842499999957
  0
ARC
  5
7C84
  8
0
 10
90.392211999999745
 20
-92.366012999999839
 30
0.0
 40
6.1339746000000002
 50
235.6157500000042
 51
295.61575000000971
  0
ARC
  5
7C85
  8
0
 10
69.607634999999846
 20
-92.366012999999839
 30
0.0
 40
6.1339746000000002
 50
244.3842499999902
 51
304.3842499999958
  0
LINE
  5
7C86
  8
0
 10
295.06510321674062
 20
-69.899978999999803
 30
0.0
 11
288.56504221674089
 21
-69.899978999999803
 31
0.0
  0
LINE
  5
7C87
  8
0
 10
295.56502721674082
 20
-70.399993999999879
 30
0.0
 11
295.56502721674082
 21
-75.399962999999843
 31
0.0
  0
LINE
  5
7C88
  8
0
 10
295.565065216741
 20
-75.399978999999803
 30
0.0
 11
295.065088216741
 21
-75.899956000000202
 31
0.0
  0
LINE
  5
7C89
  8
0
 10
295.56504621674088
 20
-70.400008999999955
 30
0.0
 11
295.06501321674108
 21
-69.899978999999803
 31
0.0
  0
LINE
  5
7C8A
  8
0
 10
257.56510321674062
 20
-70.399993999999879
 30
0.0
 11
257.56510321674062
 21
-75.399962999999843
 31
0.0
  0
LINE
  5
7C8B
  8
0
 10
258.06502521674059
 20
-75.899978999999803
 30
0.0
 11
257.56502321674083
 21
-75.399978999999803
 31
0.0
  0
LINE
  5
7C8C
  8
0
 10
258.06500421674082
 20
-69.900008999999955
 30
0.0
 11
257.56503421674091
 21
-70.399978999999803
 31
0.0
  0
LINE
  5
7C8D
  8
0
 10
257.56510321674062
 20
-70.399993999999879
 30
0.0
 11
264.56504221674089
 21
-70.399993999999879
 31
0.0
  0
LINE
  5
7C8E
  8
0
 10
257.56510321674062
 20
-75.399962999999843
 30
0.0
 11
261.56504221674089
 21
-75.399962999999843
 31
0.0
  0
LINE
  5
7C8F
  8
0
 10
262.06510321674068
 20
-81.899978999999803
 30
0.0
 11
262.06510321674068
 21
-100.89995999999969
 31
0.0
  0
LINE
  5
7C90
  8
0
 10
291.06502721674082
 20
-81.899978999999803
 30
0.0
 11
291.06502721674082
 21
-100.89995999999969
 31
0.0
  0
LINE
  5
7C91
  8
0
 10
262.06502321674083
 20
-100.89995999999969
 30
0.0
 11
263.06502721674082
 21
-101.89995999999969
 31
0.0
  0
LINE
  5
7C92
  8
0
 10
262.06510321674068
 20
-100.89995999999969
 30
0.0
 11
268.56502691674081
 21
-100.89995999999969
 31
0.0
  0
LINE
  5
7C93
  8
0
 10
291.06502721674082
 20
-100.8999800000001
 30
0.0
 11
290.06502521674059
 21
-101.8999800000001
 31
0.0
  0
LINE
  5
7C94
  8
0
 10
290.56510321674062
 20
-102.8999800000001
 30
0.0
 11
290.56510321674062
 21
-112.89995999999969
 31
0.0
  0
LINE
  5
7C95
  8
0
 10
289.56503921674079
 20
-113.90002
 30
0.0
 11
290.56507321674093
 21
-112.8999899999998
 31
0.0
  0
LINE
  5
7C96
  8
0
 10
290.56504321674078
 20
-102.90001000000019
 30
0.0
 11
289.56504121674101
 21
-101.90001000000019
 31
0.0
  0
LINE
  5
7C97
  8
0
 10
262.56509321674088
 20
-102.8999800000001
 30
0.0
 11
263.56509321674088
 21
-101.8999800000001
 31
0.0
  0
LINE
  5
7C98
  8
0
 10
262.56502721674082
 20
-102.8999800000001
 30
0.0
 11
262.56502721674082
 21
-112.89995999999969
 31
0.0
  0
LINE
  5
7C99
  8
0
 10
263.5650122167408
 20
-113.8999400000002
 30
0.0
 11
262.56504421674072
 21
-112.8999699999999
 31
0.0
  0
LINE
  5
7C9A
  8
0
 10
262.56502721674082
 20
-102.8999800000001
 30
0.0
 11
268.56502691674081
 21
-102.8999800000001
 31
0.0
  0
LINE
  5
7C9B
  8
0
 10
262.56502721674082
 20
-112.89995999999969
 30
0.0
 11
268.56502691674081
 21
-112.89995999999969
 31
0.0
  0
LINE
  5
7C9C
  8
0
 10
296.56510321674062
 20
-131.89998999999989
 30
0.0
 11
256.56502721674082
 21
-131.89998999999989
 31
0.0
  0
LINE
  5
7C9D
  8
0
 10
297.56504221674089
 20
-125.6489599999999
 30
0.0
 11
297.56504221674089
 21
-130.89995999999971
 31
0.0
  0
LINE
  5
7C9E
  8
0
 10
291.06502721674082
 20
-119.8999899999998
 30
0.0
 11
291.06502721674082
 21
-120.4986600000002
 31
0.0
  0
LINE
  5
7C9F
  8
0
 10
292.89065921674091
 20
-122.49101999999991
 30
0.0
 11
294.82647121674103
 21
-122.66039000000001
 31
0.0
  0
LINE
  5
7CA0
  8
0
 10
263.06504221674089
 20
-118.89995999999969
 30
0.0
 11
268.56502691674081
 21
-118.89995999999969
 31
0.0
  0
LINE
  5
7CA1
  8
0
 10
263.56510321674062
 20
-113.8999899999998
 30
0.0
 11
268.56502691674081
 21
-113.8999899999998
 31
0.0
  0
LINE
  5
7CA2
  8
0
 10
255.56504221674089
 20
-125.6489599999999
 30
0.0
 11
255.56504221674089
 21
-130.89995999999971
 31
0.0
  0
LINE
  5
7CA3
  8
0
 10
262.06510321674068
 20
-119.8999899999998
 30
0.0
 11
262.06510321674068
 21
-120.4986600000002
 31
0.0
  0
LINE
  5
7CA4
  8
0
 10
266.56510321674062
 20
-113.8999899999998
 30
0.0
 11
266.56510321674062
 21
-118.89995999999969
 31
0.0
  0
LINE
  5
7CA5
  8
0
 10
268.06495831674101
 20
-113.89993
 30
0.0
 11
266.56495821674071
 21
-116.49801000000021
 31
0.0
  0
LINE
  5
7CA6
  8
0
 10
260.23934121674108
 20
-122.49101999999991
 30
0.0
 11
258.3036172167412
 21
-122.6603800000002
 31
0.0
  0
LINE
  5
7CA7
  8
0
 10
262.06510321674068
 20
-122.33131
 30
0.0
 11
268.56502691674081
 21
-122.33131
 31
0.0
  0
LINE
  5
7CA8
  8
0
 10
256.56505321674098
 20
-131.89998000000011
 30
0.0
 11
255.5650522167407
 21
-130.89998000000011
 31
0.0
  0
LINE
  5
7CA9
  8
0
 10
297.56500021674083
 20
-130.8999499999999
 30
0.0
 11
296.564998216741
 21
-131.8999499999999
 31
0.0
  0
LINE
  5
7CAA
  8
0
 10
255.56504221674089
 20
-130.89995999999971
 30
0.0
 11
297.56504221674089
 21
-130.89995999999971
 31
0.0
  0
LINE
  5
7CAB
  8
0
 10
263.06504221674089
 20
-101.8999899999998
 30
0.0
 11
268.56502691674081
 21
-101.8999899999998
 31
0.0
  0
LINE
  5
7CAC
  8
0
 10
258.06502721674082
 20
-75.899978999999803
 30
0.0
 11
295.06510321674062
 21
-75.899978999999803
 31
0.0
  0
LINE
  5
7CAD
  8
0
 10
260.55952821674089
 20
-78.899978999999803
 30
0.0
 11
292.57055621674078
 21
-78.899978999999803
 31
0.0
  0
LINE
  5
7CAE
  8
0
 10
259.56502721674082
 20
-79.899962999999843
 30
0.0
 11
259.56502721674082
 21
-95.899970999999809
 31
0.0
  0
LINE
  5
7CAF
  8
0
 10
256.56502721674082
 20
-78.899978999999803
 30
0.0
 11
256.56502721674082
 21
-95.899970999999809
 31
0.0
  0
LINE
  5
7CB0
  8
0
 10
293.56505721674102
 20
-79.899962999999843
 30
0.0
 11
293.56505721674102
 21
-95.899970999999809
 31
0.0
  0
LINE
  5
7CB1
  8
0
 10
296.56505721674102
 20
-78.899978999999803
 30
0.0
 11
296.56505721674102
 21
-95.899970999999809
 31
0.0
  0
LINE
  5
7CB2
  8
0
 10
258.30361921674103
 20
-122.8999699999999
 30
0.0
 11
294.82647121674103
 21
-122.8999699999999
 31
0.0
  0
LINE
  5
7CB3
  8
0
 10
286.56498121674122
 20
-113.8999899999998
 30
0.0
 11
286.56498121674122
 21
-118.89995999999969
 31
0.0
  0
LINE
  5
7CB4
  8
0
 10
285.06512041674068
 20
-113.89993
 30
0.0
 11
286.56512021674092
 21
-116.49801000000021
 31
0.0
  0
LINE
  5
7CB5
  8
0
 10
268.56502691674081
 20
77.90002400000003
 30
0.0
 11
268.56502691674081
 21
-56.299957000000177
 31
0.0
  0
LINE
  5
7CB6
  8
0
 10
284.56505751674098
 20
77.90002400000003
 30
0.0
 11
284.56505751674098
 21
-56.299957000000177
 31
0.0
  0
LINE
  5
7CB7
  8
0
 10
284.56505751674098
 20
-52.09997599999997
 30
0.0
 11
268.56502691674081
 21
-52.09997599999997
 31
0.0
  0
LINE
  5
7CB8
  8
0
 10
283.06505751674098
 20
-52.09997599999997
 30
0.0
 11
283.06505751674098
 21
-56.299957000000177
 31
0.0
  0
LINE
  5
7CB9
  8
0
 10
270.06502691674081
 20
-52.09997599999997
 30
0.0
 11
270.06502691674081
 21
-56.299957000000177
 31
0.0
  0
LINE
  5
7CBA
  8
0
 10
270.06516621674098
 20
-52.09992200000034
 30
0.0
 11
268.56516621674109
 21
-49.501846000000107
 31
0.0
  0
LINE
  5
7CBB
  8
0
 10
283.06532401674122
 20
-52.100166000000172
 30
0.0
 11
284.56532451674087
 21
-49.502089999999953
 31
0.0
  0
LINE
  5
7CBC
  8
0
 10
261.56504221674089
 20
-72.899978999999803
 30
0.0
 11
261.56504221674089
 21
-75.899978999999803
 31
0.0
  0
LINE
  5
7CBD
  8
0
 10
291.56504221674089
 20
-72.899978999999803
 30
0.0
 11
291.56504221674089
 21
-75.899978999999803
 31
0.0
  0
LINE
  5
7CBE
  8
0
 10
291.56504221674089
 20
-72.899978999999803
 30
0.0
 11
261.56504221674089
 21
-72.899978999999803
 31
0.0
  0
LINE
  5
7CBF
  8
0
 10
289.56502721674082
 20
-71.099983000000066
 30
0.0
 11
263.56505721674102
 21
-71.099983000000066
 31
0.0
  0
LINE
  5
7CC0
  8
0
 10
289.56502721674082
 20
-71.099983000000066
 30
0.0
 11
289.56502721674082
 21
-72.899978999999803
 31
0.0
  0
LINE
  5
7CC1
  8
0
 10
263.56505721674102
 20
-71.099983000000066
 30
0.0
 11
263.56505721674102
 21
-72.899978999999803
 31
0.0
  0
LINE
  5
7CC2
  8
0
 10
288.39621921674092
 20
-71.099983000000066
 30
0.0
 11
288.39621921674092
 21
-72.899978999999803
 31
0.0
  0
LINE
  5
7CC3
  8
0
 10
287.14620321674101
 20
-71.099983000000066
 30
0.0
 11
287.14620321674101
 21
-72.899978999999803
 31
0.0
  0
LINE
  5
7CC4
  8
0
 10
284.11745611674081
 20
-71.099983000000066
 30
0.0
 11
284.11745611674081
 21
-72.899978999999803
 31
0.0
  0
LINE
  5
7CC5
  8
0
 10
281.95237131674088
 20
-71.099983000000066
 30
0.0
 11
281.95237131674088
 21
-72.899978999999803
 31
0.0
  0
LINE
  5
7CC6
  8
0
 10
277.81505751674098
 20
-71.099983000000066
 30
0.0
 11
277.81505751674098
 21
-72.899978999999803
 31
0.0
  0
LINE
  5
7CC7
  8
0
 10
275.31502691674081
 20
-71.099983000000066
 30
0.0
 11
275.31502691674081
 21
-72.899978999999803
 31
0.0
  0
LINE
  5
7CC8
  8
0
 10
271.1777131167409
 20
-71.099983000000066
 30
0.0
 11
271.1777131167409
 21
-72.899978999999803
 31
0.0
  0
LINE
  5
7CC9
  8
0
 10
269.01262831674097
 20
-71.099983000000066
 30
0.0
 11
269.01262831674097
 21
-72.899978999999803
 31
0.0
  0
LINE
  5
7CCA
  8
0
 10
265.98388121674088
 20
-71.099983000000066
 30
0.0
 11
265.98388121674088
 21
-72.899978999999803
 31
0.0
  0
LINE
  5
7CCB
  8
0
 10
264.73386521674092
 20
-71.099983000000066
 30
0.0
 11
264.73386521674092
 21
-72.899978999999803
 31
0.0
  0
LINE
  5
7CCC
  8
0
 10
284.56505751674098
 20
-122.0999799999999
 30
0.0
 11
268.56502691674081
 21
-122.0999799999999
 31
0.0
  0
LINE
  5
7CCD
  8
0
 10
291.56504221674089
 20
-81.899978999999803
 30
0.0
 11
291.56504221674089
 21
-78.899978999999803
 31
0.0
  0
LINE
  5
7CCE
  8
0
 10
291.56504221674089
 20
-81.899978999999803
 30
0.0
 11
261.56504221674089
 21
-81.899978999999803
 31
0.0
  0
LINE
  5
7CCF
  8
0
 10
289.56502721674082
 20
-83.699974000000111
 30
0.0
 11
263.56505721674102
 21
-83.699974000000111
 31
0.0
  0
LINE
  5
7CD0
  8
0
 10
289.56502721674082
 20
-83.699974000000111
 30
0.0
 11
289.56502721674082
 21
-81.899978999999803
 31
0.0
  0
LINE
  5
7CD1
  8
0
 10
288.39621921674092
 20
-83.699974000000111
 30
0.0
 11
288.39621921674092
 21
-81.899978999999803
 31
0.0
  0
LINE
  5
7CD2
  8
0
 10
287.14620321674101
 20
-83.699974000000111
 30
0.0
 11
287.14620321674101
 21
-81.899978999999803
 31
0.0
  0
LINE
  5
7CD3
  8
0
 10
263.56505721674102
 20
-83.699974000000111
 30
0.0
 11
263.56505721674102
 21
-81.899978999999803
 31
0.0
  0
LINE
  5
7CD4
  8
0
 10
284.11745611674081
 20
-83.699974000000111
 30
0.0
 11
284.11745611674081
 21
-81.899978999999803
 31
0.0
  0
LINE
  5
7CD5
  8
0
 10
281.95237131674088
 20
-83.699974000000111
 30
0.0
 11
281.95237131674088
 21
-81.899978999999803
 31
0.0
  0
LINE
  5
7CD6
  8
0
 10
277.81505751674098
 20
-83.699974000000111
 30
0.0
 11
277.81505751674098
 21
-81.899978999999803
 31
0.0
  0
LINE
  5
7CD7
  8
0
 10
275.31502691674081
 20
-83.699974000000111
 30
0.0
 11
275.31502691674081
 21
-81.899978999999803
 31
0.0
  0
LINE
  5
7CD8
  8
0
 10
271.1777131167409
 20
-83.699974000000111
 30
0.0
 11
271.1777131167409
 21
-81.899978999999803
 31
0.0
  0
LINE
  5
7CD9
  8
0
 10
269.01262831674097
 20
-83.699974000000111
 30
0.0
 11
269.01262831674097
 21
-81.899978999999803
 31
0.0
  0
LINE
  5
7CDA
  8
0
 10
265.98388121674088
 20
-83.699974000000111
 30
0.0
 11
265.98388121674088
 21
-81.899978999999803
 31
0.0
  0
LINE
  5
7CDB
  8
0
 10
264.73386521674092
 20
-83.699974000000111
 30
0.0
 11
264.73386521674092
 21
-81.899978999999803
 31
0.0
  0
LINE
  5
7CDC
  8
0
 10
261.56504221674089
 20
-81.899978999999803
 30
0.0
 11
261.56504221674089
 21
-78.899978999999803
 31
0.0
  0
LINE
  5
7CDD
  8
0
 10
284.56505751674098
 20
-98.500000000000014
 30
0.0
 11
284.56505751674098
 21
-122.0999799999999
 31
0.0
  0
LINE
  5
7CDE
  8
0
 10
283.06505751674098
 20
-98.500000000000014
 30
0.0
 11
283.06505751674098
 21
-122.0999799999999
 31
0.0
  0
LINE
  5
7CDF
  8
0
 10
270.06502691674081
 20
-98.500000000000014
 30
0.0
 11
270.06502691674081
 21
-122.0999799999999
 31
0.0
  0
LINE
  5
7CE0
  8
0
 10
268.56502691674081
 20
-98.500000000000014
 30
0.0
 11
268.56502691674081
 21
-122.0999799999999
 31
0.0
  0
LINE
  5
7CE1
  8
0
 10
291.56504221674089
 20
-75.399962999999843
 30
0.0
 11
295.56502721674082
 21
-75.399962999999843
 31
0.0
  0
LINE
  5
7CE2
  8
0
 10
284.56505751674098
 20
-122.33131
 30
0.0
 11
291.06502721674082
 21
-122.33131
 31
0.0
  0
LINE
  5
7CE3
  8
0
 10
284.56505751674098
 20
-118.89995999999969
 30
0.0
 11
290.06504221674089
 21
-118.89995999999969
 31
0.0
  0
LINE
  5
7CE4
  8
0
 10
284.56505751674098
 20
-113.8999899999998
 30
0.0
 11
289.56502721674082
 21
-113.8999899999998
 31
0.0
  0
LINE
  5
7CE5
  8
0
 10
284.56505751674098
 20
-112.89995999999969
 30
0.0
 11
290.56505721674102
 21
-112.89995999999969
 31
0.0
  0
LINE
  5
7CE6
  8
0
 10
284.56505751674098
 20
-102.8999800000001
 30
0.0
 11
290.56510321674062
 21
-102.8999800000001
 31
0.0
  0
LINE
  5
7CE7
  8
0
 10
284.56505751674098
 20
-101.8999899999998
 30
0.0
 11
290.06504221674089
 21
-101.8999899999998
 31
0.0
  0
LINE
  5
7CE8
  8
0
 10
284.56505751674098
 20
-100.89995999999969
 30
0.0
 11
291.06502721674082
 21
-100.89995999999969
 31
0.0
  0
LINE
  5
7CE9
  8
0
 10
276.56504221674089
 20
-97.428192000000308
 30
0.0
 11
276.56504221674089
 21
-83.699974000000111
 31
0.0
  0
LINE
  5
7CEA
  8
0
 10
266.42144821674083
 20
-98.499931000000288
 30
0.0
 11
264.5651022167412
 21
-97.428168999999784
 31
0.0
  0
LINE
  5
7CEB
  8
0
 10
286.70883621674102
 20
-98.500243999999839
 30
0.0
 11
288.56522221674089
 21
-97.428458999999748
 31
0.0
  0
LINE
  5
7CEC
  8
0
 10
288.56504221674089
 20
-97.428192000000308
 30
0.0
 11
288.56504221674089
 21
-83.699974000000111
 31
0.0
  0
LINE
  5
7CED
  8
0
 10
264.56504221674089
 20
-97.428192000000308
 30
0.0
 11
264.56504221674089
 21
-83.699974000000111
 31
0.0
  0
LINE
  5
7CEE
  8
0
 10
286.70867321674081
 20
-98.499976999999944
 30
0.0
 11
266.4215032167412
 21
-98.499976999999944
 31
0.0
  0
LINE
  5
7CEF
  8
0
 10
276.56504221674089
 20
-57.371764999999868
 30
0.0
 11
276.56504221674089
 21
-71.099983000000066
 31
0.0
  0
LINE
  5
7CF0
  8
0
 10
266.42159821674062
 20
-56.300255000000107
 30
0.0
 11
264.56521221674109
 21
-57.37204000000019
 31
0.0
  0
LINE
  5
7CF1
  8
0
 10
286.70866021674101
 20
-56.299987999999757
 30
0.0
 11
288.565045216741
 21
-57.371772999999841
 31
0.0
  0
LINE
  5
7CF2
  8
0
 10
288.56504221674089
 20
-57.371764999999868
 30
0.0
 11
288.56504221674089
 21
-71.099983000000066
 31
0.0
  0
LINE
  5
7CF3
  8
0
 10
264.56504221674089
 20
-57.371764999999868
 30
0.0
 11
264.56504221674089
 21
-71.099983000000066
 31
0.0
  0
LINE
  5
7CF4
  8
0
 10
286.70867321674081
 20
-56.299979999999778
 30
0.0
 11
266.4215032167412
 21
-56.299979999999778
 31
0.0
  0
LINE
  5
7CF5
  8
0
 10
288.56504221674089
 20
-70.399993999999879
 30
0.0
 11
295.56502721674082
 21
-70.399993999999879
 31
0.0
  0
LINE
  5
7CF6
  8
0
 10
264.56504221674089
 20
-69.899978999999803
 30
0.0
 11
258.06502721674082
 21
-69.899978999999803
 31
0.0
  0
LINE
  5
7CF7
  8
0
 10
256.56502721674082
 20
-95.899970999999809
 30
0.0
 11
259.56502721674082
 21
-95.899970999999809
 31
0.0
  0
LINE
  5
7CF8
  8
0
 10
293.56505721674102
 20
-95.899970999999809
 30
0.0
 11
296.56505721674102
 21
-95.899970999999809
 31
0.0
  0
ARC
  5
7CF9
  8
0
 10
290.06504221674089
 20
-119.8999899999998
 30
0.0
 40
1.0
 50
0.0
 51
90.0
  0
ARC
  5
7CFA
  8
0
 10
294.56504221674089
 20
-125.6489599999999
 30
0.0
 40
3.0
 50
0.0
 51
85.000009000017926
  0
ARC
  5
7CFB
  8
0
 10
293.06504221674089
 20
-120.4986600000002
 30
0.0
 40
2.0
 50
180.0
 51
265.0000100000139
  0
ARC
  5
7CFC
  8
0
 10
260.06504221674089
 20
-120.4986600000002
 30
0.0
 40
2.0
 50
274.99998999998598
 51
0.0
  0
ARC
  5
7CFD
  8
0
 10
258.56504221674089
 20
-125.6489599999999
 30
0.0
 40
3.0
 50
94.999990999982074
 51
180.0
  0
ARC
  5
7CFE
  8
0
 10
263.06504221674089
 20
-119.8999899999998
 30
0.0
 40
1.0
 50
90.0
 51
180.0
  0
ARC
  5
7CFF
  8
0
 10
259.56502721674082
 20
-78.899978999999803
 30
0.0
 40
3.0
 50
90.0
 51
180.0
  0
ARC
  5
7D00
  8
0
 10
293.56505721674102
 20
-78.899978999999803
 30
0.0
 40
3.0
 50
0.0
 51
90.0
  0
ARC
  5
7D01
  8
0
 10
260.56505721674102
 20
-79.899962999999843
 30
0.0
 40
1.0
 50
90.0
 51
180.0
  0
ARC
  5
7D02
  8
0
 10
292.56502721674082
 20
-79.899962999999843
 30
0.0
 40
1.0
 50
0.0
 51
90.0
  0
ARC
  5
7D03
  8
0
 10
270.56504221674089
 20
-81.169845999999794
 30
0.0
 40
17.330127999999998
 50
249.74384000000359
 51
290.25615999999633
  0
ARC
  5
7D04
  8
0
 10
282.56504221674089
 20
-81.169845999999794
 30
0.0
 40
17.330127999999998
 50
249.74384000000359
 51
290.25615999999633
  0
ARC
  5
7D05
  8
0
 10
270.56504221674089
 20
-73.630089000000225
 30
0.0
 40
17.330127999999998
 50
69.743840999991249
 51
110.2561599999963
  0
ARC
  5
7D06
  8
0
 10
282.56504221674089
 20
-73.630089000000225
 30
0.0
 40
17.330127999999998
 50
69.743840000003615
 51
110.2561599999963
  0
ARC
  5
7D07
  8
0
 10
276.56504221674089
 20
77.90002400000003
 30
0.0
 40
8.0
 50
0.0
 51
180.0
  0
LINE
  5
7D08
  8
0
 10
-105.0000460000001
 20
253.56745109900609
 30
0.0
 11
-105.0000460000001
 21
250.56745109900609
 31
0.0
  0
LINE
  5
7D09
  8
0
 10
-110.0000159999999
 20
282.5674660990062
 30
0.0
 11
-110.0000159999999
 21
258.56746609900608
 31
0.0
  0
LINE
  5
7D0A
  8
0
 10
-105.0000460000001
 20
290.5674350990061
 30
0.0
 11
-105.0000460000001
 21
287.5674350990061
 31
0.0
  0
LINE
  5
7D0B
  8
0
 10
109.9999739999998
 20
282.5674660990062
 30
0.0
 11
109.9999739999998
 21
258.56746609900608
 31
0.0
  0
LINE
  5
7D0C
  8
0
 10
-105.0000460000001
 20
250.56745109900609
 30
0.0
 11
104.9999539999998
 21
250.56745109900609
 31
0.0
  0
LINE
  5
7D0D
  8
0
 10
-105.0000460000001
 20
290.5674350990061
 30
0.0
 11
104.9999539999998
 21
290.5674350990061
 31
0.0
  0
LINE
  5
7D0E
  8
0
 10
104.9999539999998
 20
290.5674350990061
 30
0.0
 11
104.9999539999998
 21
287.5674350990061
 31
0.0
  0
LINE
  5
7D0F
  8
0
 10
104.9999539999998
 20
253.56745109900609
 30
0.0
 11
104.9999539999998
 21
250.56745109900609
 31
0.0
  0
LINE
  5
7D10
  8
0
 10
-92.500077000000147
 20
261.06745079900611
 30
0.0
 11
-91.608261000000311
 21
261.06745079900611
 31
0.0
  0
LINE
  5
7D11
  8
0
 10
-92.500077000000147
 20
280.06743559900582
 30
0.0
 11
-91.608261000000311
 21
280.06743559900582
 31
0.0
  0
LINE
  5
7D12
  8
0
 10
92.499938999999813
 20
280.06743559900582
 30
0.0
 11
91.608123999999862
 21
280.06743559900582
 31
0.0
  0
LINE
  5
7D13
  8
0
 10
92.499938999999813
 20
261.06745079900611
 30
0.0
 11
91.608123999999862
 21
261.06745079900611
 31
0.0
  0
LINE
  5
7D14
  8
0
 10
-80.000015000000076
 20
278.56743559900582
 30
0.0
 11
79.999968999999965
 21
278.56743559900582
 31
0.0
  0
LINE
  5
7D15
  8
0
 10
-80.000015000000076
 20
262.56745079900611
 30
0.0
 11
79.999968999999965
 21
262.56745079900611
 31
0.0
  0
LINE
  5
7D16
  8
0
 10
-70.762421000000359
 20
262.56743179900599
 30
0.0
 11
-73.071839000000182
 21
258.56743009900629
 31
0.0
  0
LINE
  5
7D17
  8
0
 10
-73.071854000000258
 20
258.56746609900608
 30
0.0
 11
-86.928269
 21
258.56746609900608
 31
0.0
  0
LINE
  5
7D18
  8
0
 10
-86.928230999999869
 20
258.56743909900609
 30
0.0
 11
-93.856453000000329
 21
270.56743769552298
 31
0.0
  0
LINE
  5
7D19
  8
0
 10
-93.856467999999936
 20
270.56747932136381
 30
0.0
 11
-86.928246000000399
 21
282.56747009900607
 31
0.0
  0
LINE
  5
7D1A
  8
0
 10
-86.928269
 20
282.5674660990062
 30
0.0
 11
-73.071854000000258
 21
282.5674660990062
 31
0.0
  0
LINE
  5
7D1B
  8
0
 10
-73.071831000000202
 20
282.5674920990059
 30
0.0
 11
-70.762397999999848
 21
278.56747089900631
 31
0.0
  0
LINE
  5
7D1C
  8
0
 10
73.071723999999904
 20
282.56744509900631
 30
0.0
 11
70.762305999999626
 21
278.56745319900608
 31
0.0
  0
LINE
  5
7D1D
  8
0
 10
86.928130999999667
 20
282.5674660990062
 30
0.0
 11
73.071762000000035
 21
282.5674660990062
 31
0.0
  0
LINE
  5
7D1E
  8
0
 10
93.856330999999955
 20
270.56747676593739
 30
0.0
 11
86.928108000000066
 21
282.56747409900612
 31
0.0
  0
LINE
  5
7D1F
  8
0
 10
86.928122999999687
 20
258.56749109900642
 30
0.0
 11
93.85634600000003
 21
270.56748980527522
 31
0.0
  0
LINE
  5
7D20
  8
0
 10
73.071762000000035
 20
258.56746609900608
 30
0.0
 11
86.928130999999667
 21
258.56746609900608
 31
0.0
  0
LINE
  5
7D21
  8
0
 10
70.762351999999737
 20
262.56747469900608
 30
0.0
 11
73.071785000000091
 21
258.56745309900629
 31
0.0
  0
ARC
  5
7D22
  8
0
 10
-105.0000460000001
 20
258.56746609900608
 30
0.0
 40
5.0
 50
179.99998999999889
 51
270.0
  0
ARC
  5
7D23
  8
0
 10
-105.0000460000001
 20
282.5674660990062
 30
0.0
 40
5.0
 50
90.0
 51
180.0
  0
ARC
  5
7D24
  8
0
 10
104.9999539999998
 20
258.56746609900608
 30
0.0
 40
5.0
 50
270.0
 51
0.0
  0
ARC
  5
7D25
  8
0
 10
104.9999539999998
 20
282.5674660990062
 30
0.0
 40
5.0
 50
0.0
 51
90.0
  0
ARC
  5
7D26
  8
0
 10
-92.500077000000147
 20
270.56746609900608
 30
0.0
 40
9.5
 50
90.0
 51
270.0
  0
ARC
  5
7D27
  8
0
 10
-0.0000460000001112
 20
270.56746609900608
 30
0.0
 40
18.500026999999999
 50
205.6219900000105
 51
334.37800999998939
  0
ARC
  5
7D28
  8
0
 10
-0.0000460000001112
 20
270.56746609900608
 30
0.0
 40
18.999995999999999
 50
204.90106999999651
 51
335.09893000000329
  0
ARC
  5
7D29
  8
0
 10
-80.000015000000076
 20
270.56746609900608
 30
0.0
 40
15.0
 50
32.230956000005108
 51
327.76904999999908
  0
ARC
  5
7D2A
  8
0
 10
92.499938999999813
 20
270.56746609900608
 30
0.0
 40
9.5
 50
270.0
 51
90.0
  0
ARC
  5
7D2B
  8
0
 10
79.999968999999965
 20
270.56746609900608
 30
0.0
 40
15.0
 50
212.23095000000069
 51
147.7690499999992
  0
ARC
  5
7D2C
  8
0
 10
-80.000015000000076
 20
270.56746609900608
 30
0.0
 40
8.0
 50
90.0
 51
270.0
  0
ARC
  5
7D2D
  8
0
 10
79.999968999999965
 20
270.56746609900608
 30
0.0
 40
8.0
 50
270.0
 51
90.0
  0
ARC
  5
7D2E
  8
0
 10
-0.0000460000001112
 20
270.56746609900608
 30
0.0
 40
18.500026999999999
 50
25.62198800001314
 51
154.37800999998939
  0
ARC
  5
7D2F
  8
0
 10
-0.0000460000001112
 20
270.56746609900608
 30
0.0
 40
18.999995999999999
 50
24.901066999991819
 51
155.09893000000341
  0
ARC
  5
7D30
  8
0
 10
-80.000015000000076
 20
270.56746609900608
 30
0.0
 40
12.0
 50
41.810304999980801
 51
318.18970000000871
  0
ARC
  5
7D31
  8
0
 10
79.999968999999965
 20
270.56746609900608
 30
0.0
 40
12.0
 50
221.81030999998981
 51
138.1896900000101
  0
LINE
  5
7F89
  8
0
  6
CENTER
 62
     0
 10
-0.0000460000001112
 20
235.98748248043921
 30
0.0
 11
-0.0000460000001112
 21
305.14744971757312
 31
0.0
  0
LINE
  5
7F8A
  8
0
  6
CENTER
 62
     0
 10
-122.8382592228817
 20
270.56746609900608
 30
0.0
 11
122.83816722288149
 21
270.56746609900608
 31
0.0
  0
LINE
  5
7F99
  8
0
  6
CENTER
 62
     0
 10
0.0
 20
-136.11227588370821
 30
0.0
 11
0.0
 21
99.876849849471014
 31
0.0
  0
LINE
  5
7F9A
  8
0
  6
CENTER
 62
     0
 10
-104.3994666370354
 20
0.0
 30
0.0
 11
104.39946663703491
 21
0.0
 31
0.0
  0
LINE
  5
7FA7
  8
0
  6
CENTER
 62
     0
 10
276.565065216741
 20
-136.11227588370821
 30
0.0
 11
276.565065216741
 21
99.876849849471014
 31
0.0
  0
LINE
  5
7FA8
  8
0
  6
CENTER
 62
     0
 10
245.72282222273179
 20
0.0
 30
0.0
 11
307.4073082107497
 21
0.0
 31
0.0
  0
TEXT
  5
7FB8
  8
0
 10
-372.14292814285761
 20
372.18636689771199
 30
0.0
 40
50.0
  1
P-SUPPORT-UB 5S
 72
     4
 11
-0.0000710000003892
 21
397.18636689771211
 31
0.0
  0
ENDSEC
  0
EOF
