  0
SECTION
  2
HEADER
  9
$ACADVER
  1
AC1009
  9
$INSBASE
 10
0.0
 20
0.0
 30
0.0
  9
$EXTMIN
 10
-398.33335833333382
 20
-104.06298099983719
 30
0.0
  9
$EXTMAX
 10
398.33330833333281
 20
306.18558194455761
 30
0.0
  9
$LIMMIN
 10
0.0
 20
0.0
  9
$LIMMAX
 10
420.0
 20
297.0
  9
$ORTHOMODE
 70
     0
  9
$REGENMODE
 70
     1
  9
$FILLMODE
 70
     1
  9
$QTEXTMODE
 70
     0
  9
$MIRRTEXT
 70
     1
  9
$DRAGMODE
 70
     2
  9
$LTSCALE
 40
1.0
  9
$OSMODE
 70
    37
  9
$ATTMODE
 70
     1
  9
$TEXTSIZE
 40
73.985717453579113
  9
$TRACEWID
 40
1.0
  9
$TEXTSTYLE
  7
STANDARD
  9
$CLAYER
  8
0
  9
$CELTYPE
  6
BYLAYER
  9
$CECOLOR
 62
   256
  9
$DIMSCALE
 40
1.0
  9
$DIMASZ
 40
0.18
  9
$DIMEXO
 40
0.0625
  9
$DIMDLI
 40
0.38
  9
$DIMRND
 40
0.0
  9
$DIMDLE
 40
0.0
  9
$DIMEXE
 40
0.18
  9
$DIMTP
 40
0.0
  9
$DIMTM
 40
0.0
  9
$DIMTXT
 40
30.0
  9
$DIMCEN
 40
0.09
  9
$DIMTSZ
 40
0.0
  9
$DIMTOL
 70
     0
  9
$DIMLIM
 70
     0
  9
$DIMTIH
 70
     1
  9
$DIMTOH
 70
     1
  9
$DIMSE1
 70
     0
  9
$DIMSE2
 70
     0
  9
$DIMTAD
 70
     0
  9
$DIMZIN
 70
     0
  9
$DIMBLK
  1

  9
$DIMASO
 70
     1
  9
$DIMSHO
 70
     1
  9
$DIMPOST
  1

  9
$DIMAPOST
  1

  9
$DIMALT
 70
     0
  9
$DIMALTD
 70
     2
  9
$DIMALTF
 40
25.399999999999999
  9
$DIMLFAC
 40
1.0
  9
$DIMTOFL
 70
     0
  9
$DIMTVP
 40
0.0
  9
$DIMTIX
 70
     0
  9
$DIMSOXD
 70
     0
  9
$DIMSAH
 70
     0
  9
$DIMBLK1
  1

  9
$DIMBLK2
  1

  9
$DIMSTYLE
  2
STANDARD
  9
$DIMCLRD
 70
     0
  9
$DIMCLRE
 70
     0
  9
$DIMCLRT
 70
     0
  9
$DIMTFAC
 40
1.0
  9
$DIMGAP
 40
0.09
  9
$LUNITS
 70
     2
  9
$LUPREC
 70
     8
  9
$SKETCHINC
 40
1.0
  9
$FILLETRAD
 40
0.0
  9
$AUNITS
 70
     0
  9
$AUPREC
 70
     8
  9
$MENU
  1
.
  9
$ELEVATION
 40
0.0
  9
$PELEVATION
 40
0.0
  9
$THICKNESS
 40
0.0
  9
$LIMCHECK
 70
     0
  9
$BLIPMODE
 70
     0
  9
$CHAMFERA
 40
2.5
  9
$CHAMFERB
 40
2.5
  9
$SKPOLY
 70
     0
  9
$TDCREATE
 40
2454739.7204081588
  9
$TDUPDATE
 40
2454749.757045717
  9
$TDINDWG
 40
0.2999802894
  9
$TDUSRTIMER
 40
0.2999802894
  9
$USRTIMER
 70
     1
  9
$ANGBASE
 50
0.0
  9
$ANGDIR
 70
     1
  9
$PDMODE
 70
     0
  9
$PDSIZE
 40
0.0
  9
$PLINEWID
 40
0.0
  9
$COORDS
 70
     1
  9
$SPLFRAME
 70
     0
  9
$SPLINETYPE
 70
     6
  9
$SPLINESEGS
 70
     8
  9
$ATTDIA
 70
     0
  9
$ATTREQ
 70
     1
  9
$HANDLING
 70
 22529
  9
$HANDSEED
  5
813A
  9
$SURFTAB1
 70
     6
  9
$SURFTAB2
 70
     6
  9
$SURFTYPE
 70
     6
  9
$SURFU
 70
     6
  9
$SURFV
 70
     6
  9
$UCSNAME
  2

  9
$UCSORG
 10
0.0
 20
0.0
 30
0.0
  9
$UCSXDIR
 10
1.0
 20
0.0
 30
0.0
  9
$UCSYDIR
 10
0.0
 20
1.0
 30
0.0
  9
$PUCSNAME
  2

  9
$PUCSORG
 10
0.0
 20
0.0
 30
0.0
  9
$PUCSXDIR
 10
1.0
 20
0.0
 30
0.0
  9
$PUCSYDIR
 10
0.0
 20
1.0
 30
0.0
  9
$USERI1
 70
     0
  9
$USERI2
 70
     0
  9
$USERI3
 70
     0
  9
$USERI4
 70
     0
  9
$USERI5
 70
     0
  9
$USERR1
 40
0.0
  9
$USERR2
 40
0.0
  9
$USERR3
 40
0.0
  9
$USERR4
 40
0.0
  9
$USERR5
 40
0.0
  9
$WORLDVIEW
 70
     1
  9
$SHADEDGE
 70
     3
  9
$SHADEDIF
 70
    70
  9
$TILEMODE
 70
     1
  9
$MAXACTVP
 70
    48
  9
$PLIMCHECK
 70
     0
  9
$PEXTMIN
 10
1.0000000000000000E+020
 20
1.0000000000000000E+020
 30
1.0000000000000000E+020
  9
$PEXTMAX
 10
-1.0000000000000000E+020
 20
-1.0000000000000000E+020
 30
-1.0000000000000000E+020
  9
$PLIMMIN
 10
0.0
 20
0.0
  9
$PLIMMAX
 10
420.0
 20
297.0
  9
$UNITMODE
 70
     0
  9
$VISRETAIN
 70
     1
  9
$PLINEGEN
 70
     0
  9
$PSLTSCALE
 70
     1
  0
ENDSEC
  0
SECTION
  2
TABLES
  0
TABLE
  2
VPORT
 70
     2
  0
VPORT
  2
*ACTIVE
 70
     0
 10
0.0
 20
0.0
 11
1.0
 21
1.0
 12
-0.0117719116947228
 22
101.0600219614717
 13
0.0
 23
0.0
 14
2.5
 24
2.5
 15
10.0
 25
10.0
 16
0.0
 26
0.0
 36
1.0
 17
0.0
 27
0.0
 37
0.0
 40
522.75331170385459
 41
1.531806615776081
 42
50.0
 43
0.0
 44
0.0
 50
0.0
 51
0.0
 71
     0
 72
   100
 73
     1
 74
     3
 75
     0
 76
     0
 77
     0
 78
     0
  0
ENDTAB
  0
TABLE
  2
LTYPE
 70
     2
  0
LTYPE
  2
CONTINUOUS
 70
     0
  3
Solid line
 72
    65
 73
     0
 40
0.0
  0
LTYPE
  2
CENTER
 70
     0
  3
__ . __
 72
    65
 73
     4
 40
7.0
 49
4.0
 49
-1.0
 49
1.0
 49
-1.0
  0
ENDTAB
  0
TABLE
  2
LAYER
 70
     1
  0
LAYER
  2
0
 70
     0
 62
     7
  6
CONTINUOUS
  0
ENDTAB
  0
TABLE
  2
STYLE
 70
     2
  0
STYLE
  2
STANDARD
 70
     0
 40
0.0
 41
0.7
 50
0.0
 71
     0
 42
73.985717453579113
  3
romans.shx
  4
bigfont.shx
  0
STYLE
  2
TSKDIM
 70
     0
 40
0.0
 41
0.75
 50
0.0
 71
     0
 42
4.0
  3
romans.shx
  4
EXTFONT.SHX
  0
ENDTAB
  0
TABLE
  2
VIEW
 70
     0
  0
ENDTAB
  0
TABLE
  2
UCS
 70
     0
  0
ENDTAB
  0
TABLE
  2
APPID
 70
    41
  0
APPID
  2
ACAD
 70
     0
  0
APPID
  2
MCAD_NO_VIS
 70
     0
  0
APPID
  2
ACAD_TEMP_GRAPHIC
 70
     0
  0
APPID
  2
ACATTRIBSERVICES
 70
     0
  0
APPID
  2
AD_DRAW
 70
     0
  0
APPID
  2
DESIGNERASSEMBLIES
 70
     0
  0
APPID
  2
ASURF_PCURVE_APPNAME
 70
     0
  0
APPID
  2
ACADM_DIM_EDIT
 70
     0
  0
APPID
  2
GENIUS_GENDIM_13
 70
     0
  0
APPID
  2
GENIUS_GENDTOL_13
 70
     0
  0
APPID
  2
GENIUS_GE3DTOL_13
 70
     0
  0
APPID
  2
AMG_3D2D_5_0
 70
     0
  0
APPID
  2
AMDT_DM_ADJ
 70
     0
  0
APPID
  2
CK_MATE-SERIES
 70
     0
  0
APPID
  2
GEVID1042077799
 70
     0
  0
APPID
  2
GEVMK
 70
     0
  0
APPID
  2
GEVDC
 70
     0
  0
APPID
  2
GENIUS_GENBH_13
 70
     0
  0
APPID
  2
GENIUS_GENOLIS_13
 70
     0
  0
APPID
  2
GENIUS_GENOENT_13
 70
     0
  0
APPID
  2
GENIUS_GENODEF_13
 70
     0
  0
APPID
  2
GENIUS_GENOBJ-NBEHI-BHF_13
 70
     0
  0
APPID
  2
GENIUS_GENOREF_13
 70
     0
  0
APPID
  2
GENIUS_GENOBJ-NBEHI-BHB_13
 70
     0
  0
APPID
  2
GEVID1042183772
 70
     0
  0
APPID
  2
GEVID1042183773
 70
     0
  0
APPID
  2
GEVID1042183774
 70
     0
  0
APPID
  2
DCO15
 70
     0
  0
APPID
  2
ACAD_DSTYLE_DIMARC_LENGTH_
 70
     0
  0
APPID
  2
ACAD_DSTYLE_DIMJOGGED_JOGA
 70
     0
  0
APPID
  2
ACAD_MLEADERVER
 70
     0
  0
APPID
  2
ACAD_DSTYLE_DIMJAG
 70
     0
  0
APPID
  2
ACAD_DSTYLE_DIMTALN
 70
     0
  0
APPID
  2
ACAD_PSEXT
 70
     0
  0
APPID
  2
ACAD_EXEMPT_FROM_CAD_STANDARDS
 70
     0
  0
APPID
  2
ACAD_DSTYLE_DIMINSPECT
 70
     0
  0
APPID
  2
ACAD_DSTYLE_DIMANGULAR_EXT
 70
     0
  0
APPID
  2
GENIUS_GENOBJ-N-FIL_13
 70
     0
  0
APPID
  2
ACAD_DSTYLE_DIM_LINETYPE
 70
     0
  0
APPID
  2
ACAD_DSTYLE_DIM_EXT1_LINETYPE
 70
     0
  0
APPID
  2
ACAD_DSTYLE_DIM_EXT2_LINETYPE
 70
     0
  0
ENDTAB
  0
TABLE
  2
DIMSTYLE
 70
     1
  0
DIMSTYLE
  2
STANDARD
 70
     0
  3

  4

  5

  6

  7

 40
1.0
 41
0.18
 42
0.0625
 43
0.38
 44
0.18
 45
0.0
 46
0.0
 47
0.0
 48
0.0
140
30.0
141
0.09
142
0.0
143
25.399999999999999
144
1.0
145
0.0
146
1.0
147
0.09
 71
     0
 72
     0
 73
     1
 74
     1
 75
     0
 76
     0
 77
     0
 78
     0
170
     0
171
     2
172
     0
173
     0
174
     0
175
     0
176
     0
177
     0
178
     0
  0
ENDTAB
  0
ENDSEC
  0
SECTION
  2
BLOCKS
  0
BLOCK
  8
0
  2
$MODEL_SPACE
 70
     0
 10
0.0
 20
0.0
 30
0.0
  3
$MODEL_SPACE
  1

  0
ENDBLK
  5
21
  8
0
  0
BLOCK
 67
     1
  8
0
  2
$PAPER_SPACE
 70
     0
 10
0.0
 20
0.0
 30
0.0
  3
$PAPER_SPACE
  1

  0
ENDBLK
  5
1D
 67
     1
  8
0
  0
BLOCK
  8
0
  2
_OPEN
 70
     0
 10
0.0
 20
0.0
 30
0.0
  3
_OPEN
  1

  0
LINE
  5
15A
  8
0
  6
BYBLOCK
 62
     0
 10
-1.0
 20
0.1666666666666666
 30
0.0
 11
0.0
 21
0.0
 31
0.0
  0
LINE
  5
15B
  8
0
  6
BYBLOCK
 62
     0
 10
-1.0
 20
-0.1666666666666666
 30
0.0
 11
0.0
 21
0.0
 31
0.0
  0
LINE
  5
15C
  8
0
  6
BYBLOCK
 62
     0
 10
0.0
 20
0.0
 30
0.0
 11
-1.0
 21
0.0
 31
0.0
  0
ENDBLK
  5
15E
  8
0
  0
ENDSEC
  0
SECTION
  2
ENTITIES
  0
LINE
  5
77EA
  8
0
 10
-57.500015000000069
 20
-37.74999600000001
 30
0.0
 11
57.49999200000002
 21
-37.74999600000001
 31
0.0
  0
LINE
  5
77EB
  8
0
 10
-57.500015000000069
 20
-37.74999600000001
 30
0.0
 11
-57.500015000000069
 21
-40.749996000000003
 31
0.0
  0
LINE
  5
77EC
  8
0
 10
57.49999200000002
 20
-37.74999600000001
 30
0.0
 11
57.49999200000002
 21
-40.749996000000003
 31
0.0
  0
LINE
  5
77ED
  8
0
 10
52.5
 20
-41.232696999999909
 30
0.0
 11
52.49999200000002
 21
-37.74999600000001
 31
0.0
  0
LINE
  5
77EE
  8
0
 10
-57.500015000000069
 20
-40.749996000000003
 30
0.0
 11
-52.500015000000069
 21
-40.749996000000003
 31
0.0
  0
LINE
  5
77EF
  8
0
 10
12.80110100000001
 20
-50.74999600000001
 30
0.0
 11
50.020946999999978
 21
-44.187133999999787
 31
0.0
  0
LINE
  5
77F0
  8
0
 10
-52.5
 20
-41.232696999999909
 30
0.0
 11
-52.500015000000069
 21
-37.74999600000001
 31
0.0
  0
LINE
  5
77F1
  8
0
 10
-12.801012999999781
 20
-50.74999600000001
 30
0.0
 11
-50.024257999999918
 21
-44.186534999999822
 31
0.0
  0
LINE
  5
77F2
  8
0
 10
9.9999846999999136
 20
-75.75
 30
0.0
 11
9.9999846999999136
 21
-80.74999200000002
 31
0.0
  0
LINE
  5
77F3
  8
0
 10
14.00001500000007
 20
-64.75
 30
0.0
 11
8.1394043000000238
 21
-64.75
 31
0.0
  0
LINE
  5
77F4
  8
0
 10
-12.801034999999951
 20
-50.74999200000002
 30
0.0
 11
12.80112300000018
 21
-50.74999200000002
 31
0.0
  0
LINE
  5
77F5
  8
0
 10
52.49999200000002
 20
-40.749996000000003
 30
0.0
 11
57.49999200000002
 21
-40.749996000000003
 31
0.0
  0
LINE
  5
77F6
  8
0
 10
-42.500015000000069
 20
-0.75
 30
0.0
 11
-42.500015000000069
 21
-25.550003000000281
 31
0.0
  0
LINE
  5
77F7
  8
0
 10
-42.500015000000069
 20
-20.74999200000001
 30
0.0
 11
-32.499984999999917
 21
-20.74999200000001
 31
0.0
  0
LINE
  5
77F8
  8
0
 10
-41.499984999999917
 20
-20.74999200000001
 30
0.0
 11
-41.499984999999917
 21
-25.550003000000281
 31
0.0
  0
LINE
  5
77F9
  8
0
 10
-33.500015000000069
 20
-20.74999200000001
 30
0.0
 11
-33.500015000000069
 21
-25.550003000000281
 31
0.0
  0
LINE
  5
77FA
  8
0
 10
-33.500015000000069
 20
-20.749982999999698
 30
0.0
 11
-32.500015000000069
 21
-19.017933000000081
 31
0.0
  0
LINE
  5
77FB
  8
0
 10
-41.5
 20
-20.749988999999911
 30
0.0
 11
-42.499984999999917
 21
-19.017965
 31
0.0
  0
LINE
  5
77FC
  8
0
 10
-42.500015000000069
 20
-65.74999200000002
 30
0.0
 11
-32.499984999999917
 21
-65.74999200000002
 31
0.0
  0
LINE
  5
77FD
  8
0
 10
14.00001500000007
 20
-74.74999200000002
 30
0.0
 11
8.1394043000000238
 21
-74.74999200000002
 31
0.0
  0
LINE
  5
77FE
  8
0
 10
-48.0
 20
-35.74999200000002
 30
0.0
 11
-27.0
 21
-35.74999200000002
 31
0.0
  0
LINE
  5
77FF
  8
0
 10
-27.0
 20
-35.74999200000002
 30
0.0
 11
-27.0
 21
-37.74999600000001
 31
0.0
  0
LINE
  5
7800
  8
0
 10
-48.0
 20
-35.74999200000002
 30
0.0
 11
-48.0
 21
-37.74999600000001
 31
0.0
  0
LINE
  5
7801
  8
0
 10
-32.499984999999917
 20
-0.75
 30
0.0
 11
-32.499984999999917
 21
-25.550003000000281
 31
0.0
  0
LINE
  5
7802
  8
0
 10
-46.7376250000002
 20
-33.949996999999712
 30
0.0
 11
-28.262374999999789
 21
-33.949996999999712
 31
0.0
  0
LINE
  5
7803
  8
0
 10
-46.5
 20
-33.949996999999712
 30
0.0
 11
-46.5
 21
-35.74999200000002
 31
0.0
  0
LINE
  5
7804
  8
0
 10
-29.254027999999831
 20
-33.949996999999712
 30
0.0
 11
-29.254027999999831
 21
-35.74999200000002
 31
0.0
  0
LINE
  5
7805
  8
0
 10
-28.5
 20
-33.949996999999712
 30
0.0
 11
-28.5
 21
-35.74999200000002
 31
0.0
  0
LINE
  5
7806
  8
0
 10
-30.25401300000021
 20
-33.949996999999712
 30
0.0
 11
-30.25401300000021
 21
-35.74999200000002
 31
0.0
  0
LINE
  5
7807
  8
0
 10
-32.16188000000011
 20
-33.949996999999712
 30
0.0
 11
-32.16188000000011
 21
-35.74999200000002
 31
0.0
  0
LINE
  5
7808
  8
0
 10
-33.893920999999857
 20
-33.949996999999712
 30
0.0
 11
-33.893920999999857
 21
-35.74999200000002
 31
0.0
  0
LINE
  5
7809
  8
0
 10
-36.500015000000069
 20
-33.949996999999712
 30
0.0
 11
-36.500015000000069
 21
-35.74999200000002
 31
0.0
  0
LINE
  5
780A
  8
0
 10
-38.499984999999917
 20
-33.949996999999712
 30
0.0
 11
-38.499984999999917
 21
-35.74999200000002
 31
0.0
  0
LINE
  5
780B
  8
0
 10
-41.106124999999793
 20
-33.949996999999712
 30
0.0
 11
-41.106124999999793
 21
-35.74999200000002
 31
0.0
  0
LINE
  5
780C
  8
0
 10
-42.838211000000229
 20
-33.949996999999712
 30
0.0
 11
-42.838211000000229
 21
-35.74999200000002
 31
0.0
  0
LINE
  5
780D
  8
0
 10
-44.745986999999793
 20
-33.949996999999712
 30
0.0
 11
-44.745986999999793
 21
-35.74999200000002
 31
0.0
  0
LINE
  5
780E
  8
0
 10
-45.745972000000158
 20
-33.949996999999712
 30
0.0
 11
-45.745972000000158
 21
-35.74999200000002
 31
0.0
  0
LINE
  5
780F
  8
0
 10
-32.88121000000001
 20
-26.264533999999909
 30
0.0
 11
-32.88121000000001
 21
-33.949996999999712
 31
0.0
  0
LINE
  5
7810
  8
0
 10
-28.262374999999789
 20
-26.264533999999909
 30
0.0
 11
-28.262374999999789
 21
-33.949996999999712
 31
0.0
  0
LINE
  5
7811
  8
0
 10
-42.118789999999983
 20
-26.264533999999909
 30
0.0
 11
-42.118789999999983
 21
-33.949996999999712
 31
0.0
  0
LINE
  5
7812
  8
0
 10
-29.50002499999982
 20
-25.549981999999989
 30
0.0
 11
-28.262396000000081
 21
-26.2645279999997
 31
0.0
  0
LINE
  5
7813
  8
0
 10
-45.500015000000069
 20
-25.550003000000281
 30
0.0
 11
-29.499984999999921
 21
-25.550003000000281
 31
0.0
  0
LINE
  5
7814
  8
0
 10
-45.50000399999999
 20
-25.549954999999951
 30
0.0
 11
-46.737614000000121
 21
-26.26449000000002
 31
0.0
  0
LINE
  5
7815
  8
0
 10
-46.7376250000002
 20
-26.264533999999909
 30
0.0
 11
-46.7376250000002
 21
-33.949996999999712
 31
0.0
  0
LINE
  5
7816
  8
0
 10
-45.500015000000069
 20
-52.949993000000177
 30
0.0
 11
-29.499984999999921
 21
-52.949993000000177
 31
0.0
  0
LINE
  5
7817
  8
0
 10
-45.49999600000001
 20
-52.949996999999712
 30
0.0
 11
-46.7376250000002
 21
-52.235451000000012
 31
0.0
  0
LINE
  5
7818
  8
0
 10
-46.7376250000002
 20
-52.235447000000022
 30
0.0
 11
-46.7376250000002
 21
-44.766055999999928
 31
0.0
  0
LINE
  5
7819
  8
0
 10
-42.118789999999983
 20
-52.235447000000022
 30
0.0
 11
-42.118789999999983
 21
-45.580482000000302
 31
0.0
  0
LINE
  5
781A
  8
0
 10
-32.88121000000001
 20
-52.235447000000022
 30
0.0
 11
-32.88121000000001
 21
-47.209315999999937
 31
0.0
  0
LINE
  5
781B
  8
0
 10
-28.262374999999789
 20
-52.235447000000022
 30
0.0
 11
-28.262374999999789
 21
-48.02374299999974
 31
0.0
  0
LINE
  5
781C
  8
0
 10
-29.50001299999985
 20
-52.950007999999791
 30
0.0
 11
-28.262384000000111
 21
-52.235462000000098
 31
0.0
  0
LINE
  5
781D
  8
0
 10
-42.500015000000069
 20
-52.949993000000177
 30
0.0
 11
-42.500015000000069
 21
-65.74999200000002
 31
0.0
  0
LINE
  5
781E
  8
0
 10
-41.499984999999917
 20
-52.949993000000177
 30
0.0
 11
-41.499984999999917
 21
-65.74999200000002
 31
0.0
  0
LINE
  5
781F
  8
0
 10
-33.500015000000069
 20
-52.949993000000177
 30
0.0
 11
-33.500015000000069
 21
-65.74999200000002
 31
0.0
  0
LINE
  5
7820
  8
0
 10
-32.499984999999917
 20
-52.949993000000177
 30
0.0
 11
-32.499984999999917
 21
-65.74999200000002
 31
0.0
  0
LINE
  5
7821
  8
0
 10
14.499984999999921
 20
-50.450436000000082
 30
0.0
 11
14.499984999999921
 21
-62.74999200000002
 31
0.0
  0
LINE
  5
7822
  8
0
 10
-13.5
 20
-63.75
 30
0.0
 11
8.1394043000000238
 21
-63.75
 31
0.0
  0
LINE
  5
7823
  8
0
 10
-14.499984999999921
 20
-50.450420000000122
 30
0.0
 11
-14.499984999999921
 21
-62.74999200000002
 31
0.0
  0
LINE
  5
7824
  8
0
 10
-8.1394043000000238
 20
-50.74999200000002
 30
0.0
 11
-8.1394043000000238
 21
-75.75
 31
0.0
  0
LINE
  5
7825
  8
0
 10
8.1394052999999076
 20
-50.75
 30
0.0
 11
-8.1394319999999425
 21
-63.750011000000093
 31
0.0
  0
LINE
  5
7826
  8
0
 10
8.1394061999999394
 20
-63.75000399999999
 30
0.0
 11
-8.1394338999998581
 21
-50.749984999999917
 31
0.0
  0
LINE
  5
7827
  8
0
 10
-14.500023999999939
 20
-62.749976999999937
 30
0.0
 11
-13.50002600000016
 21
-63.749972999999947
 31
0.0
  0
LINE
  5
7828
  8
0
 10
-14.499984999999921
 20
-62.74999200000002
 30
0.0
 11
-8.1394043000000238
 21
-62.74999200000002
 31
0.0
  0
LINE
  5
7829
  8
0
 10
14.499968999999959
 20
-62.749988999999907
 30
0.0
 11
13.499968999999959
 21
-63.749988999999907
 31
0.0
  0
LINE
  5
782A
  8
0
 10
14.00001500000007
 20
-64.75
 30
0.0
 11
14.00001500000007
 21
-74.74999200000002
 31
0.0
  0
LINE
  5
782B
  8
0
 10
12.99996599999985
 20
-75.74999200000002
 30
0.0
 11
13.99998300000015
 21
-74.749976999999944
 31
0.0
  0
LINE
  5
782C
  8
0
 10
13.999999000000111
 20
-64.750015000000076
 30
0.0
 11
12.999997999999771
 21
-63.750011000000093
 31
0.0
  0
LINE
  5
782D
  8
0
 10
-13.99998000000005
 20
-64.75000799999998
 30
0.0
 11
-12.99997900000016
 21
-63.75000399999999
 31
0.0
  0
LINE
  5
782E
  8
0
 10
-14.00001500000007
 20
-64.75
 30
0.0
 11
-14.00001500000007
 21
-74.74999200000002
 31
0.0
  0
LINE
  5
782F
  8
0
 10
-12.999984999999921
 20
-75.75
 30
0.0
 11
12.99995900000021
 21
-75.75
 31
0.0
  0
LINE
  5
7830
  8
0
 10
-13.000011000000081
 20
-75.749984999999924
 30
0.0
 11
-14.00001199999997
 21
-74.749984999999924
 31
0.0
  0
LINE
  5
7831
  8
0
 10
8.1394043000000238
 20
-63.75
 30
0.0
 11
-8.1394129000000248
 21
-75.750007999999966
 31
0.0
  0
LINE
  5
7832
  8
0
 10
8.1394052999999076
 20
-75.74999200000002
 30
0.0
 11
-8.1393843000000743
 21
-63.75000799999998
 31
0.0
  0
LINE
  5
7833
  8
0
 10
-14.00001500000007
 20
-64.75
 30
0.0
 11
-8.1394043000000238
 21
-64.75
 31
0.0
  0
LINE
  5
7834
  8
0
 10
-14.00001500000007
 20
-74.74999200000002
 30
0.0
 11
-8.1394043000000238
 21
-74.74999200000002
 31
0.0
  0
LINE
  5
7835
  8
0
 10
-18.261474999999791
 20
-84.74999200000002
 30
0.0
 11
18.261466999999811
 21
-84.74999200000002
 31
0.0
  0
LINE
  5
7836
  8
0
 10
20.000015000000069
 20
-93.75
 30
0.0
 11
-20.000015000000069
 21
-93.75
 31
0.0
  0
LINE
  5
7837
  8
0
 10
21.0
 20
-87.498985000000175
 30
0.0
 11
21.0
 21
-92.749992000000006
 31
0.0
  0
LINE
  5
7838
  8
0
 10
14.499984999999921
 20
-81.75
 30
0.0
 11
14.499984999999921
 21
-82.348662999999775
 31
0.0
  0
LINE
  5
7839
  8
0
 10
8.4999962000001688
 20
-75.749984999999924
 30
0.0
 11
9.9999962000001688
 21
-78.348060999999689
 31
0.0
  0
LINE
  5
783A
  8
0
 10
16.32565500000009
 20
-84.341049000000112
 30
0.0
 11
18.26146500000004
 21
-84.510406000000316
 31
0.0
  0
LINE
  5
783B
  8
0
 10
-13.5
 20
-80.74999200000002
 30
0.0
 11
13.5
 21
-80.74999200000002
 31
0.0
  0
LINE
  5
783C
  8
0
 10
-21.0
 20
-87.498985000000175
 30
0.0
 11
-21.0
 21
-92.749992000000006
 31
0.0
  0
LINE
  5
783D
  8
0
 10
-14.499984999999921
 20
-81.75
 30
0.0
 11
-14.499984999999921
 21
-82.348662999999775
 31
0.0
  0
LINE
  5
783E
  8
0
 10
-9.9999846999999136
 20
-75.75
 30
0.0
 11
-9.9999846999999136
 21
-80.74999200000002
 31
0.0
  0
LINE
  5
783F
  8
0
 10
-8.5000229000002037
 20
-75.75
 30
0.0
 11
-10.00002300000005
 21
-78.348076000000219
 31
0.0
  0
LINE
  5
7840
  8
0
 10
-16.325707999999839
 20
-84.341042000000016
 30
0.0
 11
-18.26147700000001
 21
-84.510398999999779
 31
0.0
  0
LINE
  5
7841
  8
0
 10
-14.499984999999921
 20
-84.181319999999687
 30
0.0
 11
14.499984999999921
 21
-84.181319999999687
 31
0.0
  0
LINE
  5
7842
  8
0
 10
-20.00002099999983
 20
-93.75
 30
0.0
 11
-21.00002099999983
 21
-92.75
 31
0.0
  0
LINE
  5
7843
  8
0
 10
20.99997500000017
 20
-92.749984999999924
 30
0.0
 11
19.99997500000017
 21
-93.749992000000034
 31
0.0
  0
LINE
  5
7844
  8
0
 10
-21.0
 20
-92.749992000000006
 30
0.0
 11
21.0
 21
-92.749992000000006
 31
0.0
  0
LINE
  5
7845
  8
0
 10
14.499984999999921
 20
-62.74999200000002
 30
0.0
 11
8.1394043000000238
 21
-62.74999200000002
 31
0.0
  0
LINE
  5
7846
  8
0
 10
8.1394043000000238
 20
-50.74999200000002
 30
0.0
 11
8.1394043000000238
 21
-75.75
 31
0.0
  0
LINE
  5
7847
  8
0
 10
18.500015000000069
 20
-31.74999600000001
 30
0.0
 11
-18.500015000000069
 21
-31.74999600000001
 31
0.0
  0
LINE
  5
7848
  8
0
 10
18.999984999999921
 20
-32.25
 30
0.0
 11
18.999984999999921
 21
-37.24999200000002
 31
0.0
  0
LINE
  5
7849
  8
0
 10
18.999984999999921
 20
-37.250015000000069
 30
0.0
 11
18.5
 21
-37.75
 31
0.0
  0
LINE
  5
784A
  8
0
 10
19.0
 20
-32.250011000000079
 30
0.0
 11
18.499968000000081
 21
-31.74997900000017
 31
0.0
  0
LINE
  5
784B
  8
0
 10
-18.999984999999921
 20
-32.25
 30
0.0
 11
-18.999984999999921
 21
-37.24999200000002
 31
0.0
  0
LINE
  5
784C
  8
0
 10
-18.5
 20
-37.750023000000049
 30
0.0
 11
-19.000031999999909
 21
-37.24999200000002
 31
0.0
  0
LINE
  5
784D
  8
0
 10
-18.50002899999981
 20
-31.75000399999999
 30
0.0
 11
-19.00002099999983
 21
-32.24999600000001
 31
0.0
  0
LINE
  5
784E
  8
0
 10
-18.500015000000069
 20
-32.25
 30
0.0
 11
18.999984999999921
 21
-32.25
 31
0.0
  0
LINE
  5
784F
  8
0
 10
-18.500015000000069
 20
-37.24999200000002
 30
0.0
 11
18.999984999999921
 21
-37.24999200000002
 31
0.0
  0
LINE
  5
7850
  8
0
 10
32.50000799999998
 20
-52.949993000000177
 30
0.0
 11
32.50000799999998
 21
-65.74999200000002
 31
0.0
  0
LINE
  5
7851
  8
0
 10
42.49999200000002
 20
-65.74999200000002
 30
0.0
 11
32.50000799999998
 21
-65.74999200000002
 31
0.0
  0
LINE
  5
7852
  8
0
 10
42.49999200000002
 20
-52.949993000000177
 30
0.0
 11
42.49999200000002
 21
-65.74999200000002
 31
0.0
  0
LINE
  5
7853
  8
0
 10
41.50000799999998
 20
-52.949993000000177
 30
0.0
 11
41.50000799999998
 21
-65.74999200000002
 31
0.0
  0
LINE
  5
7854
  8
0
 10
33.49999200000002
 20
-52.949993000000177
 30
0.0
 11
33.49999200000002
 21
-65.74999200000002
 31
0.0
  0
LINE
  5
7855
  8
0
 10
42.49999200000002
 20
-20.74999200000001
 30
0.0
 11
32.50000799999998
 21
-20.74999200000001
 31
0.0
  0
LINE
  5
7856
  8
0
 10
33.49999200000002
 20
-20.74999200000001
 30
0.0
 11
33.49999200000002
 21
-25.550003000000281
 31
0.0
  0
LINE
  5
7857
  8
0
 10
33.499949999999899
 20
-20.749993999999781
 30
0.0
 11
32.499953999999882
 21
-19.017949999999921
 31
0.0
  0
LINE
  5
7858
  8
0
 10
32.50000799999998
 20
-0.75
 30
0.0
 11
32.50000799999998
 21
-25.550003000000281
 31
0.0
  0
LINE
  5
7859
  8
0
 10
42.49999200000002
 20
-0.75
 30
0.0
 11
42.49999200000002
 21
-25.550003000000281
 31
0.0
  0
LINE
  5
785A
  8
0
 10
41.50000799999998
 20
-20.74999200000001
 30
0.0
 11
41.50000799999998
 21
-25.550003000000281
 31
0.0
  0
LINE
  5
785B
  8
0
 10
41.499972999999947
 20
-20.75000199999976
 30
0.0
 11
42.499972999999947
 21
-19.017949999999921
 31
0.0
  0
LINE
  5
785C
  8
0
 10
48.0
 20
-35.74999200000002
 30
0.0
 11
27.0
 21
-35.74999200000002
 31
0.0
  0
LINE
  5
785D
  8
0
 10
27.0
 20
-35.74999200000002
 30
0.0
 11
27.0
 21
-37.74999600000001
 31
0.0
  0
LINE
  5
785E
  8
0
 10
48.0
 20
-35.74999200000002
 30
0.0
 11
48.0
 21
-37.74999600000001
 31
0.0
  0
LINE
  5
785F
  8
0
 10
46.737556000000041
 20
-33.949996999999712
 30
0.0
 11
28.262397999999848
 21
-33.949996999999712
 31
0.0
  0
LINE
  5
7860
  8
0
 10
46.5
 20
-33.949996999999712
 30
0.0
 11
46.5
 21
-35.74999200000002
 31
0.0
  0
LINE
  5
7861
  8
0
 10
29.254027999999831
 20
-33.949996999999712
 30
0.0
 11
29.254027999999831
 21
-35.74999200000002
 31
0.0
  0
LINE
  5
7862
  8
0
 10
28.5
 20
-33.949996999999712
 30
0.0
 11
28.5
 21
-35.74999200000002
 31
0.0
  0
LINE
  5
7863
  8
0
 10
30.254035999999811
 20
-33.949996999999712
 30
0.0
 11
30.254035999999811
 21
-35.74999200000002
 31
0.0
  0
LINE
  5
7864
  8
0
 10
32.16181199999982
 20
-33.949996999999712
 30
0.0
 11
32.16181199999982
 21
-35.74999200000002
 31
0.0
  0
LINE
  5
7865
  8
0
 10
33.893852000000152
 20
-33.949996999999712
 30
0.0
 11
33.893852000000152
 21
-35.74999200000002
 31
0.0
  0
LINE
  5
7866
  8
0
 10
36.49999200000002
 20
-33.949996999999712
 30
0.0
 11
36.49999200000002
 21
-35.74999200000002
 31
0.0
  0
LINE
  5
7867
  8
0
 10
38.50000799999998
 20
-33.949996999999712
 30
0.0
 11
38.50000799999998
 21
-35.74999200000002
 31
0.0
  0
LINE
  5
7868
  8
0
 10
41.106079000000129
 20
-33.949996999999712
 30
0.0
 11
41.106079000000129
 21
-35.74999200000002
 31
0.0
  0
LINE
  5
7869
  8
0
 10
42.838142000000062
 20
-33.949996999999712
 30
0.0
 11
42.838142000000062
 21
-35.74999200000002
 31
0.0
  0
LINE
  5
786A
  8
0
 10
44.745964000000178
 20
-33.949996999999712
 30
0.0
 11
44.745964000000178
 21
-35.74999200000002
 31
0.0
  0
LINE
  5
786B
  8
0
 10
45.745972000000158
 20
-33.949996999999712
 30
0.0
 11
45.745972000000158
 21
-35.74999200000002
 31
0.0
  0
LINE
  5
786C
  8
0
 10
32.881164999999783
 20
-26.264533999999909
 30
0.0
 11
32.881164999999783
 21
-33.949996999999712
 31
0.0
  0
LINE
  5
786D
  8
0
 10
28.262397999999848
 20
-26.264533999999909
 30
0.0
 11
28.262397999999848
 21
-33.949996999999712
 31
0.0
  0
LINE
  5
786E
  8
0
 10
42.118766999999927
 20
-26.264533999999909
 30
0.0
 11
42.118766999999927
 21
-33.949996999999712
 31
0.0
  0
LINE
  5
786F
  8
0
 10
29.49997500000018
 20
-25.549970999999911
 30
0.0
 11
28.262365000000042
 21
-26.264505000000099
 31
0.0
  0
LINE
  5
7870
  8
0
 10
45.49999200000002
 20
-25.549995000000312
 30
0.0
 11
29.500007999999969
 21
-25.549995000000312
 31
0.0
  0
LINE
  5
7871
  8
0
 10
45.499972999999947
 20
-25.549981999999989
 30
0.0
 11
46.737602000000152
 21
-26.2645279999997
 31
0.0
  0
LINE
  5
7872
  8
0
 10
46.737556000000041
 20
-26.264533999999909
 30
0.0
 11
46.737556000000041
 21
-33.949996999999712
 31
0.0
  0
LINE
  5
7873
  8
0
 10
45.49999200000002
 20
-52.949993000000177
 30
0.0
 11
29.500007999999969
 21
-52.949993000000177
 31
0.0
  0
LINE
  5
7874
  8
0
 10
45.499949999999899
 20
-52.949996999999712
 30
0.0
 11
46.73756000000003
 21
-52.235462000000098
 31
0.0
  0
LINE
  5
7875
  8
0
 10
46.737556000000041
 20
-52.235447000000022
 30
0.0
 11
46.737556000000041
 21
-44.766082999999973
 31
0.0
  0
LINE
  5
7876
  8
0
 10
42.118766999999927
 20
-52.235447000000022
 30
0.0
 11
42.118766999999927
 21
-45.58050199999979
 31
0.0
  0
LINE
  5
7877
  8
0
 10
32.881164999999783
 20
-52.235447000000022
 30
0.0
 11
32.881164999999783
 21
-47.209339
 31
0.0
  0
LINE
  5
7878
  8
0
 10
28.262397999999848
 20
-52.235447000000022
 30
0.0
 11
28.262397999999848
 21
-48.023753999999819
 31
0.0
  0
LINE
  5
7879
  8
0
 10
29.499989999999801
 20
-52.950020000000222
 30
0.0
 11
28.262360000000172
 21
-52.235474000000067
 31
0.0
  0
ARC
  5
787A
  8
0
 10
49.5
 20
-41.232696999999909
 30
0.0
 40
3.0
 50
280.00003999999308
 51
0.0
  0
ARC
  5
787B
  8
0
 10
-49.5
 20
-41.232696999999909
 30
0.0
 40
3.0
 50
180.0
 51
260.00003000000788
  0
ARC
  5
787C
  8
0
 10
0.0
 20
-0.75
 30
0.0
 40
32.5
 50
0.0
 51
180.000010000001
  0
ARC
  5
787D
  8
0
 10
0.0
 20
-0.75
 30
0.0
 40
42.5
 50
0.0
 51
180.0
  0
ARC
  5
787E
  8
0
 10
-37.5
 20
-40.835484000000179
 30
0.0
 40
15.285469000000001
 50
72.412050000012101
 51
107.5879499999878
  0
ARC
  5
787F
  8
0
 10
-30.571793000000071
 20
-29.639328000000202
 30
0.0
 40
4.0893163999999986
 50
64.384240000007452
 51
124.3842699999874
  0
ARC
  5
7880
  8
0
 10
-44.428206999999929
 20
-29.639328000000202
 30
0.0
 40
4.0893163999999986
 50
55.615731000015387
 51
115.6157399999921
  0
ARC
  5
7881
  8
0
 10
-44.428206999999929
 20
-48.860663999999822
 30
0.0
 40
4.0893163999999986
 50
244.3842600000078
 51
304.38425000001041
  0
ARC
  5
7882
  8
0
 10
-37.5
 20
-37.664520000000259
 30
0.0
 40
15.285469000000001
 50
252.4120500000121
 51
287.58794999998781
  0
ARC
  5
7883
  8
0
 10
-30.571793000000071
 20
-48.860663999999822
 30
0.0
 40
4.0893163999999986
 50
235.61574999998939
 51
295.61575999999252
  0
ARC
  5
7884
  8
0
 10
13.5
 20
-81.75
 30
0.0
 40
1.0
 50
0.0
 51
90.0
  0
ARC
  5
7885
  8
0
 10
18.0
 20
-87.498985000000175
 30
0.0
 40
3.0
 50
0.0
 51
85.000008999991977
  0
ARC
  5
7886
  8
0
 10
16.5
 20
-82.348662999999775
 30
0.0
 40
2.0
 50
180.0
 51
265.00000999998792
  0
ARC
  5
7887
  8
0
 10
-16.5
 20
-82.348662999999775
 30
0.0
 40
2.0
 50
274.99999000001202
 51
0.0
  0
ARC
  5
7888
  8
0
 10
-18.0
 20
-87.498985000000175
 30
0.0
 40
3.0
 50
94.999991000008023
 51
180.0
  0
ARC
  5
7889
  8
0
 10
-13.5
 20
-81.75
 30
0.0
 40
1.0
 50
90.0
 51
180.0
  0
ARC
  5
788A
  8
0
 10
37.5
 20
-37.664520000000259
 30
0.0
 40
15.285469000000001
 50
252.4120500000121
 51
287.58794999998781
  0
ARC
  5
788B
  8
0
 10
37.5
 20
-40.835484000000179
 30
0.0
 40
15.285469000000001
 50
72.412050000012101
 51
107.5879499999878
  0
ARC
  5
788C
  8
0
 10
30.571770000000011
 20
-29.639328000000202
 30
0.0
 40
4.0893163999999986
 50
55.615731000015387
 51
115.61575999999251
  0
ARC
  5
788D
  8
0
 10
44.428162000000157
 20
-29.639328000000202
 30
0.0
 40
4.0893163999999986
 50
64.384264000010361
 51
124.3842699999874
  0
ARC
  5
788E
  8
0
 10
30.571770000000011
 20
-48.860663999999822
 30
0.0
 40
4.0893163999999986
 50
244.3842400000074
 51
304.38425000001041
  0
ARC
  5
788F
  8
0
 10
44.428162000000157
 20
-48.860663999999822
 30
0.0
 40
4.0893163999999986
 50
235.61574999998939
 51
295.61573999999212
  0
LINE
  5
7890
  8
0
 10
150.8023077322336
 20
-37.74999600000001
 30
0.0
 11
187.8022917322337
 21
-37.74999600000001
 31
0.0
  0
LINE
  5
7891
  8
0
 10
153.29954173223351
 20
-40.749996000000003
 30
0.0
 11
185.30508073223379
 21
-40.749996000000003
 31
0.0
  0
LINE
  5
7892
  8
0
 10
149.3023077322336
 20
-50.74999200000002
 30
0.0
 11
152.3023077322336
 21
-50.74999200000002
 31
0.0
  0
LINE
  5
7893
  8
0
 10
152.3023077322336
 20
-41.74999200000002
 30
0.0
 11
152.3023077322336
 21
-50.74999200000002
 31
0.0
  0
LINE
  5
7894
  8
0
 10
149.3023077322336
 20
-40.749996000000003
 30
0.0
 11
149.3023077322336
 21
-50.74999200000002
 31
0.0
  0
LINE
  5
7895
  8
0
 10
186.3023147322337
 20
-41.74999200000002
 30
0.0
 11
186.3023147322337
 21
-50.74999200000002
 31
0.0
  0
LINE
  5
7896
  8
0
 10
189.3023147322337
 20
-40.749996000000003
 30
0.0
 11
189.3023147322337
 21
-50.74999200000002
 31
0.0
  0
LINE
  5
7897
  8
0
 10
186.3023147322337
 20
-50.74999200000002
 30
0.0
 11
189.3023147322337
 21
-50.74999200000002
 31
0.0
  0
LINE
  5
7898
  8
0
 10
187.8023147322337
 20
-31.74999600000001
 30
0.0
 11
177.30231513223401
 21
-31.74999600000001
 31
0.0
  0
LINE
  5
7899
  8
0
 10
188.3023077322336
 20
-32.25
 30
0.0
 11
188.3023077322336
 21
-37.24999200000002
 31
0.0
  0
LINE
  5
789A
  8
0
 10
183.8023077322336
 20
-40.749996000000003
 30
0.0
 11
183.8023077322336
 21
-62.74999200000002
 31
0.0
  0
LINE
  5
789B
  8
0
 10
154.8023147322337
 20
-40.749996000000003
 30
0.0
 11
154.8023147322337
 21
-62.74999200000002
 31
0.0
  0
LINE
  5
789C
  8
0
 10
150.3023147322337
 20
-32.25
 30
0.0
 11
150.3023147322337
 21
-37.24999200000002
 31
0.0
  0
LINE
  5
789D
  8
0
 10
154.80229873223371
 20
-62.749988999999907
 30
0.0
 11
155.80231573223361
 21
-63.75000399999999
 31
0.0
  0
LINE
  5
789E
  8
0
 10
154.8023147322337
 20
-62.74999200000002
 30
0.0
 11
164.30230743223359
 21
-62.74999200000002
 31
0.0
  0
LINE
  5
789F
  8
0
 10
150.8022747322338
 20
-37.75000399999999
 30
0.0
 11
150.3022727322336
 21
-37.25
 31
0.0
  0
LINE
  5
78A0
  8
0
 10
150.80229173223361
 20
-31.750017000000291
 30
0.0
 11
150.30229973223359
 21
-32.250011000000079
 31
0.0
  0
LINE
  5
78A1
  8
0
 10
188.3022747322338
 20
-37.250011000000079
 30
0.0
 11
187.80228873223399
 21
-37.74999600000001
 31
0.0
  0
LINE
  5
78A2
  8
0
 10
188.30228873223399
 20
-32.25
 30
0.0
 11
187.8022867322338
 21
-31.749998000000229
 31
0.0
  0
LINE
  5
78A3
  8
0
 10
183.80227373223349
 20
-62.75
 30
0.0
 11
182.8022747322338
 21
-63.75
 31
0.0
  0
LINE
  5
78A4
  8
0
 10
150.8023077322336
 20
-32.25
 30
0.0
 11
161.30230743223359
 21
-32.25
 31
0.0
  0
LINE
  5
78A5
  8
0
 10
150.8023077322336
 20
-37.24999200000002
 30
0.0
 11
158.8023227322337
 21
-37.24999200000002
 31
0.0
  0
LINE
  5
78A6
  8
0
 10
183.3023147322337
 20
-64.75
 30
0.0
 11
183.3023147322337
 21
-74.74999200000002
 31
0.0
  0
LINE
  5
78A7
  8
0
 10
182.3022677322337
 20
-75.74999200000002
 30
0.0
 11
183.30228773223371
 21
-74.749968999999965
 31
0.0
  0
LINE
  5
78A8
  8
0
 10
183.30228373223369
 20
-64.75
 30
0.0
 11
182.30228273223381
 21
-63.74999600000001
 31
0.0
  0
LINE
  5
78A9
  8
0
 10
155.30230473223401
 20
-64.75000799999998
 30
0.0
 11
156.30230573223341
 21
-63.75000399999999
 31
0.0
  0
LINE
  5
78AA
  8
0
 10
155.3023077322336
 20
-64.75
 30
0.0
 11
155.3023077322336
 21
-74.74999200000002
 31
0.0
  0
LINE
  5
78AB
  8
0
 10
156.30228973223339
 20
-75.75
 30
0.0
 11
155.30228873223399
 21
-74.75
 31
0.0
  0
LINE
  5
78AC
  8
0
 10
155.3023077322336
 20
-64.75
 30
0.0
 11
164.30230743223359
 21
-64.75
 31
0.0
  0
LINE
  5
78AD
  8
0
 10
155.3023077322336
 20
-74.74999200000002
 30
0.0
 11
183.3023147322337
 21
-74.74999200000002
 31
0.0
  0
LINE
  5
78AE
  8
0
 10
189.3023147322337
 20
-93.75
 30
0.0
 11
149.3023077322336
 21
-93.75
 31
0.0
  0
LINE
  5
78AF
  8
0
 10
190.3023227322337
 20
-87.498985000000175
 30
0.0
 11
190.3023227322337
 21
-92.749992000000006
 31
0.0
  0
LINE
  5
78B0
  8
0
 10
183.8023077322336
 20
-81.75
 30
0.0
 11
183.8023077322336
 21
-82.348662999999775
 31
0.0
  0
LINE
  5
78B1
  8
0
 10
179.30230743223359
 20
-75.75
 30
0.0
 11
179.30230743223359
 21
-80.74999200000002
 31
0.0
  0
LINE
  5
78B2
  8
0
 10
177.8023055322337
 20
-75.749984999999924
 30
0.0
 11
179.3023055322337
 21
-78.348060999999689
 31
0.0
  0
LINE
  5
78B3
  8
0
 10
151.04081973223401
 20
-84.749984999999924
 30
0.0
 11
187.56373973223339
 21
-84.749984999999924
 31
0.0
  0
LINE
  5
78B4
  8
0
 10
185.62797373223381
 20
-84.341042000000016
 30
0.0
 11
187.56373973223339
 21
-84.510398999999779
 31
0.0
  0
LINE
  5
78B5
  8
0
 10
155.8023227322337
 20
-80.74999200000002
 30
0.0
 11
182.8023227322337
 21
-80.74999200000002
 31
0.0
  0
LINE
  5
78B6
  8
0
 10
156.3023147322337
 20
-75.75
 30
0.0
 11
182.3023077322336
 21
-75.75
 31
0.0
  0
LINE
  5
78B7
  8
0
 10
148.3023227322337
 20
-87.498985000000175
 30
0.0
 11
148.3023227322337
 21
-92.749992000000006
 31
0.0
  0
LINE
  5
78B8
  8
0
 10
154.8023147322337
 20
-81.75
 30
0.0
 11
154.8023147322337
 21
-82.348662999999775
 31
0.0
  0
LINE
  5
78B9
  8
0
 10
159.3023147322337
 20
-75.75
 30
0.0
 11
159.3023147322337
 21
-80.74999200000002
 31
0.0
  0
LINE
  5
78BA
  8
0
 10
160.8022998322339
 20
-75.75
 30
0.0
 11
159.30229973223359
 21
-78.348076000000219
 31
0.0
  0
LINE
  5
78BB
  8
0
 10
152.97660873223359
 20
-84.341034000000036
 30
0.0
 11
151.04081973223401
 21
-84.510398999999779
 31
0.0
  0
LINE
  5
78BC
  8
0
 10
154.8023147322337
 20
-84.181319999999687
 30
0.0
 11
183.8023077322336
 21
-84.181319999999687
 31
0.0
  0
LINE
  5
78BD
  8
0
 10
149.3022727322336
 20
-93.749992000000034
 30
0.0
 11
148.30228873223399
 21
-92.750007999999994
 31
0.0
  0
LINE
  5
78BE
  8
0
 10
190.30227873223379
 20
-92.749992000000006
 30
0.0
 11
189.30227873223379
 21
-93.75
 31
0.0
  0
LINE
  5
78BF
  8
0
 10
148.3023227322337
 20
-92.749992000000006
 30
0.0
 11
190.3023227322337
 21
-92.749992000000006
 31
0.0
  0
LINE
  5
78C0
  8
0
 10
155.8023227322337
 20
-63.75
 30
0.0
 11
164.30230743223359
 21
-63.75
 31
0.0
  0
LINE
  5
78C1
  8
0
 10
174.30231513223401
 20
36.75
 30
0.0
 11
174.30231513223401
 21
-25.550003000000281
 31
0.0
  0
LINE
  5
78C2
  8
0
 10
174.30231513223401
 20
-20.74999200000001
 30
0.0
 11
164.30230743223359
 21
-20.74999200000001
 31
0.0
  0
LINE
  5
78C3
  8
0
 10
173.30230743223359
 20
-20.74999200000001
 30
0.0
 11
173.30230743223359
 21
-25.550003000000281
 31
0.0
  0
LINE
  5
78C4
  8
0
 10
165.30231513223401
 20
-20.74999200000001
 30
0.0
 11
165.30231513223401
 21
-25.550003000000281
 31
0.0
  0
LINE
  5
78C5
  8
0
 10
165.30226693223349
 20
-20.749987000000139
 30
0.0
 11
164.30227073223341
 21
-19.017941999999941
 31
0.0
  0
LINE
  5
78C6
  8
0
 10
173.30229503223379
 20
-20.750007999999969
 30
0.0
 11
174.3022989322335
 21
-19.017949999999921
 31
0.0
  0
LINE
  5
78C7
  8
0
 10
179.8023227322337
 20
-35.74999200000002
 30
0.0
 11
158.8023227322337
 21
-35.74999200000002
 31
0.0
  0
LINE
  5
78C8
  8
0
 10
158.8023227322337
 20
-35.74999200000002
 30
0.0
 11
158.8023227322337
 21
-37.74999600000001
 31
0.0
  0
LINE
  5
78C9
  8
0
 10
179.8023227322337
 20
-35.74999200000002
 30
0.0
 11
179.8023227322337
 21
-37.74999600000001
 31
0.0
  0
LINE
  5
78CA
  8
0
 10
164.30230743223359
 20
36.75
 30
0.0
 11
164.30230743223359
 21
-25.550003000000281
 31
0.0
  0
LINE
  5
78CB
  8
0
 10
178.3023227322337
 20
-33.949996999999712
 30
0.0
 11
160.3023227322337
 21
-33.949996999999712
 31
0.0
  0
LINE
  5
78CC
  8
0
 10
178.3023227322337
 20
-33.949996999999712
 30
0.0
 11
178.3023227322337
 21
-35.74999200000002
 31
0.0
  0
LINE
  5
78CD
  8
0
 10
161.05635103223349
 20
-33.949996999999712
 30
0.0
 11
161.05635103223349
 21
-35.74999200000002
 31
0.0
  0
LINE
  5
78CE
  8
0
 10
160.3023227322337
 20
-33.949996999999712
 30
0.0
 11
160.3023227322337
 21
-35.74999200000002
 31
0.0
  0
LINE
  5
78CF
  8
0
 10
162.05633583223371
 20
-33.949996999999712
 30
0.0
 11
162.05633583223371
 21
-35.74999200000002
 31
0.0
  0
LINE
  5
78D0
  8
0
 10
163.9641116322336
 20
-33.949996999999712
 30
0.0
 11
163.9641116322336
 21
-35.74999200000002
 31
0.0
  0
LINE
  5
78D1
  8
0
 10
165.6961749322335
 20
-33.949996999999712
 30
0.0
 11
165.6961749322335
 21
-35.74999200000002
 31
0.0
  0
LINE
  5
78D2
  8
0
 10
168.30231513223401
 20
-33.949996999999712
 30
0.0
 11
168.30231513223401
 21
-35.74999200000002
 31
0.0
  0
LINE
  5
78D3
  8
0
 10
170.30230747223359
 20
-33.949996999999712
 30
0.0
 11
170.30230747223359
 21
-35.74999200000002
 31
0.0
  0
LINE
  5
78D4
  8
0
 10
172.90840183223369
 20
-33.949996999999712
 30
0.0
 11
172.90840183223369
 21
-35.74999200000002
 31
0.0
  0
LINE
  5
78D5
  8
0
 10
174.64044223223391
 20
-33.949996999999712
 30
0.0
 11
174.64044223223391
 21
-35.74999200000002
 31
0.0
  0
LINE
  5
78D6
  8
0
 10
176.54828683223371
 20
-33.949996999999712
 30
0.0
 11
176.54828683223371
 21
-35.74999200000002
 31
0.0
  0
LINE
  5
78D7
  8
0
 10
177.5482944322338
 20
-33.949996999999712
 30
0.0
 11
177.5482944322338
 21
-35.74999200000002
 31
0.0
  0
LINE
  5
78D8
  8
0
 10
177.5482944322338
 20
-44.549995000000301
 30
0.0
 11
177.5482944322338
 21
-42.75
 31
0.0
  0
LINE
  5
78D9
  8
0
 10
179.8023227322337
 20
-42.75
 30
0.0
 11
158.8023227322337
 21
-42.75
 31
0.0
  0
LINE
  5
78DA
  8
0
 10
158.8023227322337
 20
-42.75
 30
0.0
 11
158.8023227322337
 21
-40.749996000000003
 31
0.0
  0
LINE
  5
78DB
  8
0
 10
179.8023227322337
 20
-42.75
 30
0.0
 11
179.8023227322337
 21
-40.749996000000003
 31
0.0
  0
LINE
  5
78DC
  8
0
 10
178.3023227322337
 20
-44.549995000000301
 30
0.0
 11
178.3023227322337
 21
-42.75
 31
0.0
  0
LINE
  5
78DD
  8
0
 10
161.05635103223349
 20
-44.549995000000301
 30
0.0
 11
161.05635103223349
 21
-42.75
 31
0.0
  0
LINE
  5
78DE
  8
0
 10
160.3023227322337
 20
-44.549995000000301
 30
0.0
 11
160.3023227322337
 21
-42.75
 31
0.0
  0
LINE
  5
78DF
  8
0
 10
162.05633583223371
 20
-44.549995000000301
 30
0.0
 11
162.05633583223371
 21
-42.75
 31
0.0
  0
LINE
  5
78E0
  8
0
 10
163.9641116322336
 20
-44.549995000000301
 30
0.0
 11
163.9641116322336
 21
-42.75
 31
0.0
  0
LINE
  5
78E1
  8
0
 10
165.6961749322335
 20
-44.549995000000301
 30
0.0
 11
165.6961749322335
 21
-42.75
 31
0.0
  0
LINE
  5
78E2
  8
0
 10
168.30231513223401
 20
-44.549995000000301
 30
0.0
 11
168.30231513223401
 21
-42.75
 31
0.0
  0
LINE
  5
78E3
  8
0
 10
170.30230747223359
 20
-44.549995000000301
 30
0.0
 11
170.30230747223359
 21
-42.75
 31
0.0
  0
LINE
  5
78E4
  8
0
 10
172.90840183223369
 20
-44.549995000000301
 30
0.0
 11
172.90840183223369
 21
-42.75
 31
0.0
  0
LINE
  5
78E5
  8
0
 10
174.64044223223391
 20
-44.549995000000301
 30
0.0
 11
174.64044223223391
 21
-42.75
 31
0.0
  0
LINE
  5
78E6
  8
0
 10
176.54828683223371
 20
-44.549995000000301
 30
0.0
 11
176.54828683223371
 21
-42.75
 31
0.0
  0
LINE
  5
78E7
  8
0
 10
174.30231513223401
 20
-65.74999200000002
 30
0.0
 11
164.30230743223359
 21
-65.74999200000002
 31
0.0
  0
LINE
  5
78E8
  8
0
 10
174.30231513223401
 20
-52.949993000000177
 30
0.0
 11
174.30231513223401
 21
-65.74999200000002
 31
0.0
  0
LINE
  5
78E9
  8
0
 10
173.30230743223359
 20
-52.949993000000177
 30
0.0
 11
173.30230743223359
 21
-65.74999200000002
 31
0.0
  0
LINE
  5
78EA
  8
0
 10
165.30231513223401
 20
-52.949993000000177
 30
0.0
 11
165.30231513223401
 21
-65.74999200000002
 31
0.0
  0
LINE
  5
78EB
  8
0
 10
164.30230743223359
 20
-52.949993000000177
 30
0.0
 11
164.30230743223359
 21
-65.74999200000002
 31
0.0
  0
LINE
  5
78EC
  8
0
 10
174.30231513223401
 20
-64.75
 30
0.0
 11
183.3023147322337
 21
-64.75
 31
0.0
  0
LINE
  5
78ED
  8
0
 10
174.30231513223401
 20
-63.75
 30
0.0
 11
182.8023227322337
 21
-63.75
 31
0.0
  0
LINE
  5
78EE
  8
0
 10
174.30231513223401
 20
-62.74999200000002
 30
0.0
 11
183.8023077322336
 21
-62.74999200000002
 31
0.0
  0
LINE
  5
78EF
  8
0
 10
179.8023227322337
 20
-37.24999200000002
 30
0.0
 11
187.8022917322337
 21
-37.24999200000002
 31
0.0
  0
LINE
  5
78F0
  8
0
 10
161.30230743223359
 20
-31.74999600000001
 30
0.0
 11
150.8023077322336
 21
-31.74999600000001
 31
0.0
  0
LINE
  5
78F1
  8
0
 10
177.30231513223401
 20
-32.25
 30
0.0
 11
187.8022917322337
 21
-32.25
 31
0.0
  0
LINE
  5
78F2
  8
0
 10
162.53992783223379
 20
-25.54999399999997
 30
0.0
 11
161.30233753223359
 21
-26.264517000000069
 31
0.0
  0
LINE
  5
78F3
  8
0
 10
176.0647143322339
 20
-25.549966999999921
 30
0.0
 11
177.3023046322337
 21
-26.26449000000002
 31
0.0
  0
LINE
  5
78F4
  8
0
 10
169.3023227322337
 20
-26.264525999999929
 30
0.0
 11
169.3023227322337
 21
-33.949996999999712
 31
0.0
  0
LINE
  5
78F5
  8
0
 10
177.30231513223401
 20
-26.264525999999929
 30
0.0
 11
177.30231513223401
 21
-33.949996999999712
 31
0.0
  0
LINE
  5
78F6
  8
0
 10
161.30230743223359
 20
-26.264519000000291
 30
0.0
 11
161.30230743223359
 21
-33.949996999999712
 31
0.0
  0
LINE
  5
78F7
  8
0
 10
162.5399173322339
 20
-25.550003000000281
 30
0.0
 11
176.06472813223351
 21
-25.550003000000281
 31
0.0
  0
LINE
  5
78F8
  8
0
 10
178.3023227322337
 20
-44.549995000000301
 30
0.0
 11
160.3023227322337
 21
-44.549995000000301
 31
0.0
  0
LINE
  5
78F9
  8
0
 10
161.30230743223359
 20
-52.23547000000007
 30
0.0
 11
161.30230743223359
 21
-44.549995000000301
 31
0.0
  0
LINE
  5
78FA
  8
0
 10
162.5399469322337
 20
-52.949988999999732
 30
0.0
 11
161.30235663223351
 21
-52.235466000000088
 31
0.0
  0
LINE
  5
78FB
  8
0
 10
162.5399173322339
 20
-52.949993000000177
 30
0.0
 11
176.06472813223351
 21
-52.949993000000177
 31
0.0
  0
LINE
  5
78FC
  8
0
 10
169.3023227322337
 20
-52.23547000000007
 30
0.0
 11
169.3023227322337
 21
-44.549995000000301
 31
0.0
  0
LINE
  5
78FD
  8
0
 10
176.06473813223371
 20
-52.950023999999758
 30
0.0
 11
177.3023284322334
 21
-52.235499999999782
 31
0.0
  0
LINE
  5
78FE
  8
0
 10
177.30231513223401
 20
-52.23547000000007
 30
0.0
 11
177.30231513223401
 21
-44.549995000000301
 31
0.0
  0
ARC
  5
78FF
  8
0
 10
152.3023077322336
 20
-40.749996000000003
 30
0.0
 40
3.0
 50
90.0
 51
180.0
  0
ARC
  5
7900
  8
0
 10
186.3023147322337
 20
-40.749996000000003
 30
0.0
 40
3.0
 50
0.0
 51
90.0
  0
ARC
  5
7901
  8
0
 10
153.3023147322337
 20
-41.74999200000002
 30
0.0
 40
1.0
 50
90.0
 51
180.0
  0
ARC
  5
7902
  8
0
 10
185.3023077322336
 20
-41.74999200000002
 30
0.0
 40
1.0
 50
0.0
 51
90.0
  0
ARC
  5
7903
  8
0
 10
182.8023227322337
 20
-81.75
 30
0.0
 40
1.0
 50
0.0
 51
90.0
  0
ARC
  5
7904
  8
0
 10
187.3023227322337
 20
-87.498985000000175
 30
0.0
 40
3.0
 50
0.0
 51
85.000009000004951
  0
ARC
  5
7905
  8
0
 10
185.8023227322337
 20
-82.348662999999775
 30
0.0
 40
2.0
 50
180.0
 51
265.00001000000088
  0
ARC
  5
7906
  8
0
 10
152.8023227322337
 20
-82.348662999999775
 30
0.0
 40
2.0
 50
274.99998999999889
 51
0.0
  0
ARC
  5
7907
  8
0
 10
151.3023227322337
 20
-87.498985000000175
 30
0.0
 40
3.0
 50
94.999990999995021
 51
180.0
  0
ARC
  5
7908
  8
0
 10
155.8023227322337
 20
-81.75
 30
0.0
 40
1.0
 50
90.0
 51
180.0
  0
ARC
  5
7909
  8
0
 10
169.3023227322337
 20
36.75
 30
0.0
 40
5.0
 50
0.0
 51
180.0
  0
ARC
  5
790A
  8
0
 10
165.30231513223401
 20
-37.103415999999918
 30
0.0
 40
11.55341799999999
 50
69.743839000003774
 51
110.2561599999963
  0
ARC
  5
790B
  8
0
 10
173.30230743223359
 20
-37.103415999999918
 30
0.0
 40
11.55341799999999
 50
69.743839000003774
 51
110.2561599999963
  0
ARC
  5
790C
  8
0
 10
165.30231513223401
 20
-41.396576000000088
 30
0.0
 40
11.55341799999999
 50
249.74384000000359
 51
290.25615999999633
  0
ARC
  5
790D
  8
0
 10
173.30230743223359
 20
-41.396576000000088
 30
0.0
 40
11.55341799999999
 50
249.74384000000359
 51
290.25615999999633
  0
LINE
  5
790E
  8
0
 10
-52.5
 20
137.56666614585171
 30
0.0
 11
-52.5
 21
134.56666614585171
 31
0.0
  0
LINE
  5
790F
  8
0
 10
-57.500015000000069
 20
166.5666581458517
 30
0.0
 11
-57.500015000000069
 21
142.5666581458517
 31
0.0
  0
LINE
  5
7910
  8
0
 10
-52.5
 20
174.5666501458517
 30
0.0
 11
-52.5
 21
171.5666501458517
 31
0.0
  0
LINE
  5
7911
  8
0
 10
57.49999200000002
 20
166.5666581458517
 30
0.0
 11
57.49999200000002
 21
142.5666581458517
 31
0.0
  0
LINE
  5
7912
  8
0
 10
-52.5
 20
134.56666614585171
 30
0.0
 11
52.5
 21
134.56666614585171
 31
0.0
  0
LINE
  5
7913
  8
0
 10
-52.5
 20
174.5666501458517
 30
0.0
 11
52.5
 21
174.5666501458517
 31
0.0
  0
LINE
  5
7914
  8
0
 10
52.5
 20
174.5666501458517
 30
0.0
 11
52.5
 21
171.5666501458517
 31
0.0
  0
LINE
  5
7915
  8
0
 10
52.5
 20
137.56666614585171
 30
0.0
 11
52.5
 21
134.56666614585171
 31
0.0
  0
LINE
  5
7916
  8
0
 10
-37.5
 20
159.5666505458521
 30
0.0
 11
37.5
 21
159.5666505458521
 31
0.0
  0
LINE
  5
7917
  8
0
 10
-37.5
 20
149.5666657458514
 30
0.0
 11
37.5
 21
149.5666657458514
 31
0.0
  0
LINE
  5
7918
  8
0
 10
-31.149156999999828
 20
159.56664244585181
 30
0.0
 11
-32.881217999999983
 21
162.5666657458514
 31
0.0
  0
LINE
  5
7919
  8
0
 10
-32.88121000000001
 20
162.5666505458521
 30
0.0
 11
-42.118835000000217
 21
162.5666505458521
 31
0.0
  0
LINE
  5
791A
  8
0
 10
-42.118824000000131
 20
162.56667344585179
 30
0.0
 11
-46.7376250000002
 21
154.56667643289251
 31
0.0
  0
LINE
  5
791B
  8
0
 10
-46.737595000000049
 20
154.5666350403248
 30
0.0
 11
-42.11877800000002
 21
146.5666180458519
 31
0.0
  0
LINE
  5
791C
  8
0
 10
-42.118835000000217
 20
146.5666657458514
 30
0.0
 11
-32.88121000000001
 21
146.5666657458514
 31
0.0
  0
LINE
  5
791D
  8
0
 10
-32.881186999999947
 20
146.5666486458517
 30
0.0
 11
-31.149136999999879
 21
149.56665244585199
 31
0.0
  0
LINE
  5
791E
  8
0
 10
42.118835000000217
 20
146.5666657458514
 30
0.0
 11
32.881233000000059
 21
146.5666657458514
 31
0.0
  0
LINE
  5
791F
  8
0
 10
32.88121000000001
 20
146.56664674585181
 30
0.0
 11
31.149151000000071
 21
149.5666700458514
 31
0.0
  0
LINE
  5
7920
  8
0
 10
46.737579000000089
 20
154.566681939088
 30
0.0
 11
42.11877400000003
 21
146.566680045852
 31
0.0
  0
LINE
  5
7921
  8
0
 10
42.118786
 20
162.5666457458519
 30
0.0
 11
46.737602000000152
 21
154.56662876751761
 31
0.0
  0
LINE
  5
7922
  8
0
 10
32.881233000000059
 20
162.5666505458521
 30
0.0
 11
42.118835000000217
 21
162.5666505458521
 31
0.0
  0
LINE
  5
7923
  8
0
 10
31.149167999999921
 20
159.5666452458517
 30
0.0
 11
32.881214
 21
162.56664904585151
 31
0.0
  0
ARC
  5
7924
  8
0
 10
-52.5
 20
142.5666581458517
 30
0.0
 40
5.0
 50
179.99998999999889
 51
270.0
  0
ARC
  5
7925
  8
0
 10
-52.5
 20
166.5666581458517
 30
0.0
 40
5.0
 50
90.0
 51
180.0
  0
ARC
  5
7926
  8
0
 10
52.5
 20
142.5666581458517
 30
0.0
 40
5.0
 50
270.0
 51
0.0
  0
ARC
  5
7927
  8
0
 10
52.5
 20
166.5666581458517
 30
0.0
 40
5.0
 50
0.0
 51
90.0
  0
ARC
  5
7928
  8
0
 10
-45.0
 20
154.5666581458517
 30
0.0
 40
6.0
 50
101.5369700000068
 51
258.46302999999313
  0
ARC
  5
7929
  8
0
 10
45.0
 20
154.5666581458517
 30
0.0
 40
6.0
 50
281.53697000000682
 51
78.463033999991424
  0
ARC
  5
792A
  8
0
 10
-37.5
 20
154.5666581458517
 30
0.0
 40
5.0
 50
90.0
 51
270.0
  0
ARC
  5
792B
  8
0
 10
37.5
 20
154.5666581458517
 30
0.0
 40
5.0
 50
270.0
 51
90.0
  0
ARC
  5
792C
  8
0
 10
-37.5
 20
154.5666581458517
 30
0.0
 40
8.0
 50
38.682192000006573
 51
321.31780999998813
  0
ARC
  5
792D
  8
0
 10
0.0
 20
154.5666581458517
 30
0.0
 40
18.5
 50
195.68034999999739
 51
344.31965000000253
  0
ARC
  5
792E
  8
0
 10
0.0
 20
154.5666581458517
 30
0.0
 40
19.0
 50
195.25752000001569
 51
344.7424799999842
  0
ARC
  5
792F
  8
0
 10
0.0
 20
154.5666581458517
 30
0.0
 40
18.5
 50
15.680348999994081
 51
164.3196500000025
  0
ARC
  5
7930
  8
0
 10
0.0
 20
154.5666581458517
 30
0.0
 40
19.0
 50
15.257521999994911
 51
164.7424799999842
  0
ARC
  5
7931
  8
0
 10
-37.5
 20
154.5666581458517
 30
0.0
 40
10.5
 50
28.436888999995482
 51
331.5631200000056
  0
ARC
  5
7932
  8
0
 10
37.5
 20
154.5666581458517
 30
0.0
 40
8.0
 50
218.68217999998919
 51
141.3178200000107
  0
ARC
  5
7933
  8
0
 10
37.5
 20
154.5666581458517
 30
0.0
 40
10.5
 50
208.43688999998761
 51
151.5631100000123
  0
LINE
  5
7F8F
  8
0
  6
CENTER
 62
     0
 10
0.0
 20
119.98667452728471
 30
0.0
 11
0.0
 21
189.14664176441869
 31
0.0
  0
LINE
  5
7F90
  8
0
  6
CENTER
 62
     0
 10
-66.87642934001633
 20
154.5666581458517
 30
0.0
 11
66.876429340016784
 21
154.5666581458517
 31
0.0
  0
LINE
  5
7F9F
  8
0
  6
CENTER
 62
     0
 10
0.0
 20
-104.06298099983719
 30
0.0
 11
0.0
 21
50.3654769798868
 31
0.0
  0
LINE
  5
7FA0
  8
0
  6
CENTER
 62
     0
 10
-58.666281378218621
 20
0.0
 30
0.0
 11
55.602516178121732
 21
0.0
 31
0.0
  0
LINE
  5
7FAD
  8
0
  6
CENTER
 62
     0
 10
169.30231123223339
 20
-104.06298099983719
 30
0.0
 11
169.30231123223339
 21
50.3654769798868
 31
0.0
  0
LINE
  5
7FAE
  8
0
  6
CENTER
 62
     0
 10
148.51413639518381
 20
0.0
 30
0.0
 11
190.09048606928349
 21
0.0
 31
0.0
  0
TEXT
  5
7FBB
  8
0
 10
-407.85716785714328
 20
256.18558194455761
 30
0.0
 40
50.0
  1
P-SUPPORT-UB 2.5S
 72
     4
 11
-0.0000250000002779
 21
281.18558194455773
 31
0.0
  0
ENDSEC
  0
EOF
