  0
SECTION
  2
HEADER
  9
$ACADVER
  1
AC1009
  9
$INSBASE
 10
0.0
 20
0.0
 30
0.0
  9
$EXTMIN
 10
-398.33335833333382
 20
-54.682187071474353
 30
0.0
  9
$EXTMAX
 10
398.33330833333281
 20
300.18558994455719
 30
0.0
  9
$LIMMIN
 10
0.0
 20
0.0
  9
$LIMMAX
 10
420.0
 20
297.0
  9
$ORTHOMODE
 70
     0
  9
$REGENMODE
 70
     1
  9
$FILLMODE
 70
     1
  9
$QTEXTMODE
 70
     0
  9
$MIRRTEXT
 70
     1
  9
$DRAGMODE
 70
     2
  9
$LTSCALE
 40
1.0
  9
$OSMODE
 70
    37
  9
$ATTMODE
 70
     1
  9
$TEXTSIZE
 40
73.985717453579113
  9
$TRACEWID
 40
1.0
  9
$TEXTSTYLE
  7
STANDARD
  9
$CLAYER
  8
0
  9
$CELTYPE
  6
BYLAYER
  9
$CECOLOR
 62
   256
  9
$DIMSCALE
 40
1.0
  9
$DIMASZ
 40
0.18
  9
$DIMEXO
 40
0.0625
  9
$DIMDLI
 40
0.38
  9
$DIMRND
 40
0.0
  9
$DIMDLE
 40
0.0
  9
$DIMEXE
 40
0.18
  9
$DIMTP
 40
0.0
  9
$DIMTM
 40
0.0
  9
$DIMTXT
 40
30.0
  9
$DIMCEN
 40
0.09
  9
$DIMTSZ
 40
0.0
  9
$DIMTOL
 70
     0
  9
$DIMLIM
 70
     0
  9
$DIMTIH
 70
     1
  9
$DIMTOH
 70
     1
  9
$DIMSE1
 70
     0
  9
$DIMSE2
 70
     0
  9
$DIMTAD
 70
     0
  9
$DIMZIN
 70
     0
  9
$DIMBLK
  1

  9
$DIMASO
 70
     1
  9
$DIMSHO
 70
     1
  9
$DIMPOST
  1

  9
$DIMAPOST
  1

  9
$DIMALT
 70
     0
  9
$DIMALTD
 70
     2
  9
$DIMALTF
 40
25.399999999999999
  9
$DIMLFAC
 40
1.0
  9
$DIMTOFL
 70
     0
  9
$DIMTVP
 40
0.0
  9
$DIMTIX
 70
     0
  9
$DIMSOXD
 70
     0
  9
$DIMSAH
 70
     0
  9
$DIMBLK1
  1

  9
$DIMBLK2
  1

  9
$DIMSTYLE
  2
STANDARD
  9
$DIMCLRD
 70
     0
  9
$DIMCLRE
 70
     0
  9
$DIMCLRT
 70
     0
  9
$DIMTFAC
 40
1.0
  9
$DIMGAP
 40
0.09
  9
$LUNITS
 70
     2
  9
$LUPREC
 70
     8
  9
$SKETCHINC
 40
1.0
  9
$FILLETRAD
 40
0.0
  9
$AUNITS
 70
     0
  9
$AUPREC
 70
     8
  9
$MENU
  1
.
  9
$ELEVATION
 40
0.0
  9
$PELEVATION
 40
0.0
  9
$THICKNESS
 40
0.0
  9
$LIMCHECK
 70
     0
  9
$BLIPMODE
 70
     0
  9
$CHAMFERA
 40
2.5
  9
$CHAMFERB
 40
2.5
  9
$SKPOLY
 70
     0
  9
$TDCREATE
 40
2454739.7204081588
  9
$TDUPDATE
 40
2454749.7570672329
  9
$TDINDWG
 40
0.2969001505
  9
$TDUSRTIMER
 40
0.2969001505
  9
$USRTIMER
 70
     1
  9
$ANGBASE
 50
0.0
  9
$ANGDIR
 70
     1
  9
$PDMODE
 70
     0
  9
$PDSIZE
 40
0.0
  9
$PLINEWID
 40
0.0
  9
$COORDS
 70
     1
  9
$SPLFRAME
 70
     0
  9
$SPLINETYPE
 70
     6
  9
$SPLINESEGS
 70
     8
  9
$ATTDIA
 70
     0
  9
$ATTREQ
 70
     1
  9
$HANDLING
 70
 22529
  9
$HANDSEED
  5
80A5
  9
$SURFTAB1
 70
     6
  9
$SURFTAB2
 70
     6
  9
$SURFTYPE
 70
     6
  9
$SURFU
 70
     6
  9
$SURFV
 70
     6
  9
$UCSNAME
  2

  9
$UCSORG
 10
0.0
 20
0.0
 30
0.0
  9
$UCSXDIR
 10
1.0
 20
0.0
 30
0.0
  9
$UCSYDIR
 10
0.0
 20
1.0
 30
0.0
  9
$PUCSNAME
  2

  9
$PUCSORG
 10
0.0
 20
0.0
 30
0.0
  9
$PUCSXDIR
 10
1.0
 20
0.0
 30
0.0
  9
$PUCSYDIR
 10
0.0
 20
1.0
 30
0.0
  9
$USERI1
 70
     0
  9
$USERI2
 70
     0
  9
$USERI3
 70
     0
  9
$USERI4
 70
     0
  9
$USERI5
 70
     0
  9
$USERR1
 40
0.0
  9
$USERR2
 40
0.0
  9
$USERR3
 40
0.0
  9
$USERR4
 40
0.0
  9
$USERR5
 40
0.0
  9
$WORLDVIEW
 70
     1
  9
$SHADEDGE
 70
     3
  9
$SHADEDIF
 70
    70
  9
$TILEMODE
 70
     1
  9
$MAXACTVP
 70
    48
  9
$PLIMCHECK
 70
     0
  9
$PEXTMIN
 10
1.0000000000000000E+020
 20
1.0000000000000000E+020
 30
1.0000000000000000E+020
  9
$PEXTMAX
 10
-1.0000000000000000E+020
 20
-1.0000000000000000E+020
 30
-1.0000000000000000E+020
  9
$PLIMMIN
 10
0.0
 20
0.0
  9
$PLIMMAX
 10
420.0
 20
297.0
  9
$UNITMODE
 70
     0
  9
$VISRETAIN
 70
     1
  9
$PLINEGEN
 70
     0
  9
$PSLTSCALE
 70
     1
  0
ENDSEC
  0
SECTION
  2
TABLES
  0
TABLE
  2
VPORT
 70
     2
  0
VPORT
  2
*ACTIVE
 70
     0
 10
0.0
 20
0.0
 11
1.0
 21
1.0
 12
-0.016407673945082
 22
122.75542208919281
 13
0.0
 23
0.0
 14
2.5
 24
2.5
 15
10.0
 25
10.0
 16
0.0
 26
0.0
 36
1.0
 17
0.0
 27
0.0
 37
0.0
 40
522.99758774453142
 41
1.531806615776081
 42
50.0
 43
0.0
 44
0.0
 50
0.0
 51
0.0
 71
     0
 72
   100
 73
     1
 74
     3
 75
     0
 76
     0
 77
     0
 78
     0
  0
ENDTAB
  0
TABLE
  2
LTYPE
 70
     2
  0
LTYPE
  2
CONTINUOUS
 70
     0
  3
Solid line
 72
    65
 73
     0
 40
0.0
  0
LTYPE
  2
CENTER
 70
     0
  3
__ . __
 72
    65
 73
     4
 40
7.0
 49
4.0
 49
-1.0
 49
1.0
 49
-1.0
  0
ENDTAB
  0
TABLE
  2
LAYER
 70
     1
  0
LAYER
  2
0
 70
     0
 62
     7
  6
CONTINUOUS
  0
ENDTAB
  0
TABLE
  2
STYLE
 70
     2
  0
STYLE
  2
STANDARD
 70
     0
 40
0.0
 41
0.7
 50
0.0
 71
     0
 42
73.985717453579113
  3
romans.shx
  4
bigfont.shx
  0
STYLE
  2
TSKDIM
 70
     0
 40
0.0
 41
0.75
 50
0.0
 71
     0
 42
4.0
  3
romans.shx
  4
EXTFONT.SHX
  0
ENDTAB
  0
TABLE
  2
VIEW
 70
     0
  0
ENDTAB
  0
TABLE
  2
UCS
 70
     0
  0
ENDTAB
  0
TABLE
  2
APPID
 70
    41
  0
APPID
  2
ACAD
 70
     0
  0
APPID
  2
MCAD_NO_VIS
 70
     0
  0
APPID
  2
ACAD_TEMP_GRAPHIC
 70
     0
  0
APPID
  2
ACATTRIBSERVICES
 70
     0
  0
APPID
  2
AD_DRAW
 70
     0
  0
APPID
  2
DESIGNERASSEMBLIES
 70
     0
  0
APPID
  2
ASURF_PCURVE_APPNAME
 70
     0
  0
APPID
  2
ACADM_DIM_EDIT
 70
     0
  0
APPID
  2
GENIUS_GENDIM_13
 70
     0
  0
APPID
  2
GENIUS_GENDTOL_13
 70
     0
  0
APPID
  2
GENIUS_GE3DTOL_13
 70
     0
  0
APPID
  2
AMG_3D2D_5_0
 70
     0
  0
APPID
  2
AMDT_DM_ADJ
 70
     0
  0
APPID
  2
CK_MATE-SERIES
 70
     0
  0
APPID
  2
GEVID1042077799
 70
     0
  0
APPID
  2
GEVMK
 70
     0
  0
APPID
  2
GEVDC
 70
     0
  0
APPID
  2
GENIUS_GENBH_13
 70
     0
  0
APPID
  2
GENIUS_GENOLIS_13
 70
     0
  0
APPID
  2
GENIUS_GENOENT_13
 70
     0
  0
APPID
  2
GENIUS_GENODEF_13
 70
     0
  0
APPID
  2
GENIUS_GENOBJ-NBEHI-BHF_13
 70
     0
  0
APPID
  2
GENIUS_GENOREF_13
 70
     0
  0
APPID
  2
GENIUS_GENOBJ-NBEHI-BHB_13
 70
     0
  0
APPID
  2
GEVID1042183772
 70
     0
  0
APPID
  2
GEVID1042183773
 70
     0
  0
APPID
  2
GEVID1042183774
 70
     0
  0
APPID
  2
DCO15
 70
     0
  0
APPID
  2
ACAD_DSTYLE_DIMARC_LENGTH_
 70
     0
  0
APPID
  2
ACAD_DSTYLE_DIMJOGGED_JOGA
 70
     0
  0
APPID
  2
ACAD_MLEADERVER
 70
     0
  0
APPID
  2
ACAD_DSTYLE_DIMJAG
 70
     0
  0
APPID
  2
ACAD_DSTYLE_DIMTALN
 70
     0
  0
APPID
  2
ACAD_PSEXT
 70
     0
  0
APPID
  2
ACAD_EXEMPT_FROM_CAD_STANDARDS
 70
     0
  0
APPID
  2
ACAD_DSTYLE_DIMINSPECT
 70
     0
  0
APPID
  2
ACAD_DSTYLE_DIMANGULAR_EXT
 70
     0
  0
APPID
  2
GENIUS_GENOBJ-N-FIL_13
 70
     0
  0
APPID
  2
ACAD_DSTYLE_DIM_LINETYPE
 70
     0
  0
APPID
  2
ACAD_DSTYLE_DIM_EXT1_LINETYPE
 70
     0
  0
APPID
  2
ACAD_DSTYLE_DIM_EXT2_LINETYPE
 70
     0
  0
ENDTAB
  0
TABLE
  2
DIMSTYLE
 70
     1
  0
DIMSTYLE
  2
STANDARD
 70
     0
  3

  4

  5

  6

  7

 40
1.0
 41
0.18
 42
0.0625
 43
0.38
 44
0.18
 45
0.0
 46
0.0
 47
0.0
 48
0.0
140
30.0
141
0.09
142
0.0
143
25.399999999999999
144
1.0
145
0.0
146
1.0
147
0.09
 71
     0
 72
     0
 73
     1
 74
     1
 75
     0
 76
     0
 77
     0
 78
     0
170
     0
171
     2
172
     0
173
     0
174
     0
175
     0
176
     0
177
     0
178
     0
  0
ENDTAB
  0
ENDSEC
  0
SECTION
  2
BLOCKS
  0
BLOCK
  8
0
  2
$MODEL_SPACE
 70
     0
 10
0.0
 20
0.0
 30
0.0
  3
$MODEL_SPACE
  1

  0
ENDBLK
  5
21
  8
0
  0
BLOCK
 67
     1
  8
0
  2
$PAPER_SPACE
 70
     0
 10
0.0
 20
0.0
 30
0.0
  3
$PAPER_SPACE
  1

  0
ENDBLK
  5
1D
 67
     1
  8
0
  0
BLOCK
  8
0
  2
_OPEN
 70
     0
 10
0.0
 20
0.0
 30
0.0
  3
_OPEN
  1

  0
LINE
  5
15A
  8
0
  6
BYBLOCK
 62
     0
 10
-1.0
 20
0.1666666666666666
 30
0.0
 11
0.0
 21
0.0
 31
0.0
  0
LINE
  5
15B
  8
0
  6
BYBLOCK
 62
     0
 10
-1.0
 20
-0.1666666666666666
 30
0.0
 11
0.0
 21
0.0
 31
0.0
  0
LINE
  5
15C
  8
0
  6
BYBLOCK
 62
     0
 10
0.0
 20
0.0
 30
0.0
 11
-1.0
 21
0.0
 31
0.0
  0
ENDBLK
  5
15E
  8
0
  0
ENDSEC
  0
SECTION
  2
ENTITIES
  0
LINE
  5
75CE
  8
0
 10
37.5
 20
-21.049995000000759
 30
0.0
 11
37.5
 21
-24.049995000000759
 31
0.0
  0
LINE
  5
75CF
  8
0
 10
-37.5
 20
-24.049995000000759
 30
0.0
 11
-22.0
 21
-24.049995000000759
 31
0.0
  0
LINE
  5
75D0
  8
0
 10
-37.5
 20
-21.049995000000759
 30
0.0
 11
37.5
 21
-21.049995000000759
 31
0.0
  0
LINE
  5
75D1
  8
0
 10
2.588205300000026
 20
-33.256493000000319
 30
0.0
 11
19.77645699999993
 21
-28.650915000000619
 31
0.0
  0
LINE
  5
75D2
  8
0
 10
-19.77645699999993
 20
-28.65090800000052
 30
0.0
 11
-2.5881758000000441
 21
-33.256493000000319
 31
0.0
  0
LINE
  5
75D3
  8
0
 10
-37.5
 20
-21.049995000000759
 30
0.0
 11
-37.5
 21
-24.049995000000759
 31
0.0
  0
LINE
  5
75D4
  8
0
 10
-10.0
 20
-19.049995000000759
 30
0.0
 11
10.0
 21
-19.049995000000759
 31
0.0
  0
LINE
  5
75D5
  8
0
 10
-11.0
 20
-20.049995000000759
 30
0.0
 11
-11.0
 21
-21.049995000000759
 31
0.0
  0
LINE
  5
75D6
  8
0
 10
11.0
 20
-20.049995000000759
 30
0.0
 11
11.0
 21
-21.049995000000759
 31
0.0
  0
LINE
  5
75D7
  8
0
 10
-11.0
 20
-20.049995000000759
 30
0.0
 11
11.0
 21
-20.049995000000759
 31
0.0
  0
LINE
  5
75D8
  8
0
 10
-11.00001800000018
 20
-20.049988000000209
 30
0.0
 11
-10.00001599999996
 21
-19.049988000000209
 31
0.0
  0
LINE
  5
75D9
  8
0
 10
9.9999951999998302
 20
-19.049999000000291
 30
0.0
 11
10.999995999999999
 21
-20.05000100000052
 31
0.0
  0
LINE
  5
75DA
  8
0
 10
-8.6000060999999732
 20
-48.049995000000763
 30
0.0
 11
8.6000060999999732
 21
-48.049995000000763
 31
0.0
  0
LINE
  5
75DB
  8
0
 10
-8.6000060999999732
 20
-45.049995000000763
 30
0.0
 11
-8.6000060999999732
 21
-48.049995000000763
 31
0.0
  0
LINE
  5
75DC
  8
0
 10
8.6000060999999732
 20
-45.049995000000763
 30
0.0
 11
8.6000060999999732
 21
-48.049995000000763
 31
0.0
  0
LINE
  5
75DD
  8
0
 10
-9.5
 20
-45.049995000000763
 30
0.0
 11
9.5
 21
-45.049995000000763
 31
0.0
  0
LINE
  5
75DE
  8
0
 10
9.5
 20
-31.404484000000139
 30
0.0
 11
9.5
 21
-45.049995000000763
 31
0.0
  0
LINE
  5
75DF
  8
0
 10
-9.5
 20
-31.404476000000152
 30
0.0
 11
-9.5
 21
-45.049995000000763
 31
0.0
  0
LINE
  5
75E0
  8
0
 10
-27.5
 20
-0.4499969500006955
 30
0.0
 11
-27.5
 21
-10.84999800000014
 31
0.0
  0
LINE
  5
75E1
  8
0
 10
-19.5
 20
-0.4499969500006955
 30
0.0
 11
-19.5
 21
-10.84999800000014
 31
0.0
  0
LINE
  5
75E2
  8
0
 10
-32.0
 20
-25.650002000000761
 30
0.0
 11
-22.0
 21
-25.650002000000761
 31
0.0
  0
LINE
  5
75E3
  8
0
 10
-32.0
 20
-24.049995000000759
 30
0.0
 11
-32.0
 21
-25.650002000000761
 31
0.0
  0
LINE
  5
75E4
  8
0
 10
-31.0
 20
-27.44999700000017
 30
0.0
 11
-21.473993000000061
 21
-27.44999700000017
 31
0.0
  0
LINE
  5
75E5
  8
0
 10
-31.0
 20
-25.650002000000761
 30
0.0
 11
-31.005553999999851
 21
-33.525101000000632
 31
0.0
  0
LINE
  5
75E6
  8
0
 10
-15.994446000000149
 20
-29.664293000000271
 30
0.0
 11
-15.994446000000149
 21
-33.525101000000632
 31
0.0
  0
LINE
  5
75E7
  8
0
 10
-17.250031000000028
 20
-34.250008000000427
 30
0.0
 11
-15.994469000000199
 21
-33.525108000000273
 31
0.0
  0
LINE
  5
75E8
  8
0
 10
-29.75002499999982
 20
-34.249981000000382
 30
0.0
 11
-31.00556000000006
 21
-33.52509700000018
 31
0.0
  0
LINE
  5
75E9
  8
0
 10
-29.75
 20
-34.250000000000448
 30
0.0
 11
-17.25
 21
-34.250000000000448
 31
0.0
  0
LINE
  5
75EA
  8
0
 10
-31.0
 20
-19.44999700000016
 30
0.0
 11
-31.005553999999851
 21
-11.574898000000299
 31
0.0
  0
LINE
  5
75EB
  8
0
 10
-16.0
 20
-19.44999700000016
 30
0.0
 11
-15.994446000000149
 21
-11.574898000000299
 31
0.0
  0
LINE
  5
75EC
  8
0
 10
-19.5
 20
-34.250000000000448
 30
0.0
 11
-19.5
 21
-36.94999700000016
 31
0.0
  0
LINE
  5
75ED
  8
0
 10
-30.437194999999971
 20
-25.650002000000761
 30
0.0
 11
-30.437194999999971
 21
-27.44999700000017
 31
0.0
  0
LINE
  5
75EE
  8
0
 10
-17.250038000000131
 20
-10.84998200000018
 30
0.0
 11
-15.99447599999985
 21
-11.57488200000034
 31
0.0
  0
LINE
  5
75EF
  8
0
 10
-29.750015000000069
 20
-10.85000900000022
 30
0.0
 11
-31.00555200000008
 21
-11.574893000000429
 31
0.0
  0
LINE
  5
75F0
  8
0
 10
-29.75
 20
-10.84999800000014
 30
0.0
 11
-17.25
 21
-10.84999800000014
 31
0.0
  0
LINE
  5
75F1
  8
0
 10
-29.437194999999971
 20
-25.650002000000761
 30
0.0
 11
-29.437194999999971
 21
-27.44999700000017
 31
0.0
  0
LINE
  5
75F2
  8
0
 10
-28.082550000000079
 20
-25.650002000000761
 30
0.0
 11
-28.082550000000079
 21
-27.44999700000017
 31
0.0
  0
LINE
  5
75F3
  8
0
 10
-27.252777000000151
 20
-17.650002000000761
 30
0.0
 11
-27.252777000000151
 21
-11.574898000000299
 31
0.0
  0
LINE
  5
75F4
  8
0
 10
-19.747222999999838
 20
-17.650002000000761
 30
0.0
 11
-19.747222999999838
 21
-11.574898000000299
 31
0.0
  0
LINE
  5
75F5
  8
0
 10
-30.437194999999971
 20
-19.44999700000016
 30
0.0
 11
-30.437194999999971
 21
-17.650002000000761
 31
0.0
  0
LINE
  5
75F6
  8
0
 10
-29.437194999999971
 20
-19.44999700000016
 30
0.0
 11
-29.437194999999971
 21
-17.650002000000761
 31
0.0
  0
LINE
  5
75F7
  8
0
 10
-28.082550000000079
 20
-19.44999700000016
 30
0.0
 11
-28.082550000000079
 21
-17.650002000000761
 31
0.0
  0
LINE
  5
75F8
  8
0
 10
-26.350493999999799
 20
-25.650002000000761
 30
0.0
 11
-26.350493999999799
 21
-27.44999700000017
 31
0.0
  0
LINE
  5
75F9
  8
0
 10
-24.5
 20
-25.650002000000761
 30
0.0
 11
-24.5
 21
-27.44999700000017
 31
0.0
  0
LINE
  5
75FA
  8
0
 10
-26.350493999999799
 20
-19.44999700000016
 30
0.0
 11
-26.350493999999799
 21
-17.650002000000761
 31
0.0
  0
LINE
  5
75FB
  8
0
 10
-24.5
 20
-19.44999700000016
 30
0.0
 11
-24.5
 21
-17.650002000000761
 31
0.0
  0
LINE
  5
75FC
  8
0
 10
-22.5
 20
-19.44999700000016
 30
0.0
 11
-22.5
 21
-17.650002000000761
 31
0.0
  0
LINE
  5
75FD
  8
0
 10
-27.5
 20
-34.250000000000448
 30
0.0
 11
-27.5
 21
-36.94999700000016
 31
0.0
  0
LINE
  5
75FE
  8
0
 10
-20.649506000000201
 20
-19.44999700000016
 30
0.0
 11
-20.649506000000201
 21
-17.650002000000761
 31
0.0
  0
LINE
  5
75FF
  8
0
 10
-18.91744999999991
 20
-19.44999700000016
 30
0.0
 11
-18.91744999999991
 21
-17.650002000000761
 31
0.0
  0
LINE
  5
7600
  8
0
 10
-17.562805000000019
 20
-19.44999700000016
 30
0.0
 11
-17.562805000000019
 21
-17.650002000000761
 31
0.0
  0
LINE
  5
7601
  8
0
 10
-22.5
 20
-25.650002000000761
 30
0.0
 11
-22.5
 21
-27.44999700000017
 31
0.0
  0
LINE
  5
7602
  8
0
 10
-27.5
 20
-36.94999700000016
 30
0.0
 11
-19.5
 21
-36.94999700000016
 31
0.0
  0
LINE
  5
7603
  8
0
 10
-27.5
 20
-6.9499969000003139
 30
0.0
 11
-19.5
 21
-6.9499969000003139
 31
0.0
  0
LINE
  5
7604
  8
0
 10
-26.5
 20
-34.250000000000448
 30
0.0
 11
-26.5
 21
-36.94999700000016
 31
0.0
  0
LINE
  5
7605
  8
0
 10
-20.5
 20
-34.250000000000448
 30
0.0
 11
-20.5
 21
-36.94999700000016
 31
0.0
  0
LINE
  5
7606
  8
0
 10
-16.562805000000019
 20
-19.44999700000016
 30
0.0
 11
-16.562805000000019
 21
-17.650002000000761
 31
0.0
  0
LINE
  5
7607
  8
0
 10
-20.5
 20
-6.9499969000003139
 30
0.0
 11
-20.5
 21
-10.84999800000014
 31
0.0
  0
LINE
  5
7608
  8
0
 10
-32.0
 20
-19.44999700000016
 30
0.0
 11
-15.0
 21
-19.44999700000016
 31
0.0
  0
LINE
  5
7609
  8
0
 10
-26.5
 20
-6.9499969000003139
 30
0.0
 11
-26.5
 21
-10.84999800000014
 31
0.0
  0
LINE
  5
760A
  8
0
 10
-20.50001299999985
 20
-6.9499884000001648
 30
0.0
 11
-19.50001299999985
 21
-5.2179375000005157
 31
0.0
  0
LINE
  5
760B
  8
0
 10
-32.0
 20
-21.049995000000759
 30
0.0
 11
-32.0
 21
-19.44999700000016
 31
0.0
  0
LINE
  5
760C
  8
0
 10
-26.5
 20
-6.9499965000004522
 30
0.0
 11
-27.5
 21
-5.2179456000003483
 31
0.0
  0
LINE
  5
760D
  8
0
 10
-15.0
 20
-21.049995000000759
 30
0.0
 11
-15.0
 21
-19.44999700000016
 31
0.0
  0
LINE
  5
760E
  8
0
 10
26.50000799999998
 20
-6.9500012000003153
 30
0.0
 11
27.50000799999998
 21
-5.2179503000002114
 31
0.0
  0
LINE
  5
760F
  8
0
 10
32.0
 20
-25.650002000000761
 30
0.0
 11
22.0
 21
-25.650002000000761
 31
0.0
  0
LINE
  5
7610
  8
0
 10
32.0
 20
-24.049995000000759
 30
0.0
 11
32.0
 21
-25.650002000000761
 31
0.0
  0
LINE
  5
7611
  8
0
 10
27.252777000000151
 20
-27.44999700000017
 30
0.0
 11
27.252777000000151
 21
-33.525101000000632
 31
0.0
  0
LINE
  5
7612
  8
0
 10
19.747222999999838
 20
-28.658590000000459
 30
0.0
 11
19.747222999999838
 21
-33.525101000000632
 31
0.0
  0
LINE
  5
7613
  8
0
 10
27.5
 20
-36.94999700000016
 30
0.0
 11
19.5
 21
-36.94999700000016
 31
0.0
  0
LINE
  5
7614
  8
0
 10
26.5
 20
-34.250000000000448
 30
0.0
 11
26.5
 21
-36.94999700000016
 31
0.0
  0
LINE
  5
7615
  8
0
 10
20.5
 20
-34.250000000000448
 30
0.0
 11
20.5
 21
-36.94999700000016
 31
0.0
  0
LINE
  5
7616
  8
0
 10
27.5
 20
-34.250000000000448
 30
0.0
 11
27.5
 21
-36.94999700000016
 31
0.0
  0
LINE
  5
7617
  8
0
 10
27.5
 20
-0.4499969500006955
 30
0.0
 11
27.5
 21
-10.84999800000014
 31
0.0
  0
LINE
  5
7618
  8
0
 10
19.5
 20
-0.4499969500006955
 30
0.0
 11
19.5
 21
-10.84999800000014
 31
0.0
  0
LINE
  5
7619
  8
0
 10
29.75
 20
-10.84999800000014
 30
0.0
 11
17.25
 21
-10.84999800000014
 31
0.0
  0
LINE
  5
761A
  8
0
 10
27.252777000000151
 20
-17.650002000000761
 30
0.0
 11
27.252777000000151
 21
-11.574898000000299
 31
0.0
  0
LINE
  5
761B
  8
0
 10
19.747222999999838
 20
-17.650002000000761
 30
0.0
 11
19.747222999999838
 21
-11.574898000000299
 31
0.0
  0
LINE
  5
761C
  8
0
 10
19.5
 20
-34.250000000000448
 30
0.0
 11
19.5
 21
-36.94999700000016
 31
0.0
  0
LINE
  5
761D
  8
0
 10
20.5
 20
-6.9499969000003139
 30
0.0
 11
20.5
 21
-10.84999800000014
 31
0.0
  0
LINE
  5
761E
  8
0
 10
26.5
 20
-6.9499969000003139
 30
0.0
 11
26.5
 21
-10.84999800000014
 31
0.0
  0
LINE
  5
761F
  8
0
 10
16.562805000000019
 20
-19.44999700000016
 30
0.0
 11
16.562805000000019
 21
-17.650002000000761
 31
0.0
  0
LINE
  5
7620
  8
0
 10
32.0
 20
-19.44999700000016
 30
0.0
 11
15.0
 21
-19.44999700000016
 31
0.0
  0
LINE
  5
7621
  8
0
 10
32.0
 20
-21.049995000000759
 30
0.0
 11
32.0
 21
-19.44999700000016
 31
0.0
  0
LINE
  5
7622
  8
0
 10
30.437194999999971
 20
-25.650002000000761
 30
0.0
 11
30.437194999999971
 21
-27.44999700000017
 31
0.0
  0
LINE
  5
7623
  8
0
 10
15.0
 20
-21.049995000000759
 30
0.0
 11
15.0
 21
-19.44999700000016
 31
0.0
  0
LINE
  5
7624
  8
0
 10
31.0
 20
-17.650002000000761
 30
0.0
 11
16.0
 21
-17.650002000000761
 31
0.0
  0
LINE
  5
7625
  8
0
 10
31.0
 20
-19.44999700000016
 30
0.0
 11
31.005553999999851
 21
-11.574898000000299
 31
0.0
  0
LINE
  5
7626
  8
0
 10
16.0
 20
-19.44999700000016
 30
0.0
 11
15.994446000000149
 21
-11.574898000000299
 31
0.0
  0
LINE
  5
7627
  8
0
 10
29.437194999999971
 20
-25.650002000000761
 30
0.0
 11
29.437194999999971
 21
-27.44999700000017
 31
0.0
  0
LINE
  5
7628
  8
0
 10
17.250031000000028
 20
-10.84998200000018
 30
0.0
 11
15.99446799999987
 21
-11.57488200000034
 31
0.0
  0
LINE
  5
7629
  8
0
 10
29.750010000000199
 20
-10.850010000000561
 30
0.0
 11
31.005543000000209
 21
-11.574893000000429
 31
0.0
  0
LINE
  5
762A
  8
0
 10
30.437194999999971
 20
-19.44999700000016
 30
0.0
 11
30.437194999999971
 21
-17.650002000000761
 31
0.0
  0
LINE
  5
762B
  8
0
 10
29.437194999999971
 20
-19.44999700000016
 30
0.0
 11
29.437194999999971
 21
-17.650002000000761
 31
0.0
  0
LINE
  5
762C
  8
0
 10
28.082535000000011
 20
-25.650002000000761
 30
0.0
 11
28.082535000000011
 21
-27.44999700000017
 31
0.0
  0
LINE
  5
762D
  8
0
 10
28.082535000000011
 20
-19.44999700000016
 30
0.0
 11
28.082535000000011
 21
-17.650002000000761
 31
0.0
  0
LINE
  5
762E
  8
0
 10
26.350493999999799
 20
-19.44999700000016
 30
0.0
 11
26.350493999999799
 21
-17.650002000000761
 31
0.0
  0
LINE
  5
762F
  8
0
 10
24.5
 20
-19.44999700000016
 30
0.0
 11
24.5
 21
-17.650002000000761
 31
0.0
  0
LINE
  5
7630
  8
0
 10
22.5
 20
-19.44999700000016
 30
0.0
 11
22.5
 21
-17.650002000000761
 31
0.0
  0
LINE
  5
7631
  8
0
 10
20.649506000000201
 20
-19.44999700000016
 30
0.0
 11
20.649506000000201
 21
-17.650002000000761
 31
0.0
  0
LINE
  5
7632
  8
0
 10
-31.0
 20
-17.650002000000761
 30
0.0
 11
-16.0
 21
-17.650002000000761
 31
0.0
  0
LINE
  5
7633
  8
0
 10
18.91744999999991
 20
-19.44999700000016
 30
0.0
 11
18.91744999999991
 21
-17.650002000000761
 31
0.0
  0
LINE
  5
7634
  8
0
 10
31.0
 20
-27.44999700000017
 30
0.0
 11
21.473998999999822
 21
-27.44999700000017
 31
0.0
  0
LINE
  5
7635
  8
0
 10
31.0
 20
-25.650002000000761
 30
0.0
 11
31.005553999999851
 21
-33.525101000000632
 31
0.0
  0
LINE
  5
7636
  8
0
 10
17.562805000000019
 20
-19.44999700000016
 30
0.0
 11
17.562805000000019
 21
-17.650002000000761
 31
0.0
  0
LINE
  5
7637
  8
0
 10
15.994446000000149
 20
-29.66430100000025
 30
0.0
 11
15.994446000000149
 21
-33.525101000000632
 31
0.0
  0
LINE
  5
7638
  8
0
 10
20.49999200000002
 20
-6.9499998000005681
 30
0.0
 11
19.49999200000002
 21
-5.2179489000004651
 31
0.0
  0
LINE
  5
7639
  8
0
 10
17.250023000000049
 20
-34.250008000000427
 30
0.0
 11
15.994462000000111
 21
-33.525108000000273
 31
0.0
  0
LINE
  5
763A
  8
0
 10
29.750015000000069
 20
-34.249981000000382
 30
0.0
 11
31.00555200000008
 21
-33.52509700000018
 31
0.0
  0
LINE
  5
763B
  8
0
 10
-27.252777000000151
 20
-27.44999700000017
 30
0.0
 11
-27.252777000000151
 21
-33.525101000000632
 31
0.0
  0
LINE
  5
763C
  8
0
 10
-19.747222999999838
 20
-28.658741000000639
 30
0.0
 11
-19.747222999999838
 21
-33.525101000000632
 31
0.0
  0
LINE
  5
763D
  8
0
 10
27.5
 20
-6.9499969000003139
 30
0.0
 11
19.5
 21
-6.9499969000003139
 31
0.0
  0
LINE
  5
763E
  8
0
 10
29.75
 20
-34.250000000000448
 30
0.0
 11
17.25
 21
-34.250000000000448
 31
0.0
  0
LINE
  5
763F
  8
0
 10
26.350493999999799
 20
-25.650002000000761
 30
0.0
 11
26.350493999999799
 21
-27.44999700000017
 31
0.0
  0
LINE
  5
7640
  8
0
 10
24.5
 20
-25.650002000000761
 30
0.0
 11
24.5
 21
-27.44999700000017
 31
0.0
  0
LINE
  5
7641
  8
0
 10
22.5
 20
-25.650002000000761
 30
0.0
 11
22.5
 21
-27.44999700000017
 31
0.0
  0
LINE
  5
7642
  8
0
 10
22.0
 20
-21.049995000000759
 30
0.0
 11
22.0
 21
-25.75313800000049
 31
0.0
  0
LINE
  5
7643
  8
0
 10
-22.0
 20
-21.049995000000759
 30
0.0
 11
-22.0
 21
-25.75313000000051
 31
0.0
  0
LINE
  5
7644
  8
0
 10
22.0
 20
-24.049995000000759
 30
0.0
 11
37.5
 21
-24.049995000000759
 31
0.0
  0
ARC
  5
7645
  8
0
 10
0.0
 20
-0.4499969500006955
 30
0.0
 40
19.5
 50
0.0
 51
180.0
  0
ARC
  5
7646
  8
0
 10
0.0
 20
-0.4499969500006955
 30
0.0
 40
27.5
 50
0.0
 51
180.000010000001
  0
ARC
  5
7647
  8
0
 10
-17.870849999999791
 20
-31.459030000000439
 30
0.0
 40
2.7909625
 50
227.7544700000075
 51
287.75451000000822
  0
ARC
  5
7648
  8
0
 10
-29.129180999999789
 20
-31.459030000000439
 30
0.0
 40
2.7909625
 50
252.24548999999169
 51
312.2455299999923
  0
ARC
  5
7649
  8
0
 10
-23.5
 20
-24.173492000000351
 30
0.0
 40
10.076509
 50
248.134549999993
 51
291.86545000000677
  0
ARC
  5
764A
  8
0
 10
-23.5
 20
-20.926506000000241
 30
0.0
 40
10.076509
 50
68.134543999996126
 51
111.8654600000158
  0
ARC
  5
764B
  8
0
 10
-17.870849999999791
 20
-13.64096800000015
 30
0.0
 40
2.7909625
 50
72.245488999994151
 51
132.24550999998829
  0
ARC
  5
764C
  8
0
 10
-29.129180999999789
 20
-13.64096800000015
 30
0.0
 40
2.7909625
 50
47.754486000003418
 51
107.7545100000083
  0
ARC
  5
764D
  8
0
 10
23.5
 20
-24.173492000000351
 30
0.0
 40
10.076509
 50
248.134549999993
 51
291.86545000000677
  0
ARC
  5
764E
  8
0
 10
17.870849999999791
 20
-31.459030000000439
 30
0.0
 40
2.7909625
 50
252.24548999999169
 51
312.2455299999923
  0
ARC
  5
764F
  8
0
 10
29.129180999999789
 20
-31.459030000000439
 30
0.0
 40
2.7909625
 50
227.7544700000075
 51
287.75451000000822
  0
ARC
  5
7650
  8
0
 10
23.5
 20
-20.926506000000241
 30
0.0
 40
10.076509
 50
68.134543999996126
 51
111.8654600000158
  0
ARC
  5
7651
  8
0
 10
17.870849999999791
 20
-13.64096800000015
 30
0.0
 40
2.7909625
 50
47.75449899998474
 51
107.7545100000083
  0
ARC
  5
7652
  8
0
 10
29.129180999999789
 20
-13.64096800000015
 30
0.0
 40
2.7909625
 50
72.245488999994151
 51
132.24550999998829
  0
ARC
  5
7653
  8
0
 10
-19.0
 20
-25.75313000000051
 30
0.0
 40
3.0
 50
180.0
 51
255.0000099999973
  0
ARC
  5
7654
  8
0
 10
19.0
 20
-25.75313800000049
 30
0.0
 40
3.0
 50
284.99999000000258
 51
0.0
  0
ARC
  5
7655
  8
0
 10
0.0000147388582263
 20
-23.59723500000063
 30
0.0
 40
10.0
 50
255.00000000000551
 51
284.99999999999437
  0
LINE
  5
7656
  8
0
 10
145.16797111577759
 20
-25.650002000000761
 30
0.0
 11
145.16797111577759
 21
-27.450005000000139
 31
0.0
  0
LINE
  5
7657
  8
0
 10
132.16797111577759
 20
-33.597229000000418
 30
0.0
 11
135.16797111577759
 21
-33.597229000000418
 31
0.0
  0
LINE
  5
7658
  8
0
 10
135.16797111577759
 20
-21.049995000000759
 30
0.0
 11
157.16797111577759
 21
-21.049995000000759
 31
0.0
  0
LINE
  5
7659
  8
0
 10
132.16797111577759
 20
-24.049995000000759
 30
0.0
 11
132.16797111577759
 21
-33.597229000000418
 31
0.0
  0
LINE
  5
765A
  8
0
 10
160.16797111577759
 20
-24.049995000000759
 30
0.0
 11
160.16797111577759
 21
-33.597229000000418
 31
0.0
  0
LINE
  5
765B
  8
0
 10
135.16797111577759
 20
-25.049995000000759
 30
0.0
 11
135.16797111577759
 21
-33.597229000000418
 31
0.0
  0
LINE
  5
765C
  8
0
 10
157.16797111577759
 20
-25.049995000000759
 30
0.0
 11
157.16797111577759
 21
-33.597229000000418
 31
0.0
  0
LINE
  5
765D
  8
0
 10
136.16797111577759
 20
-24.049995000000759
 30
0.0
 11
156.16797111577759
 21
-24.049995000000759
 31
0.0
  0
LINE
  5
765E
  8
0
 10
157.16797111577759
 20
-33.597229000000418
 30
0.0
 11
160.16797111577759
 21
-33.597229000000418
 31
0.0
  0
LINE
  5
765F
  8
0
 10
137.56796501577759
 20
-48.049995000000763
 30
0.0
 11
154.76797721577751
 21
-48.049995000000763
 31
0.0
  0
LINE
  5
7660
  8
0
 10
136.16797111577759
 20
-19.049995000000759
 30
0.0
 11
138.66241691577761
 21
-19.049995000000759
 31
0.0
  0
LINE
  5
7661
  8
0
 10
135.16797111577759
 20
-20.049995000000759
 30
0.0
 11
135.16797111577759
 21
-21.049995000000759
 31
0.0
  0
LINE
  5
7662
  8
0
 10
157.16797111577759
 20
-20.049995000000759
 30
0.0
 11
157.16797111577759
 21
-21.049995000000759
 31
0.0
  0
LINE
  5
7663
  8
0
 10
135.16797111577759
 20
-20.049995000000759
 30
0.0
 11
137.66797111577759
 21
-20.049995000000759
 31
0.0
  0
LINE
  5
7664
  8
0
 10
135.16795911577759
 20
-20.049994000000421
 30
0.0
 11
136.1679601157775
 21
-19.04999200000065
 31
0.0
  0
LINE
  5
7665
  8
0
 10
156.1679616157775
 20
-19.04999200000065
 30
0.0
 11
157.1679621157777
 21
-20.04999200000065
 31
0.0
  0
LINE
  5
7666
  8
0
 10
137.56796501577759
 20
-45.049995000000763
 30
0.0
 11
137.56796501577759
 21
-48.049995000000763
 31
0.0
  0
LINE
  5
7667
  8
0
 10
154.76797721577751
 20
-45.049995000000763
 30
0.0
 11
154.76797721577751
 21
-48.049995000000763
 31
0.0
  0
LINE
  5
7668
  8
0
 10
136.66797111577759
 20
-45.049995000000763
 30
0.0
 11
155.66797111577759
 21
-45.049995000000763
 31
0.0
  0
LINE
  5
7669
  8
0
 10
155.66797111577759
 20
-24.049995000000759
 30
0.0
 11
155.66797111577759
 21
-45.049995000000763
 31
0.0
  0
LINE
  5
766A
  8
0
 10
136.66797111577759
 20
-24.049995000000759
 30
0.0
 11
136.66797111577759
 21
-45.049995000000763
 31
0.0
  0
LINE
  5
766B
  8
0
 10
150.16797111577759
 20
23.05000299999983
 30
0.0
 11
150.16797111577759
 21
-10.84999800000014
 31
0.0
  0
LINE
  5
766C
  8
0
 10
142.16797111577759
 20
23.05000299999983
 30
0.0
 11
142.16797111577759
 21
-10.84999800000014
 31
0.0
  0
LINE
  5
766D
  8
0
 10
150.16797111577759
 20
-6.9500046000007378
 30
0.0
 11
142.16797111577759
 21
-6.9500046000007378
 31
0.0
  0
LINE
  5
766E
  8
0
 10
149.16797111577759
 20
-6.9500046000007378
 30
0.0
 11
149.16797111577759
 21
-10.84999800000014
 31
0.0
  0
LINE
  5
766F
  8
0
 10
143.1679642157778
 20
-6.9500003000007382
 30
0.0
 11
142.16796391577779
 21
-5.2179494000006343
 31
0.0
  0
LINE
  5
7670
  8
0
 10
149.16796471577749
 20
-6.9499969000003139
 30
0.0
 11
150.16796471577749
 21
-5.2179461000005167
 31
0.0
  0
LINE
  5
7671
  8
0
 10
139.2307763157778
 20
-19.450005000000139
 30
0.0
 11
139.2307763157778
 21
-17.650002000000761
 31
0.0
  0
LINE
  5
7672
  8
0
 10
154.66797111577759
 20
-19.450005000000139
 30
0.0
 11
137.66797111577759
 21
-19.450005000000139
 31
0.0
  0
LINE
  5
7673
  8
0
 10
154.66797111577759
 20
-21.050003000000739
 30
0.0
 11
154.66797111577759
 21
-19.450005000000139
 31
0.0
  0
LINE
  5
7674
  8
0
 10
137.66797111577759
 20
-21.050003000000739
 30
0.0
 11
137.66797111577759
 21
-19.450005000000139
 31
0.0
  0
LINE
  5
7675
  8
0
 10
153.66797111577759
 20
-17.650002000000761
 30
0.0
 11
138.66797111577759
 21
-17.650002000000761
 31
0.0
  0
LINE
  5
7676
  8
0
 10
153.66797111577759
 20
-19.450005000000139
 30
0.0
 11
153.66797111577759
 21
-17.650002000000761
 31
0.0
  0
LINE
  5
7677
  8
0
 10
138.66797111577759
 20
-19.450005000000139
 30
0.0
 11
138.66797111577759
 21
-17.650002000000761
 31
0.0
  0
LINE
  5
7678
  8
0
 10
153.10516591577741
 20
-19.450005000000139
 30
0.0
 11
153.10516591577741
 21
-17.650002000000761
 31
0.0
  0
LINE
  5
7679
  8
0
 10
152.10516591577741
 20
-19.450005000000139
 30
0.0
 11
152.10516591577741
 21
-17.650002000000761
 31
0.0
  0
LINE
  5
767A
  8
0
 10
150.75050591577741
 20
-19.450005000000139
 30
0.0
 11
150.75050591577741
 21
-17.650002000000761
 31
0.0
  0
LINE
  5
767B
  8
0
 10
149.01846551577771
 20
-19.450005000000139
 30
0.0
 11
149.01846551577771
 21
-17.650002000000761
 31
0.0
  0
LINE
  5
767C
  8
0
 10
147.16797111577759
 20
-19.450005000000139
 30
0.0
 11
147.16797111577759
 21
-17.650002000000761
 31
0.0
  0
LINE
  5
767D
  8
0
 10
145.16797111577759
 20
-19.450005000000139
 30
0.0
 11
145.16797111577759
 21
-17.650002000000761
 31
0.0
  0
LINE
  5
767E
  8
0
 10
143.31747671577739
 20
-19.450005000000139
 30
0.0
 11
143.31747671577739
 21
-17.650002000000761
 31
0.0
  0
LINE
  5
767F
  8
0
 10
141.58542111577751
 20
-19.450005000000139
 30
0.0
 11
141.58542111577751
 21
-17.650002000000761
 31
0.0
  0
LINE
  5
7680
  8
0
 10
140.2307763157778
 20
-19.450005000000139
 30
0.0
 11
140.2307763157778
 21
-17.650002000000761
 31
0.0
  0
LINE
  5
7681
  8
0
 10
154.66797111577759
 20
-25.650002000000761
 30
0.0
 11
137.66797111577759
 21
-25.650002000000761
 31
0.0
  0
LINE
  5
7682
  8
0
 10
154.66797111577759
 20
-24.050003000000739
 30
0.0
 11
154.66797111577759
 21
-25.650002000000761
 31
0.0
  0
LINE
  5
7683
  8
0
 10
137.66797111577759
 20
-24.050003000000739
 30
0.0
 11
137.66797111577759
 21
-25.650002000000761
 31
0.0
  0
LINE
  5
7684
  8
0
 10
153.66797111577759
 20
-27.450005000000139
 30
0.0
 11
138.66797111577759
 21
-27.450005000000139
 31
0.0
  0
LINE
  5
7685
  8
0
 10
153.66797111577759
 20
-25.650002000000761
 30
0.0
 11
153.66797111577759
 21
-27.450005000000139
 31
0.0
  0
LINE
  5
7686
  8
0
 10
138.66797111577759
 20
-25.650002000000761
 30
0.0
 11
138.66797111577759
 21
-27.450005000000139
 31
0.0
  0
LINE
  5
7687
  8
0
 10
150.16797111577759
 20
-34.250008000000427
 30
0.0
 11
150.16797111577759
 21
-36.950005000000147
 31
0.0
  0
LINE
  5
7688
  8
0
 10
142.16797111577759
 20
-34.250008000000427
 30
0.0
 11
142.16797111577759
 21
-36.950005000000147
 31
0.0
  0
LINE
  5
7689
  8
0
 10
153.10516591577741
 20
-25.650002000000761
 30
0.0
 11
153.10516591577741
 21
-27.450005000000139
 31
0.0
  0
LINE
  5
768A
  8
0
 10
152.10516591577741
 20
-25.650002000000761
 30
0.0
 11
152.10516591577741
 21
-27.450005000000139
 31
0.0
  0
LINE
  5
768B
  8
0
 10
150.75050591577741
 20
-25.650002000000761
 30
0.0
 11
150.75050591577741
 21
-27.450005000000139
 31
0.0
  0
LINE
  5
768C
  8
0
 10
149.01846551577771
 20
-25.650002000000761
 30
0.0
 11
149.01846551577771
 21
-27.450005000000139
 31
0.0
  0
LINE
  5
768D
  8
0
 10
147.16797111577759
 20
-25.650002000000761
 30
0.0
 11
147.16797111577759
 21
-27.450005000000139
 31
0.0
  0
LINE
  5
768E
  8
0
 10
141.58542111577751
 20
-25.650002000000761
 30
0.0
 11
141.58542111577751
 21
-27.450005000000139
 31
0.0
  0
LINE
  5
768F
  8
0
 10
139.2307763157778
 20
-25.650002000000761
 30
0.0
 11
139.2307763157778
 21
-27.450005000000139
 31
0.0
  0
LINE
  5
7690
  8
0
 10
150.16797111577759
 20
-36.950005000000147
 30
0.0
 11
142.16797111577759
 21
-36.950005000000147
 31
0.0
  0
LINE
  5
7691
  8
0
 10
149.16797111577759
 20
-34.250008000000427
 30
0.0
 11
149.16797111577759
 21
-36.950005000000147
 31
0.0
  0
LINE
  5
7692
  8
0
 10
143.16797111577759
 20
-34.250008000000427
 30
0.0
 11
143.16797111577759
 21
-36.950005000000147
 31
0.0
  0
LINE
  5
7693
  8
0
 10
154.66797111577759
 20
-20.049995000000759
 30
0.0
 11
157.16797111577759
 21
-20.049995000000759
 31
0.0
  0
LINE
  5
7694
  8
0
 10
153.6735253157776
 20
-19.049995000000759
 30
0.0
 11
156.16797111577759
 21
-19.049995000000759
 31
0.0
  0
LINE
  5
7695
  8
0
 10
139.66797111577759
 20
-27.450005000000139
 30
0.0
 11
139.66797111577759
 21
-33.525108000000273
 31
0.0
  0
LINE
  5
7696
  8
0
 10
140.92356391577769
 20
-34.250008000000427
 30
0.0
 11
139.6680016157774
 21
-33.525108000000273
 31
0.0
  0
LINE
  5
7697
  8
0
 10
151.41241691577761
 20
-34.250008000000427
 30
0.0
 11
140.9235253157776
 21
-34.250008000000427
 31
0.0
  0
LINE
  5
7698
  8
0
 10
151.41246411577771
 20
-34.250034000000142
 30
0.0
 11
152.66800021577771
 21
-33.525150000000387
 31
0.0
  0
LINE
  5
7699
  8
0
 10
143.16797111577759
 20
-6.9500046000007378
 30
0.0
 11
143.16797111577759
 21
-10.84999800000014
 31
0.0
  0
LINE
  5
769A
  8
0
 10
139.66797111577759
 20
-17.650002000000761
 30
0.0
 11
139.66797111577759
 21
-11.574898000000299
 31
0.0
  0
LINE
  5
769B
  8
0
 10
140.92357111577749
 20
-10.85002600000052
 30
0.0
 11
139.66800881577771
 21
-11.57492500000034
 31
0.0
  0
LINE
  5
769C
  8
0
 10
146.16797111577759
 20
-17.650002000000761
 30
0.0
 11
146.16797111577759
 21
-11.574898000000299
 31
0.0
  0
LINE
  5
769D
  8
0
 10
152.66797111577759
 20
-17.650002000000761
 30
0.0
 11
152.66797111577759
 21
-11.574898000000299
 31
0.0
  0
LINE
  5
769E
  8
0
 10
151.41241691577761
 20
-10.84999800000014
 30
0.0
 11
140.9235253157776
 21
-10.84999800000014
 31
0.0
  0
LINE
  5
769F
  8
0
 10
151.41244121577751
 20
-10.85001400000055
 30
0.0
 11
152.66797681577779
 21
-11.574898000000299
 31
0.0
  0
LINE
  5
76A0
  8
0
 10
140.2307763157778
 20
-25.650002000000761
 30
0.0
 11
140.2307763157778
 21
-27.450005000000139
 31
0.0
  0
LINE
  5
76A1
  8
0
 10
146.16797111577759
 20
-27.450005000000139
 30
0.0
 11
146.16797111577759
 21
-33.525108000000273
 31
0.0
  0
LINE
  5
76A2
  8
0
 10
152.66797111577759
 20
-27.450005000000139
 30
0.0
 11
152.66797111577759
 21
-33.525108000000273
 31
0.0
  0
LINE
  5
76A3
  8
0
 10
143.31747671577739
 20
-25.650002000000761
 30
0.0
 11
143.31747671577739
 21
-27.450005000000139
 31
0.0
  0
ARC
  5
76A4
  8
0
 10
157.16797111577759
 20
-24.049995000000759
 30
0.0
 40
3.0
 50
0.0
 51
90.0
  0
ARC
  5
76A5
  8
0
 10
135.16797111577759
 20
-24.049995000000759
 30
0.0
 40
3.0
 50
90.0
 51
180.0
  0
ARC
  5
76A6
  8
0
 10
136.16797111577759
 20
-25.049995000000759
 30
0.0
 40
1.0
 50
90.0
 51
180.0
  0
ARC
  5
76A7
  8
0
 10
156.16797111577759
 20
-25.049995000000759
 30
0.0
 40
1.0
 50
0.0
 51
90.0
  0
ARC
  5
76A8
  8
0
 10
146.16797111577759
 20
23.05000299999983
 30
0.0
 40
4.0
 50
0.0
 51
180.0
  0
ARC
  5
76A9
  8
0
 10
142.91797111577759
 20
-26.60201300000017
 30
0.0
 40
7.6479936000000004
 50
244.8526300000126
 51
295.14736999998729
  0
ARC
  5
76AA
  8
0
 10
149.41797111577759
 20
-26.60201300000017
 30
0.0
 40
7.6479936000000004
 50
244.8526300000126
 51
295.1473800000017
  0
ARC
  5
76AB
  8
0
 10
142.91797111577759
 20
-18.497993000000399
 30
0.0
 40
7.6479936000000004
 50
64.852625999999361
 51
115.1473699999873
  0
ARC
  5
76AC
  8
0
 10
149.41797111577759
 20
-18.497993000000399
 30
0.0
 40
7.6479936000000004
 50
64.852624999991079
 51
115.1473699999873
  0
LINE
  5
76AD
  8
0
 10
-37.5
 20
160.56665814585131
 30
0.0
 11
-37.5
 21
148.56665814585131
 31
0.0
  0
LINE
  5
76AE
  8
0
 10
37.5
 20
160.56665814585131
 30
0.0
 11
37.5
 21
148.56665814585131
 31
0.0
  0
LINE
  5
76AF
  8
0
 10
-22.0
 20
168.56665814585119
 30
0.0
 11
22.0
 21
168.56665814585119
 31
0.0
  0
LINE
  5
76B0
  8
0
 10
-22.0
 20
140.56665814585131
 30
0.0
 11
22.0
 21
140.56665814585131
 31
0.0
  0
LINE
  5
76B1
  8
0
 10
-22.0
 20
168.56665814585119
 30
0.0
 11
-22.0
 21
165.56665814585131
 31
0.0
  0
LINE
  5
76B2
  8
0
 10
22.0
 20
168.56665814585119
 30
0.0
 11
22.0
 21
165.56665814585131
 31
0.0
  0
LINE
  5
76B3
  8
0
 10
-22.0
 20
143.56665814585119
 30
0.0
 11
-22.0
 21
140.56665814585131
 31
0.0
  0
LINE
  5
76B4
  8
0
 10
22.0
 20
143.56665814585119
 30
0.0
 11
22.0
 21
140.56665814585131
 31
0.0
  0
LINE
  5
76B5
  8
0
 10
-32.5
 20
143.56665814585119
 30
0.0
 11
-22.0
 21
143.56665814585119
 31
0.0
  0
LINE
  5
76B6
  8
0
 10
-32.5
 20
165.56665814585131
 30
0.0
 11
-22.0
 21
165.56665814585131
 31
0.0
  0
LINE
  5
76B7
  8
0
 10
22.0
 20
143.56665814585119
 30
0.0
 11
32.5
 21
143.56665814585119
 31
0.0
  0
LINE
  5
76B8
  8
0
 10
22.0
 20
165.56665814585131
 30
0.0
 11
32.5
 21
165.56665814585131
 31
0.0
  0
LINE
  5
76B9
  8
0
 10
-23.5
 20
158.56665814585131
 30
0.0
 11
23.5
 21
158.56665814585131
 31
0.0
  0
LINE
  5
76BA
  8
0
 10
-23.5
 20
150.56665814585131
 30
0.0
 11
23.5
 21
150.56665814585131
 31
0.0
  0
LINE
  5
76BB
  8
0
 10
-31.005564000000049
 20
154.56665439508009
 30
0.0
 11
-27.252786999999891
 21
148.06665384585131
 31
0.0
  0
LINE
  5
76BC
  8
0
 10
-27.252777000000151
 20
148.06665814585131
 30
0.0
 11
-19.747222999999838
 21
148.06665814585131
 31
0.0
  0
LINE
  5
76BD
  8
0
 10
-19.747221000000081
 20
148.06667004585091
 30
0.0
 11
-18.30384599999979
 21
150.5666695458512
 31
0.0
  0
LINE
  5
76BE
  8
0
 10
-18.303858000000211
 20
158.56665694585121
 30
0.0
 11
-19.74723200000016
 21
161.066655245851
 31
0.0
  0
LINE
  5
76BF
  8
0
 10
-19.747222999999838
 20
161.06665814585131
 30
0.0
 11
-27.252777000000151
 21
161.06665814585131
 31
0.0
  0
LINE
  5
76C0
  8
0
 10
-27.252774999999929
 20
161.06666914585131
 30
0.0
 11
-31.00555200000008
 21
154.5666689464733
 31
0.0
  0
LINE
  5
76C1
  8
0
 10
19.747222999999838
 20
161.06665814585131
 30
0.0
 11
27.252777000000151
 21
161.06665814585131
 31
0.0
  0
LINE
  5
76C2
  8
0
 10
27.252766000000062
 20
161.06665764585111
 30
0.0
 11
31.00554499999998
 21
154.56665731531521
 31
0.0
  0
LINE
  5
76C3
  8
0
 10
31.00554999999985
 20
154.5666731445603
 30
0.0
 11
27.252773000000161
 21
148.0666729458512
 31
0.0
  0
LINE
  5
76C4
  8
0
 10
27.252777000000151
 20
148.06665814585131
 30
0.0
 11
19.747222999999838
 21
148.06665814585131
 31
0.0
  0
LINE
  5
76C5
  8
0
 10
19.747221000000081
 20
148.06666054585131
 30
0.0
 11
18.30384599999979
 21
150.56665864585139
 31
0.0
  0
LINE
  5
76C6
  8
0
 10
18.303843000000139
 20
158.566672445851
 30
0.0
 11
19.747217000000092
 21
161.06667054585111
 31
0.0
  0
ARC
  5
76C7
  8
0
 10
32.5
 20
160.56665814585131
 30
0.0
 40
5.0
 50
0.0
 51
90.0
  0
ARC
  5
76C8
  8
0
 10
0.0
 20
154.56665814585131
 30
0.0
 40
10.0
 50
23.578177999986419
 51
156.42182000001571
  0
ARC
  5
76C9
  8
0
 10
-29.5
 20
154.56665814585131
 30
0.0
 40
5.0
 50
100.806919999993
 51
259.193080000007
  0
ARC
  5
76CA
  8
0
 10
29.5
 20
154.56665814585131
 30
0.0
 40
5.0
 50
280.806919999993
 51
79.193076999993323
  0
ARC
  5
76CB
  8
0
 10
0.0
 20
154.56665814585131
 30
0.0
 40
11.0
 50
21.323686000000858
 51
158.6763200000149
  0
ARC
  5
76CC
  8
0
 10
-23.5
 20
154.56665814585131
 30
0.0
 40
4.0
 50
90.0
 51
270.0
  0
ARC
  5
76CD
  8
0
 10
23.5
 20
154.56665814585131
 30
0.0
 40
4.0
 50
270.0
 51
90.0
  0
ARC
  5
76CE
  8
0
 10
0.0
 20
154.56665814585131
 30
0.0
 40
11.0
 50
201.32367999998499
 51
338.67630999999602
  0
ARC
  5
76CF
  8
0
 10
0.0
 20
154.56665814585131
 30
0.0
 40
10.0
 50
203.5781799999842
 51
336.4218200000156
  0
ARC
  5
76D0
  8
0
 10
-23.5
 20
154.56665814585131
 30
0.0
 40
6.5
 50
37.979869000002068
 51
322.0201100000059
  0
ARC
  5
76D1
  8
0
 10
-23.5
 20
154.56665814585131
 30
0.0
 40
8.5
 50
28.072487000018238
 51
331.92752000000303
  0
ARC
  5
76D2
  8
0
 10
23.5
 20
154.56665814585131
 30
0.0
 40
6.5
 50
217.97986999999691
 51
142.02013000000301
  0
ARC
  5
76D3
  8
0
 10
23.5
 20
154.56665814585131
 30
0.0
 40
8.5
 50
208.07247999999689
 51
151.927520000003
  0
ARC
  5
76D4
  8
0
 10
-32.5
 20
160.56665814585131
 30
0.0
 40
5.0
 50
90.0
 51
180.000010000001
  0
ARC
  5
76D5
  8
0
 10
-32.5
 20
148.56665814585131
 30
0.0
 40
5.0
 50
179.99998999999889
 51
270.0
  0
ARC
  5
76D6
  8
0
 10
32.5
 20
148.56665814585131
 30
0.0
 40
5.0
 50
270.0
 51
0.0
  0
LINE
  5
7F93
  8
0
  6
CENTER
 62
     0
 10
0.0
 20
119.98667452728429
 30
0.0
 11
0.0
 21
189.14664176441821
 31
0.0
  0
LINE
  5
7F94
  8
0
  6
CENTER
 62
     0
 10
-49.891639669414417
 20
154.56665814585131
 30
0.0
 11
49.891639669414417
 21
154.56665814585131
 31
0.0
  0
LINE
  5
7FA3
  8
0
  6
CENTER
 62
     0
 10
0.0
 20
-54.682187071474353
 30
0.0
 11
0.0
 21
38.318866378896473
 31
0.0
  0
LINE
  5
7FA4
  8
0
  6
CENTER
 62
     0
 10
-38.349191914336181
 20
0.0
 30
0.0
 11
36.722496702044737
 21
0.0
 31
0.0
  0
LINE
  5
7FB1
  8
0
  6
CENTER
 62
     0
 10
146.16797111577759
 20
-54.682187071474353
 30
0.0
 11
146.16797111577759
 21
38.318866378896473
 31
0.0
  0
LINE
  5
7FB2
  8
0
  6
CENTER
 62
     0
 10
133.81691131549809
 20
0.0
 30
0.0
 11
158.51903091605661
 21
0.0
 31
0.0
  0
TEXT
  5
7FBD
  8
0
 10
-407.85716785714328
 20
250.18558994455719
 30
0.0
 40
50.0
  1
P-SUPPORT-UB 1.5S
 72
     4
 11
-0.0000250000002779
 21
275.18558994455719
 31
0.0
  0
ENDSEC
  0
EOF
