  0
SECTION
  2
HEADER
  9
$ACADVER
  1
AC1009
  9
$INSBASE
 10
0.0
 20
0.0
 30
0.0
  9
$EXTMIN
 10
-362.6190726190481
 20
-47.460690848567083
 30
0.0
  9
$EXTMAX
 10
362.61902261904709
 20
270.12708766349391
 30
0.0
  9
$LIMMIN
 10
0.0
 20
0.0
  9
$LIMMAX
 10
420.0
 20
297.0
  9
$ORTHOMODE
 70
     0
  9
$REGENMODE
 70
     1
  9
$FILLMODE
 70
     1
  9
$QTEXTMODE
 70
     0
  9
$MIRRTEXT
 70
     1
  9
$DRAGMODE
 70
     2
  9
$LTSCALE
 40
1.0
  9
$OSMODE
 70
    37
  9
$ATTMODE
 70
     1
  9
$TEXTSIZE
 40
73.985717453579113
  9
$TRACEWID
 40
1.0
  9
$TEXTSTYLE
  7
STANDARD
  9
$CLAYER
  8
0
  9
$CELTYPE
  6
BYLAYER
  9
$CECOLOR
 62
   256
  9
$DIMSCALE
 40
1.0
  9
$DIMASZ
 40
0.18
  9
$DIMEXO
 40
0.0625
  9
$DIMDLI
 40
0.38
  9
$DIMRND
 40
0.0
  9
$DIMDLE
 40
0.0
  9
$DIMEXE
 40
0.18
  9
$DIMTP
 40
0.0
  9
$DIMTM
 40
0.0
  9
$DIMTXT
 40
30.0
  9
$DIMCEN
 40
0.09
  9
$DIMTSZ
 40
0.0
  9
$DIMTOL
 70
     0
  9
$DIMLIM
 70
     0
  9
$DIMTIH
 70
     1
  9
$DIMTOH
 70
     1
  9
$DIMSE1
 70
     0
  9
$DIMSE2
 70
     0
  9
$DIMTAD
 70
     0
  9
$DIMZIN
 70
     0
  9
$DIMBLK
  1

  9
$DIMASO
 70
     1
  9
$DIMSHO
 70
     1
  9
$DIMPOST
  1

  9
$DIMAPOST
  1

  9
$DIMALT
 70
     0
  9
$DIMALTD
 70
     2
  9
$DIMALTF
 40
25.399999999999999
  9
$DIMLFAC
 40
1.0
  9
$DIMTOFL
 70
     0
  9
$DIMTVP
 40
0.0
  9
$DIMTIX
 70
     0
  9
$DIMSOXD
 70
     0
  9
$DIMSAH
 70
     0
  9
$DIMBLK1
  1

  9
$DIMBLK2
  1

  9
$DIMSTYLE
  2
STANDARD
  9
$DIMCLRD
 70
     0
  9
$DIMCLRE
 70
     0
  9
$DIMCLRT
 70
     0
  9
$DIMTFAC
 40
1.0
  9
$DIMGAP
 40
0.09
  9
$LUNITS
 70
     2
  9
$LUPREC
 70
     8
  9
$SKETCHINC
 40
1.0
  9
$FILLETRAD
 40
0.0
  9
$AUNITS
 70
     0
  9
$AUPREC
 70
     8
  9
$MENU
  1
.
  9
$ELEVATION
 40
0.0
  9
$PELEVATION
 40
0.0
  9
$THICKNESS
 40
0.0
  9
$LIMCHECK
 70
     0
  9
$BLIPMODE
 70
     0
  9
$CHAMFERA
 40
2.5
  9
$CHAMFERB
 40
2.5
  9
$SKPOLY
 70
     0
  9
$TDCREATE
 40
2454739.7204081588
  9
$TDUPDATE
 40
2454749.7570784488
  9
$TDINDWG
 40
0.2968733796
  9
$TDUSRTIMER
 40
0.2968733796
  9
$USRTIMER
 70
     1
  9
$ANGBASE
 50
0.0
  9
$ANGDIR
 70
     1
  9
$PDMODE
 70
     0
  9
$PDSIZE
 40
0.0
  9
$PLINEWID
 40
0.0
  9
$COORDS
 70
     1
  9
$SPLFRAME
 70
     0
  9
$SPLINETYPE
 70
     6
  9
$SPLINESEGS
 70
     8
  9
$ATTDIA
 70
     0
  9
$ATTREQ
 70
     1
  9
$HANDLING
 70
 22529
  9
$HANDSEED
  5
80A5
  9
$SURFTAB1
 70
     6
  9
$SURFTAB2
 70
     6
  9
$SURFTYPE
 70
     6
  9
$SURFU
 70
     6
  9
$SURFV
 70
     6
  9
$UCSNAME
  2

  9
$UCSORG
 10
0.0
 20
0.0
 30
0.0
  9
$UCSXDIR
 10
1.0
 20
0.0
 30
0.0
  9
$UCSYDIR
 10
0.0
 20
1.0
 30
0.0
  9
$PUCSNAME
  2

  9
$PUCSORG
 10
0.0
 20
0.0
 30
0.0
  9
$PUCSXDIR
 10
1.0
 20
0.0
 30
0.0
  9
$PUCSYDIR
 10
0.0
 20
1.0
 30
0.0
  9
$USERI1
 70
     0
  9
$USERI2
 70
     0
  9
$USERI3
 70
     0
  9
$USERI4
 70
     0
  9
$USERI5
 70
     0
  9
$USERR1
 40
0.0
  9
$USERR2
 40
0.0
  9
$USERR3
 40
0.0
  9
$USERR4
 40
0.0
  9
$USERR5
 40
0.0
  9
$WORLDVIEW
 70
     1
  9
$SHADEDGE
 70
     3
  9
$SHADEDIF
 70
    70
  9
$TILEMODE
 70
     1
  9
$MAXACTVP
 70
    48
  9
$PLIMCHECK
 70
     0
  9
$PEXTMIN
 10
1.0000000000000000E+020
 20
1.0000000000000000E+020
 30
1.0000000000000000E+020
  9
$PEXTMAX
 10
-1.0000000000000000E+020
 20
-1.0000000000000000E+020
 30
-1.0000000000000000E+020
  9
$PLIMMIN
 10
0.0
 20
0.0
  9
$PLIMMAX
 10
420.0
 20
297.0
  9
$UNITMODE
 70
     0
  9
$VISRETAIN
 70
     1
  9
$PLINEGEN
 70
     0
  9
$PSLTSCALE
 70
     1
  0
ENDSEC
  0
SECTION
  2
TABLES
  0
TABLE
  2
VPORT
 70
     2
  0
VPORT
  2
*ACTIVE
 70
     0
 10
0.0
 20
0.0
 11
1.0
 21
1.0
 12
-0.0003629570095427
 22
111.3415868324529
 13
0.0
 23
0.0
 14
2.5
 24
2.5
 15
10.0
 25
10.0
 16
0.0
 26
0.0
 36
1.0
 17
0.0
 27
0.0
 37
0.0
 40
475.87036947554799
 41
1.531806615776081
 42
50.0
 43
0.0
 44
0.0
 50
0.0
 51
0.0
 71
     0
 72
   100
 73
     1
 74
     3
 75
     0
 76
     0
 77
     0
 78
     0
  0
ENDTAB
  0
TABLE
  2
LTYPE
 70
     2
  0
LTYPE
  2
CONTINUOUS
 70
     0
  3
Solid line
 72
    65
 73
     0
 40
0.0
  0
LTYPE
  2
CENTER
 70
     0
  3
__ . __
 72
    65
 73
     4
 40
7.0
 49
4.0
 49
-1.0
 49
1.0
 49
-1.0
  0
ENDTAB
  0
TABLE
  2
LAYER
 70
     1
  0
LAYER
  2
0
 70
     0
 62
     7
  6
CONTINUOUS
  0
ENDTAB
  0
TABLE
  2
STYLE
 70
     2
  0
STYLE
  2
STANDARD
 70
     0
 40
0.0
 41
0.7
 50
0.0
 71
     0
 42
73.985717453579113
  3
romans.shx
  4
bigfont.shx
  0
STYLE
  2
TSKDIM
 70
     0
 40
0.0
 41
0.75
 50
0.0
 71
     0
 42
4.0
  3
romans.shx
  4
EXTFONT.SHX
  0
ENDTAB
  0
TABLE
  2
VIEW
 70
     0
  0
ENDTAB
  0
TABLE
  2
UCS
 70
     0
  0
ENDTAB
  0
TABLE
  2
APPID
 70
    41
  0
APPID
  2
ACAD
 70
     0
  0
APPID
  2
MCAD_NO_VIS
 70
     0
  0
APPID
  2
ACAD_TEMP_GRAPHIC
 70
     0
  0
APPID
  2
ACATTRIBSERVICES
 70
     0
  0
APPID
  2
AD_DRAW
 70
     0
  0
APPID
  2
DESIGNERASSEMBLIES
 70
     0
  0
APPID
  2
ASURF_PCURVE_APPNAME
 70
     0
  0
APPID
  2
ACADM_DIM_EDIT
 70
     0
  0
APPID
  2
GENIUS_GENDIM_13
 70
     0
  0
APPID
  2
GENIUS_GENDTOL_13
 70
     0
  0
APPID
  2
GENIUS_GE3DTOL_13
 70
     0
  0
APPID
  2
AMG_3D2D_5_0
 70
     0
  0
APPID
  2
AMDT_DM_ADJ
 70
     0
  0
APPID
  2
CK_MATE-SERIES
 70
     0
  0
APPID
  2
GEVID1042077799
 70
     0
  0
APPID
  2
GEVMK
 70
     0
  0
APPID
  2
GEVDC
 70
     0
  0
APPID
  2
GENIUS_GENBH_13
 70
     0
  0
APPID
  2
GENIUS_GENOLIS_13
 70
     0
  0
APPID
  2
GENIUS_GENOENT_13
 70
     0
  0
APPID
  2
GENIUS_GENODEF_13
 70
     0
  0
APPID
  2
GENIUS_GENOBJ-NBEHI-BHF_13
 70
     0
  0
APPID
  2
GENIUS_GENOREF_13
 70
     0
  0
APPID
  2
GENIUS_GENOBJ-NBEHI-BHB_13
 70
     0
  0
APPID
  2
GEVID1042183772
 70
     0
  0
APPID
  2
GEVID1042183773
 70
     0
  0
APPID
  2
GEVID1042183774
 70
     0
  0
APPID
  2
DCO15
 70
     0
  0
APPID
  2
ACAD_DSTYLE_DIMARC_LENGTH_
 70
     0
  0
APPID
  2
ACAD_DSTYLE_DIMJOGGED_JOGA
 70
     0
  0
APPID
  2
ACAD_MLEADERVER
 70
     0
  0
APPID
  2
ACAD_DSTYLE_DIMJAG
 70
     0
  0
APPID
  2
ACAD_DSTYLE_DIMTALN
 70
     0
  0
APPID
  2
ACAD_PSEXT
 70
     0
  0
APPID
  2
ACAD_EXEMPT_FROM_CAD_STANDARDS
 70
     0
  0
APPID
  2
ACAD_DSTYLE_DIMINSPECT
 70
     0
  0
APPID
  2
ACAD_DSTYLE_DIMANGULAR_EXT
 70
     0
  0
APPID
  2
GENIUS_GENOBJ-N-FIL_13
 70
     0
  0
APPID
  2
ACAD_DSTYLE_DIM_LINETYPE
 70
     0
  0
APPID
  2
ACAD_DSTYLE_DIM_EXT1_LINETYPE
 70
     0
  0
APPID
  2
ACAD_DSTYLE_DIM_EXT2_LINETYPE
 70
     0
  0
ENDTAB
  0
TABLE
  2
DIMSTYLE
 70
     1
  0
DIMSTYLE
  2
STANDARD
 70
     0
  3

  4

  5

  6

  7

 40
1.0
 41
0.18
 42
0.0625
 43
0.38
 44
0.18
 45
0.0
 46
0.0
 47
0.0
 48
0.0
140
30.0
141
0.09
142
0.0
143
25.399999999999999
144
1.0
145
0.0
146
1.0
147
0.09
 71
     0
 72
     0
 73
     1
 74
     1
 75
     0
 76
     0
 77
     0
 78
     0
170
     0
171
     2
172
     0
173
     0
174
     0
175
     0
176
     0
177
     0
178
     0
  0
ENDTAB
  0
ENDSEC
  0
SECTION
  2
BLOCKS
  0
BLOCK
  8
0
  2
$MODEL_SPACE
 70
     0
 10
0.0
 20
0.0
 30
0.0
  3
$MODEL_SPACE
  1

  0
ENDBLK
  5
21
  8
0
  0
BLOCK
 67
     1
  8
0
  2
$PAPER_SPACE
 70
     0
 10
0.0
 20
0.0
 30
0.0
  3
$PAPER_SPACE
  1

  0
ENDBLK
  5
1D
 67
     1
  8
0
  0
BLOCK
  8
0
  2
_OPEN
 70
     0
 10
0.0
 20
0.0
 30
0.0
  3
_OPEN
  1

  0
LINE
  5
15A
  8
0
  6
BYBLOCK
 62
     0
 10
-1.0
 20
0.1666666666666666
 30
0.0
 11
0.0
 21
0.0
 31
0.0
  0
LINE
  5
15B
  8
0
  6
BYBLOCK
 62
     0
 10
-1.0
 20
-0.1666666666666666
 30
0.0
 11
0.0
 21
0.0
 31
0.0
  0
LINE
  5
15C
  8
0
  6
BYBLOCK
 62
     0
 10
0.0
 20
0.0
 30
0.0
 11
-1.0
 21
0.0
 31
0.0
  0
ENDBLK
  5
15E
  8
0
  0
ENDSEC
  0
SECTION
  2
ENTITIES
  0
LINE
  5
7E95
  8
0
 10
-27.0
 20
-17.699999999999811
 30
0.0
 11
-22.0
 21
-17.699999999999811
 31
0.0
  0
LINE
  5
7E96
  8
0
 10
-27.0
 20
-14.699999999999809
 30
0.0
 11
27.0
 21
-14.699999999999809
 31
0.0
  0
LINE
  5
7E97
  8
0
 10
27.0
 20
-14.699999999999809
 30
0.0
 11
27.0
 21
-17.699999999999811
 31
0.0
  0
LINE
  5
7E98
  8
0
 10
-27.0
 20
-14.699999999999809
 30
0.0
 11
-27.0
 21
-17.699999999999811
 31
0.0
  0
LINE
  5
7E99
  8
0
 10
-19.77645699999993
 20
-22.300907999999701
 30
0.0
 11
-2.5882363000000619
 21
-26.906478999999759
 31
0.0
  0
LINE
  5
7E9A
  8
0
 10
-23.0
 20
-4.2999979999995039
 30
0.0
 11
-23.0
 21
-6.3999969999995301
 31
0.0
  0
LINE
  5
7E9B
  8
0
 10
-17.0
 20
-4.2999979999995039
 30
0.0
 11
-17.0
 21
-6.3999969999995301
 31
0.0
  0
LINE
  5
7E9C
  8
0
 10
19.77645699999993
 20
-22.300882999999882
 30
0.0
 11
2.588145300000178
 21
-26.906476999999541
 31
0.0
  0
LINE
  5
7E9D
  8
0
 10
-26.25
 20
-17.699999999999811
 30
0.0
 11
-26.25
 21
-19.299997999999501
 31
0.0
  0
LINE
  5
7E9E
  8
0
 10
-15.100046999999901
 20
-6.3999469999998828
 30
0.0
 11
-14.226516000000171
 21
-6.9042810000000818
 31
0.0
  0
LINE
  5
7E9F
  8
0
 10
-14.2265010000001
 20
-6.9043149999997686
 30
0.0
 11
-14.2265010000001
 21
-11.59999400000015
 31
0.0
  0
LINE
  5
7EA0
  8
0
 10
-24.899984000000131
 20
-6.4000729999997921
 30
0.0
 11
-25.773489000000151
 21
-6.9043910000000324
 31
0.0
  0
LINE
  5
7EA1
  8
0
 10
-17.113280999999908
 20
-6.9043149999997686
 30
0.0
 11
-17.113280999999908
 21
-11.59999400000015
 31
0.0
  0
LINE
  5
7EA2
  8
0
 10
-22.88677999999981
 20
-6.9043149999997686
 30
0.0
 11
-22.88677999999981
 21
-11.59999400000015
 31
0.0
  0
LINE
  5
7EA3
  8
0
 10
-15.10003700000015
 20
-6.3999969999995301
 30
0.0
 11
-24.90002400000003
 21
-6.3999969999995301
 31
0.0
  0
LINE
  5
7EA4
  8
0
 10
-25.773498999999902
 20
-6.9043149999997686
 30
0.0
 11
-25.773498999999902
 21
-11.59999400000015
 31
0.0
  0
LINE
  5
7EA5
  8
0
 10
-25.5
 20
-19.299997999999501
 30
0.0
 11
-25.5
 21
-20.799997999999501
 31
0.0
  0
LINE
  5
7EA6
  8
0
 10
-25.312592000000219
 20
-19.299997999999501
 30
0.0
 11
-25.312592000000219
 21
-20.799997999999501
 31
0.0
  0
LINE
  5
7EA7
  8
0
 10
-23.88909899999998
 20
-19.299997999999501
 30
0.0
 11
-23.88909899999998
 21
-20.799997999999501
 31
0.0
  0
LINE
  5
7EA8
  8
0
 10
-15.09999500000003
 20
-26.000097999999522
 30
0.0
 11
-14.22646299999996
 21
-25.495764999999661
 31
0.0
  0
LINE
  5
7EA9
  8
0
 10
-14.2265010000001
 20
-25.49567699999988
 30
0.0
 11
-14.2265010000001
 21
-23.78801500000008
 31
0.0
  0
LINE
  5
7EAA
  8
0
 10
-24.899981000000022
 20
-25.999965999999858
 30
0.0
 11
-25.773485000000161
 21
-25.495648999999499
 31
0.0
  0
LINE
  5
7EAB
  8
0
 10
-17.113280999999908
 20
-25.49567699999988
 30
0.0
 11
-17.113280999999908
 21
-23.014505000000089
 31
0.0
  0
LINE
  5
7EAC
  8
0
 10
-22.88677999999981
 20
-25.49567699999988
 30
0.0
 11
-22.88677999999981
 21
-20.799997999999501
 31
0.0
  0
LINE
  5
7EAD
  8
0
 10
-15.10003700000015
 20
-25.999995000000119
 30
0.0
 11
-24.90002400000003
 21
-25.999995000000119
 31
0.0
  0
LINE
  5
7EAE
  8
0
 10
-25.773498999999902
 20
-25.49567699999988
 30
0.0
 11
-25.773498999999902
 21
-20.799997999999501
 31
0.0
  0
LINE
  5
7EAF
  8
0
 10
-23.0
 20
-29.299997999999501
 30
0.0
 11
-17.0
 21
-29.299997999999501
 31
0.0
  0
LINE
  5
7EB0
  8
0
 10
-23.0
 20
-4.2999979999995039
 30
0.0
 11
-17.0
 21
-4.2999979999995039
 31
0.0
  0
LINE
  5
7EB1
  8
0
 10
-22.200011999999781
 20
-4.2999979999995039
 30
0.0
 11
-22.200011999999781
 21
-6.3999969999995301
 31
0.0
  0
LINE
  5
7EB2
  8
0
 10
-17.800017999999909
 20
-4.2999979999995039
 30
0.0
 11
-17.800017999999909
 21
-6.3999969999995301
 31
0.0
  0
LINE
  5
7EB3
  8
0
 10
-22.20002699999986
 20
-4.2999869999998728
 30
0.0
 11
-22.962112000000161
 21
-2.980013999999755
 31
0.0
  0
LINE
  5
7EB4
  8
0
 10
-17.80001099999981
 20
-4.2999949999998526
 30
0.0
 11
-16.93365499999981
 21
-2.7994220000000491
 31
0.0
  0
LINE
  5
7EB5
  8
0
 10
-22.200011999999781
 20
-25.999995000000119
 30
0.0
 11
-22.200011999999781
 21
-29.299997999999501
 31
0.0
  0
LINE
  5
7EB6
  8
0
 10
-23.0
 20
-25.999995000000119
 30
0.0
 11
-23.0
 21
-29.299997999999501
 31
0.0
  0
LINE
  5
7EB7
  8
0
 10
-17.0
 20
-25.999995000000119
 30
0.0
 11
-17.0
 21
-29.299997999999501
 31
0.0
  0
LINE
  5
7EB8
  8
0
 10
-17.800017999999909
 20
-25.999995000000119
 30
0.0
 11
-17.800017999999909
 21
-29.299997999999501
 31
0.0
  0
LINE
  5
7EB9
  8
0
 10
15.100007
 20
-26.000003999999532
 30
0.0
 11
14.22647599999982
 21
-25.495669999999791
 31
0.0
  0
LINE
  5
7EBA
  8
0
 10
14.2265010000001
 20
-25.49567699999988
 30
0.0
 11
14.2265010000001
 21
-23.787989999999802
 31
0.0
  0
LINE
  5
7EBB
  8
0
 10
24.900000000000091
 20
-26.00004699999954
 30
0.0
 11
25.773503999999772
 21
-25.495728999999749
 31
0.0
  0
LINE
  5
7EBC
  8
0
 10
17.113280999999908
 20
-25.49567699999988
 30
0.0
 11
17.113280999999908
 21
-23.014479999999821
 31
0.0
  0
LINE
  5
7EBD
  8
0
 10
22.88677999999981
 20
-25.49567699999988
 30
0.0
 11
22.88677999999981
 21
-20.799997999999501
 31
0.0
  0
LINE
  5
7EBE
  8
0
 10
15.10003700000015
 20
-25.999995000000119
 30
0.0
 11
24.90002400000003
 21
-25.999995000000119
 31
0.0
  0
LINE
  5
7EBF
  8
0
 10
25.773498999999902
 20
-25.49567699999988
 30
0.0
 11
25.773498999999902
 21
-20.799997999999501
 31
0.0
  0
LINE
  5
7EC0
  8
0
 10
15.100046999999901
 20
-6.4000539999997272
 30
0.0
 11
14.226516000000171
 21
-6.9043879999999263
 31
0.0
  0
LINE
  5
7EC1
  8
0
 10
14.2265010000001
 20
-6.9043149999997686
 30
0.0
 11
14.2265010000001
 21
-11.59999400000015
 31
0.0
  0
LINE
  5
7EC2
  8
0
 10
24.899973000000038
 20
-6.399985999999898
 30
0.0
 11
25.773478000000068
 21
-6.9043039999996827
 31
0.0
  0
LINE
  5
7EC3
  8
0
 10
17.113280999999908
 20
-6.9043149999997686
 30
0.0
 11
17.113280999999908
 21
-11.59999400000015
 31
0.0
  0
LINE
  5
7EC4
  8
0
 10
22.88677999999981
 20
-6.9043149999997686
 30
0.0
 11
22.88677999999981
 21
-11.59999400000015
 31
0.0
  0
LINE
  5
7EC5
  8
0
 10
15.10003700000015
 20
-6.3999969999995301
 30
0.0
 11
24.90002400000003
 21
-6.3999969999995301
 31
0.0
  0
LINE
  5
7EC6
  8
0
 10
25.773498999999902
 20
-6.9043149999997686
 30
0.0
 11
25.773498999999902
 21
-11.59999400000015
 31
0.0
  0
LINE
  5
7EC7
  8
0
 10
-26.25
 20
-19.299997999999501
 30
0.0
 11
-22.0
 21
-19.299997999999501
 31
0.0
  0
LINE
  5
7EC8
  8
0
 10
-25.773498999999902
 20
-20.799997999999501
 30
0.0
 11
-21.654949000000212
 21
-20.799997999999501
 31
0.0
  0
LINE
  5
7EC9
  8
0
 10
-26.25
 20
-14.699999999999809
 30
0.0
 11
-26.25
 21
-13.09999400000015
 31
0.0
  0
LINE
  5
7ECA
  8
0
 10
-25.5
 20
-13.09999400000015
 30
0.0
 11
-25.5
 21
-11.60000200000013
 31
0.0
  0
LINE
  5
7ECB
  8
0
 10
-25.312592000000219
 20
-13.09999400000015
 30
0.0
 11
-25.312592000000219
 21
-11.60000200000013
 31
0.0
  0
LINE
  5
7ECC
  8
0
 10
-23.88909899999998
 20
-13.09999400000015
 30
0.0
 11
-23.88909899999998
 21
-11.60000200000013
 31
0.0
  0
LINE
  5
7ECD
  8
0
 10
-21.423522999999928
 20
-13.09999400000015
 30
0.0
 11
-21.423522999999928
 21
-11.60000200000013
 31
0.0
  0
LINE
  5
7ECE
  8
0
 10
-26.25
 20
-13.09999400000015
 30
0.0
 11
-13.75
 21
-13.09999400000015
 31
0.0
  0
LINE
  5
7ECF
  8
0
 10
-13.75
 20
-14.699999999999809
 30
0.0
 11
-13.75
 21
-13.09999400000015
 31
0.0
  0
LINE
  5
7ED0
  8
0
 10
-14.5
 20
-13.09999400000015
 30
0.0
 11
-14.5
 21
-11.60000200000013
 31
0.0
  0
LINE
  5
7ED1
  8
0
 10
-18.5765080000001
 20
-13.09999400000015
 30
0.0
 11
-18.5765080000001
 21
-11.60000200000013
 31
0.0
  0
LINE
  5
7ED2
  8
0
 10
-14.68740799999977
 20
-13.09999400000015
 30
0.0
 11
-14.68740799999977
 21
-11.60000200000013
 31
0.0
  0
LINE
  5
7ED3
  8
0
 10
-16.110931000000161
 20
-13.09999400000015
 30
0.0
 11
-16.110931000000161
 21
-11.60000200000013
 31
0.0
  0
LINE
  5
7ED4
  8
0
 10
-25.773498999999902
 20
-11.60000200000013
 30
0.0
 11
-14.2265010000001
 21
-11.60000200000013
 31
0.0
  0
LINE
  5
7ED5
  8
0
 10
26.25
 20
-14.699999999999809
 30
0.0
 11
26.25
 21
-13.09999400000015
 31
0.0
  0
LINE
  5
7ED6
  8
0
 10
-9.5
 20
-25.054476999999672
 30
0.0
 11
-9.5
 21
-38.699999999999811
 31
0.0
  0
LINE
  5
7ED7
  8
0
 10
-9.5
 20
-38.699999999999811
 30
0.0
 11
9.5
 21
-38.699999999999811
 31
0.0
  0
LINE
  5
7ED8
  8
0
 10
9.5
 20
-25.054451999999849
 30
0.0
 11
9.5
 21
-38.699999999999811
 31
0.0
  0
LINE
  5
7ED9
  8
0
 10
-10.0
 20
-12.699999999999809
 30
0.0
 11
10.0
 21
-12.699999999999809
 31
0.0
  0
LINE
  5
7EDA
  8
0
  6
CENTER
 62
     0
 10
0.0
 20
-47.460690848567083
 30
0.0
 11
0.0
 21
23.617010046595158
 31
0.0
  0
LINE
  5
7EDB
  8
0
 10
11.0
 20
-13.699999999999809
 30
0.0
 11
11.0
 21
-14.699999999999809
 31
0.0
  0
LINE
  5
7EDC
  8
0
 10
-11.0
 20
-13.699999999999809
 30
0.0
 11
11.0
 21
-13.699999999999809
 31
0.0
  0
LINE
  5
7EDD
  8
0
 10
9.9999846999999136
 20
-12.69999199999984
 30
0.0
 11
10.999985999999801
 21
-13.699993999999601
 31
0.0
  0
LINE
  5
7EDE
  8
0
 10
-11.0
 20
-13.699999999999809
 30
0.0
 11
-11.0
 21
-14.699999999999809
 31
0.0
  0
LINE
  5
7EDF
  8
0
 10
-11.00002700000004
 20
-13.69998299999952
 30
0.0
 11
-10.00002600000016
 21
-12.699980999999751
 31
0.0
  0
LINE
  5
7EE0
  8
0
 10
17.799988000000209
 20
-25.999995000000119
 30
0.0
 11
17.799988000000209
 21
-29.299997999999501
 31
0.0
  0
LINE
  5
7EE1
  8
0
 10
26.25
 20
-19.299997999999501
 30
0.0
 11
21.998227999999919
 21
-19.299997999999501
 31
0.0
  0
LINE
  5
7EE2
  8
0
 10
26.25
 20
-17.699999999999811
 30
0.0
 11
26.25
 21
-19.299997999999501
 31
0.0
  0
LINE
  5
7EE3
  8
0
 10
25.5
 20
-19.299997999999501
 30
0.0
 11
25.5
 21
-20.799997999999501
 31
0.0
  0
LINE
  5
7EE4
  8
0
 10
25.312592000000219
 20
-19.299997999999501
 30
0.0
 11
25.312592000000219
 21
-20.799997999999501
 31
0.0
  0
LINE
  5
7EE5
  8
0
 10
23.88909899999998
 20
-19.299997999999501
 30
0.0
 11
23.88909899999998
 21
-20.799997999999501
 31
0.0
  0
LINE
  5
7EE6
  8
0
 10
23.0
 20
-29.299997999999501
 30
0.0
 11
17.0
 21
-29.299997999999501
 31
0.0
  0
LINE
  5
7EE7
  8
0
 10
22.199982000000091
 20
-25.999995000000119
 30
0.0
 11
22.199982000000091
 21
-29.299997999999501
 31
0.0
  0
LINE
  5
7EE8
  8
0
 10
23.0
 20
-25.999995000000119
 30
0.0
 11
23.0
 21
-29.299997999999501
 31
0.0
  0
LINE
  5
7EE9
  8
0
 10
17.0
 20
-25.999995000000119
 30
0.0
 11
17.0
 21
-29.299997999999501
 31
0.0
  0
LINE
  5
7EEA
  8
0
 10
26.25
 20
-13.09999400000015
 30
0.0
 11
13.75
 21
-13.09999400000015
 31
0.0
  0
LINE
  5
7EEB
  8
0
 10
13.75
 20
-14.699999999999809
 30
0.0
 11
13.75
 21
-13.09999400000015
 31
0.0
  0
LINE
  5
7EEC
  8
0
 10
14.5
 20
-13.09999400000015
 30
0.0
 11
14.5
 21
-11.60000200000013
 31
0.0
  0
LINE
  5
7EED
  8
0
 10
14.68740799999977
 20
-13.09999400000015
 30
0.0
 11
14.68740799999977
 21
-11.60000200000013
 31
0.0
  0
LINE
  5
7EEE
  8
0
 10
16.110931000000161
 20
-13.09999400000015
 30
0.0
 11
16.110931000000161
 21
-11.60000200000013
 31
0.0
  0
LINE
  5
7EEF
  8
0
 10
25.773498999999902
 20
-11.60000200000013
 30
0.0
 11
14.2265010000001
 21
-11.60000200000013
 31
0.0
  0
LINE
  5
7EF0
  8
0
 10
25.773498999999902
 20
-20.799997999999501
 30
0.0
 11
21.654938000000129
 21
-20.799997999999501
 31
0.0
  0
LINE
  5
7EF1
  8
0
 10
22.199994999999941
 20
-4.2999979999995039
 30
0.0
 11
22.962085999999989
 21
-2.9800179999997449
 31
0.0
  0
LINE
  5
7EF2
  8
0
 10
25.5
 20
-13.09999400000015
 30
0.0
 11
25.5
 21
-11.60000200000013
 31
0.0
  0
LINE
  5
7EF3
  8
0
 10
25.312592000000219
 20
-13.09999400000015
 30
0.0
 11
25.312592000000219
 21
-11.60000200000013
 31
0.0
  0
LINE
  5
7EF4
  8
0
 10
23.88909899999998
 20
-13.09999400000015
 30
0.0
 11
23.88909899999998
 21
-11.60000200000013
 31
0.0
  0
LINE
  5
7EF5
  8
0
 10
21.423522999999928
 20
-13.09999400000015
 30
0.0
 11
21.423522999999928
 21
-11.60000200000013
 31
0.0
  0
LINE
  5
7EF6
  8
0
 10
18.5765080000001
 20
-13.09999400000015
 30
0.0
 11
18.5765080000001
 21
-11.60000200000013
 31
0.0
  0
LINE
  5
7EF7
  8
0
 10
22.199982000000091
 20
-4.2999979999995039
 30
0.0
 11
22.199982000000091
 21
-6.3999969999995301
 31
0.0
  0
LINE
  5
7EF8
  8
0
 10
17.799988000000209
 20
-4.2999979999995039
 30
0.0
 11
17.799988000000209
 21
-6.3999969999995301
 31
0.0
  0
LINE
  5
7EF9
  8
0
 10
17.0
 20
-4.2999979999995039
 30
0.0
 11
17.0
 21
-6.3999969999995301
 31
0.0
  0
LINE
  5
7EFA
  8
0
 10
23.0
 20
-4.2999979999995039
 30
0.0
 11
23.0
 21
-6.3999969999995301
 31
0.0
  0
LINE
  5
7EFB
  8
0
 10
17.799985999999979
 20
-4.2999949999998526
 30
0.0
 11
16.93362999999999
 21
-2.7994220000000491
 31
0.0
  0
LINE
  5
7EFC
  8
0
 10
17.0
 20
-4.2999979999995039
 30
0.0
 11
23.0
 21
-4.2999979999995039
 31
0.0
  0
LINE
  5
7EFD
  8
0
 10
-22.0
 20
-14.699999999999809
 30
0.0
 11
-22.0
 21
-19.40313100000003
 31
0.0
  0
LINE
  5
7EFE
  8
0
 10
22.0
 20
-14.699999999999809
 30
0.0
 11
22.0
 21
-19.403105999999749
 31
0.0
  0
LINE
  5
7EFF
  8
0
 10
22.0
 20
-17.699999999999811
 30
0.0
 11
27.0
 21
-17.699999999999811
 31
0.0
  0
LINE
  5
7F00
  8
0
 10
-8.6000004000002264
 20
-41.699999999999818
 30
0.0
 11
8.6000004000002264
 21
-41.699999999999818
 31
0.0
  0
LINE
  5
7F01
  8
0
 10
-8.6000004000002264
 20
-38.699999999999811
 30
0.0
 11
-8.6000004000002264
 21
-41.699999999999818
 31
0.0
  0
LINE
  5
7F02
  8
0
 10
8.6000004000002264
 20
-38.699999999999811
 30
0.0
 11
8.6000004000002264
 21
-41.699999999999818
 31
0.0
  0
ARC
  5
7F03
  8
0
 10
0.0
 20
-4.2999979999995039
 30
0.0
 40
17.0
 50
0.0
 51
180.0
  0
ARC
  5
7F04
  8
0
 10
0.0
 20
-4.2999979999995039
 30
0.0
 40
23.0
 50
0.0
 51
180.000010000001
  0
ARC
  5
7F05
  8
0
 10
-24.330139000000141
 20
-8.7176540000000386
 30
0.0
 40
2.3176581999999999
 50
51.481072000003543
 51
111.4810500000047
  0
ARC
  5
7F06
  8
0
 10
-15.66986099999985
 20
-8.7176540000000386
 30
0.0
 40
2.3176581999999999
 50
68.518925000011023
 51
128.5189899999958
  0
ARC
  5
7F07
  8
0
 10
-20.0
 20
-14.914141999999631
 30
0.0
 40
8.5141573000000008
 50
70.180811000005988
 51
109.8191899999899
  0
ARC
  5
7F08
  8
0
 10
-24.330139000000141
 20
-23.682337999999611
 30
0.0
 40
2.3176581999999999
 50
248.51896000000721
 51
308.51895999999039
  0
ARC
  5
7F09
  8
0
 10
-15.66986099999985
 20
-23.682337999999611
 30
0.0
 40
2.3176581999999999
 50
231.4810400000095
 51
291.48106999999499
  0
ARC
  5
7F0A
  8
0
 10
-20.0
 20
-17.485850999999911
 30
0.0
 40
8.5141573000000008
 50
250.18081000001001
 51
289.81918999998999
  0
ARC
  5
7F0B
  8
0
 10
20.0
 20
-14.914141999999631
 30
0.0
 40
8.5141573000000008
 50
70.180811000005988
 51
109.8191899999899
  0
ARC
  5
7F0C
  8
0
 10
20.0
 20
-17.485850999999911
 30
0.0
 40
8.5141573000000008
 50
250.18081000001001
 51
289.81918999998999
  0
ARC
  5
7F0D
  8
0
 10
24.330139000000141
 20
-23.682337999999611
 30
0.0
 40
2.3176581999999999
 50
231.4810400000095
 51
291.48103999999262
  0
ARC
  5
7F0E
  8
0
 10
15.66986099999985
 20
-23.682337999999611
 30
0.0
 40
2.3176581999999999
 50
248.5189300000049
 51
308.51895999999039
  0
ARC
  5
7F0F
  8
0
 10
24.330139000000141
 20
-8.7176540000000386
 30
0.0
 40
2.3176581999999999
 50
68.518946999987293
 51
128.5189899999958
  0
ARC
  5
7F10
  8
0
 10
15.66986099999985
 20
-8.7176540000000386
 30
0.0
 40
2.3176581999999999
 50
51.481013000007067
 51
111.481069999995
  0
ARC
  5
7F11
  8
0
 10
-0.0000452755230071
 20
-17.247219999999739
 30
0.0
 40
10.0
 50
255.00000000000551
 51
284.99999999999437
  0
ARC
  5
7F12
  8
0
 10
-19.0
 20
-19.40313100000003
 30
0.0
 40
3.0
 50
180.0
 51
255.00000999999801
  0
ARC
  5
7F13
  8
0
 10
19.0
 20
-19.403105999999749
 30
0.0
 40
3.0
 50
284.99999000000179
 51
0.0
  0
LINE
  5
7F14
  8
0
 10
111.9680052033509
 20
-17.699999999999811
 30
0.0
 11
111.9680052033509
 21
-38.699999999999811
 31
0.0
  0
LINE
  5
7F15
  8
0
 10
111.9680052033509
 20
-38.699999999999811
 30
0.0
 11
130.96800520335091
 21
-38.699999999999811
 31
0.0
  0
LINE
  5
7F16
  8
0
 10
130.96800520335091
 20
-17.699999999999811
 30
0.0
 11
130.96800520335091
 21
-38.699999999999811
 31
0.0
  0
LINE
  5
7F17
  8
0
 10
111.4680052033509
 20
-12.699999999999809
 30
0.0
 11
115.9680052033509
 21
-12.699999999999809
 31
0.0
  0
LINE
  5
7F18
  8
0
 10
132.46800520335091
 20
-13.699999999999809
 30
0.0
 11
132.46800520335091
 21
-27.24723399999948
 31
0.0
  0
LINE
  5
7F19
  8
0
 10
110.4680052033509
 20
-13.699999999999809
 30
0.0
 11
115.2180052033509
 21
-13.699999999999809
 31
0.0
  0
LINE
  5
7F1A
  8
0
 10
131.46800330335091
 20
-12.700007999999791
 30
0.0
 11
132.46800520335091
 21
-13.700007999999791
 31
0.0
  0
LINE
  5
7F1B
  8
0
 10
110.4680052033509
 20
-13.699999999999809
 30
0.0
 11
110.4680052033509
 21
-27.24723399999948
 31
0.0
  0
LINE
  5
7F1C
  8
0
 10
110.46799120335071
 20
-13.699995999999819
 30
0.0
 11
111.467992203351
 21
-12.699995999999819
 31
0.0
  0
LINE
  5
7F1D
  8
0
 10
124.4680052033509
 20
-29.299997999999501
 30
0.0
 11
118.4680052033509
 21
-29.299997999999501
 31
0.0
  0
LINE
  5
7F1E
  8
0
 10
123.6680021033507
 20
-25.999995000000119
 30
0.0
 11
123.6680021033507
 21
-29.299997999999501
 31
0.0
  0
LINE
  5
7F1F
  8
0
 10
124.4680052033509
 20
-25.999995000000119
 30
0.0
 11
124.4680052033509
 21
-29.299997999999501
 31
0.0
  0
LINE
  5
7F20
  8
0
 10
118.4680052033509
 20
-25.999995000000119
 30
0.0
 11
118.4680052033509
 21
-29.299997999999501
 31
0.0
  0
LINE
  5
7F21
  8
0
 10
119.2679930033509
 20
-25.999995000000119
 30
0.0
 11
119.2679930033509
 21
-29.299997999999501
 31
0.0
  0
LINE
  5
7F22
  8
0
 10
123.6680021033507
 20
-4.2999979999995039
 30
0.0
 11
123.6680021033507
 21
-6.3999969999995301
 31
0.0
  0
LINE
  5
7F23
  8
0
 10
119.2679930033509
 20
-4.2999979999995039
 30
0.0
 11
119.2679930033509
 21
-6.3999969999995301
 31
0.0
  0
LINE
  5
7F24
  8
0
 10
118.4680052033509
 20
15.70000200000049
 30
0.0
 11
118.4680052033509
 21
-6.3999969999995301
 31
0.0
  0
LINE
  5
7F25
  8
0
 10
124.4680052033509
 20
15.70000200000049
 30
0.0
 11
124.4680052033509
 21
-6.3999969999995301
 31
0.0
  0
LINE
  5
7F26
  8
0
 10
119.2680075033508
 20
-4.3000019999999486
 30
0.0
 11
118.4016516033507
 21
-2.799430000000029
 31
0.0
  0
LINE
  5
7F27
  8
0
 10
118.4680052033509
 20
-4.2999979999995039
 30
0.0
 11
124.4680052033509
 21
-4.2999979999995039
 31
0.0
  0
LINE
  5
7F28
  8
0
 10
123.668005003351
 20
-4.2999949999998526
 30
0.0
 11
124.430095703351
 21
-2.9800179999997449
 31
0.0
  0
LINE
  5
7F29
  8
0
 10
127.7180052033509
 20
-19.299997999999501
 30
0.0
 11
115.2180052033509
 21
-19.299997999999501
 31
0.0
  0
LINE
  5
7F2A
  8
0
 10
126.9680052033509
 20
-13.09999400000015
 30
0.0
 11
126.9680052033509
 21
-11.60000200000013
 31
0.0
  0
LINE
  5
7F2B
  8
0
 10
126.7805968033508
 20
-13.09999400000015
 30
0.0
 11
126.7805968033508
 21
-11.60000200000013
 31
0.0
  0
LINE
  5
7F2C
  8
0
 10
125.3571043033507
 20
-13.09999400000015
 30
0.0
 11
125.3571043033507
 21
-11.60000200000013
 31
0.0
  0
LINE
  5
7F2D
  8
0
 10
122.89152810335089
 20
-13.09999400000015
 30
0.0
 11
122.89152810335089
 21
-11.60000200000013
 31
0.0
  0
LINE
  5
7F2E
  8
0
 10
127.7180052033509
 20
-13.09999400000015
 30
0.0
 11
115.2180052033509
 21
-13.09999400000015
 31
0.0
  0
LINE
  5
7F2F
  8
0
 10
115.2180052033509
 20
-14.699999999999809
 30
0.0
 11
115.2180052033509
 21
-13.09999400000015
 31
0.0
  0
LINE
  5
7F30
  8
0
 10
115.9680052033509
 20
-13.09999400000015
 30
0.0
 11
115.9680052033509
 21
-11.60000200000013
 31
0.0
  0
LINE
  5
7F31
  8
0
 10
120.0445128033507
 20
-13.09999400000015
 30
0.0
 11
120.0445128033507
 21
-11.60000200000013
 31
0.0
  0
LINE
  5
7F32
  8
0
 10
116.15541360335099
 20
-13.09999400000015
 30
0.0
 11
116.15541360335099
 21
-11.60000200000013
 31
0.0
  0
LINE
  5
7F33
  8
0
 10
117.5789366033509
 20
-13.09999400000015
 30
0.0
 11
117.5789366033509
 21
-11.60000200000013
 31
0.0
  0
LINE
  5
7F34
  8
0
 10
127.7180052033509
 20
-17.699999999999811
 30
0.0
 11
127.7180052033509
 21
-19.299997999999501
 31
0.0
  0
LINE
  5
7F35
  8
0
 10
115.2180052033509
 20
-17.699999999999811
 30
0.0
 11
115.2180052033509
 21
-19.299997999999501
 31
0.0
  0
LINE
  5
7F36
  8
0
 10
126.9680052033509
 20
-19.299997999999501
 30
0.0
 11
126.9680052033509
 21
-20.799997999999501
 31
0.0
  0
LINE
  5
7F37
  8
0
 10
115.9680052033509
 20
-19.299997999999501
 30
0.0
 11
115.9680052033509
 21
-20.799997999999501
 31
0.0
  0
LINE
  5
7F38
  8
0
 10
126.7805968033508
 20
-19.299997999999501
 30
0.0
 11
126.7805968033508
 21
-20.799997999999501
 31
0.0
  0
LINE
  5
7F39
  8
0
 10
125.3571043033507
 20
-19.299997999999501
 30
0.0
 11
125.3571043033507
 21
-20.799997999999501
 31
0.0
  0
LINE
  5
7F3A
  8
0
 10
122.89152810335089
 20
-19.299997999999501
 30
0.0
 11
122.89152810335089
 21
-20.799997999999501
 31
0.0
  0
LINE
  5
7F3B
  8
0
 10
120.0445128033507
 20
-19.299997999999501
 30
0.0
 11
120.0445128033507
 21
-20.799997999999501
 31
0.0
  0
LINE
  5
7F3C
  8
0
 10
116.15541360335099
 20
-19.299997999999501
 30
0.0
 11
116.15541360335099
 21
-20.799997999999501
 31
0.0
  0
LINE
  5
7F3D
  8
0
 10
117.5789366033509
 20
-19.299997999999501
 30
0.0
 11
117.5789366033509
 21
-20.799997999999501
 31
0.0
  0
LINE
  5
7F3E
  8
0
 10
107.4680052033509
 20
-27.24723399999948
 30
0.0
 11
110.4680052033509
 21
-27.24723399999948
 31
0.0
  0
LINE
  5
7F3F
  8
0
 10
110.4680052033509
 20
-14.699999999999809
 30
0.0
 11
132.46800520335091
 21
-14.699999999999809
 31
0.0
  0
LINE
  5
7F40
  8
0
 10
107.4680052033509
 20
-17.699999999999811
 30
0.0
 11
107.4680052033509
 21
-27.24723399999948
 31
0.0
  0
LINE
  5
7F41
  8
0
 10
135.46800520335091
 20
-17.699999999999811
 30
0.0
 11
135.46800520335091
 21
-27.24723399999948
 31
0.0
  0
LINE
  5
7F42
  8
0
 10
110.4680052033509
 20
-17.699999999999811
 30
0.0
 11
132.46800520335091
 21
-17.699999999999811
 31
0.0
  0
LINE
  5
7F43
  8
0
 10
132.46800520335091
 20
-27.24723399999948
 30
0.0
 11
135.46800520335091
 21
-27.24723399999948
 31
0.0
  0
LINE
  5
7F44
  8
0
 10
127.7180052033509
 20
-14.699999999999809
 30
0.0
 11
127.7180052033509
 21
-13.09999400000015
 31
0.0
  0
LINE
  5
7F45
  8
0
 10
127.7180052033509
 20
-13.699999999999809
 30
0.0
 11
132.46800520335091
 21
-13.699999999999809
 31
0.0
  0
LINE
  5
7F46
  8
0
 10
126.9680052033509
 20
-12.699999999999809
 30
0.0
 11
131.46800520335091
 21
-12.699999999999809
 31
0.0
  0
LINE
  5
7F47
  8
0
 10
121.4680052033509
 20
-25.495691999999501
 30
0.0
 11
121.4680052033509
 21
-20.799997999999501
 31
0.0
  0
LINE
  5
7F48
  8
0
 10
116.4680052033509
 20
-25.495691999999501
 30
0.0
 11
116.4680052033509
 21
-20.799997999999501
 31
0.0
  0
LINE
  5
7F49
  8
0
 10
117.34147410335071
 20
-25.999995000000119
 30
0.0
 11
116.46796940335069
 21
-25.49567699999988
 31
0.0
  0
LINE
  5
7F4A
  8
0
 10
125.59447000335101
 20
-25.999995000000119
 30
0.0
 11
117.3414793033507
 21
-25.999995000000119
 31
0.0
  0
LINE
  5
7F4B
  8
0
 10
126.4680052033509
 20
-25.495691999999501
 30
0.0
 11
126.4680052033509
 21
-20.799997999999501
 31
0.0
  0
LINE
  5
7F4C
  8
0
 10
125.5945015033507
 20
-26.000014999999621
 30
0.0
 11
126.4680329033508
 21
-25.49568099999987
 31
0.0
  0
LINE
  5
7F4D
  8
0
 10
115.9680052033509
 20
-20.799997999999501
 30
0.0
 11
126.9680052033509
 21
-20.799997999999501
 31
0.0
  0
LINE
  5
7F4E
  8
0
 10
121.4680052033509
 20
-6.9043000000001484
 30
0.0
 11
121.4680052033509
 21
-11.60000200000013
 31
0.0
  0
LINE
  5
7F4F
  8
0
 10
116.4680052033509
 20
-6.9043000000001484
 30
0.0
 11
116.4680052033509
 21
-11.60000200000013
 31
0.0
  0
LINE
  5
7F50
  8
0
 10
117.34148890335101
 20
-6.4000200000000396
 30
0.0
 11
116.46798420335099
 21
-6.9043379999998251
 31
0.0
  0
LINE
  5
7F51
  8
0
 10
125.59447000335101
 20
-6.3999969999995301
 30
0.0
 11
117.3414793033507
 21
-6.3999969999995301
 31
0.0
  0
LINE
  5
7F52
  8
0
 10
126.4680052033509
 20
-6.9043000000001484
 30
0.0
 11
126.4680052033509
 21
-11.60000200000013
 31
0.0
  0
LINE
  5
7F53
  8
0
 10
125.5944867033508
 20
-6.4000009999999738
 30
0.0
 11
126.4680181033509
 21
-6.9043339999998352
 31
0.0
  0
LINE
  5
7F54
  8
0
 10
115.9680052033509
 20
-11.60000200000013
 30
0.0
 11
126.9680052033509
 21
-11.60000200000013
 31
0.0
  0
LINE
  5
7F55
  8
0
 10
112.8680048033506
 20
-41.699999999999818
 30
0.0
 11
130.06800560335111
 21
-41.699999999999818
 31
0.0
  0
LINE
  5
7F56
  8
0
 10
130.06800560335111
 20
-41.699999999999818
 30
0.0
 11
130.06800560335111
 21
-38.699999999999811
 31
0.0
  0
LINE
  5
7F57
  8
0
 10
112.8680048033506
 20
-41.699999999999818
 30
0.0
 11
112.8680048033506
 21
-38.699999999999811
 31
0.0
  0
ARC
  5
7F58
  8
0
 10
132.46800520335091
 20
-17.699999999999811
 30
0.0
 40
3.0
 50
0.0
 51
90.0
  0
ARC
  5
7F59
  8
0
 10
110.4680052033509
 20
-17.699999999999811
 30
0.0
 40
3.0
 50
90.0
 51
180.0
  0
ARC
  5
7F5A
  8
0
 10
111.4680052033509
 20
-18.699999999999811
 30
0.0
 40
1.0
 50
90.0
 51
180.0
  0
ARC
  5
7F5B
  8
0
 10
131.46800520335091
 20
-18.699999999999811
 30
0.0
 40
1.0
 50
0.0
 51
90.0
  0
ARC
  5
7F5C
  8
0
 10
121.4680052033509
 20
15.70000200000049
 30
0.0
 40
3.0
 50
0.0
 51
180.0
  0
ARC
  5
7F5D
  8
0
 10
118.9680052033509
 20
-19.551340999999859
 30
0.0
 40
6.448658
 50
247.18992999999529
 51
292.8100700000046
  0
ARC
  5
7F5E
  8
0
 10
123.9680052033509
 20
-19.551340999999859
 30
0.0
 40
6.448658
 50
247.18992999999529
 51
292.8100700000046
  0
ARC
  5
7F5F
  8
0
 10
118.9680052033509
 20
-12.848650999999791
 30
0.0
 40
6.448658
 50
67.189926000007688
 51
112.8100700000046
  0
ARC
  5
7F60
  8
0
 10
123.9680052033509
 20
-12.848650999999791
 30
0.0
 40
6.448658
 50
67.189923999994903
 51
112.8100700000046
  0
LINE
  5
7F61
  8
0
 10
-27.0
 20
130.50815586478799
 30
0.0
 11
-27.0
 21
118.50815586478799
 31
0.0
  0
LINE
  5
7F62
  8
0
 10
27.0
 20
130.50815586478799
 30
0.0
 11
27.0
 21
118.50815586478799
 31
0.0
  0
LINE
  5
7F63
  8
0
 10
-22.0
 20
138.50815586478799
 30
0.0
 11
22.0
 21
138.50815586478799
 31
0.0
  0
LINE
  5
7F64
  8
0
 10
-22.0
 20
110.50815586478799
 30
0.0
 11
22.0
 21
110.50815586478799
 31
0.0
  0
LINE
  5
7F65
  8
0
 10
-22.0
 20
138.50815586478799
 30
0.0
 11
-22.0
 21
135.50815586478799
 31
0.0
  0
LINE
  5
7F66
  8
0
 10
22.0
 20
138.50815586478799
 30
0.0
 11
22.0
 21
135.50815586478799
 31
0.0
  0
LINE
  5
7F67
  8
0
 10
-22.0
 20
113.50815586478799
 30
0.0
 11
-22.0
 21
110.50815586478799
 31
0.0
  0
LINE
  5
7F68
  8
0
 10
22.0
 20
113.50815586478799
 30
0.0
 11
22.0
 21
110.50815586478799
 31
0.0
  0
LINE
  5
7F69
  8
0
 10
-20.0
 20
127.50815586478799
 30
0.0
 11
20.0
 21
127.50815586478799
 31
0.0
  0
LINE
  5
7F6A
  8
0
 10
-20.0
 20
121.50815586478799
 30
0.0
 11
20.0
 21
121.50815586478799
 31
0.0
  0
LINE
  5
7F6B
  8
0
 10
-22.886748999999782
 20
129.50815586478799
 30
0.0
 11
-17.113251000000218
 21
129.50815586478799
 31
0.0
  0
LINE
  5
7F6C
  8
0
 10
-17.11326599999984
 20
129.50815346478791
 30
0.0
 11
-15.958572
 21
127.5081651647878
 31
0.0
  0
LINE
  5
7F6D
  8
0
 10
-15.95855500000016
 20
121.50815276478799
 30
0.0
 11
-17.113255000000201
 21
119.5081529647877
 31
0.0
  0
LINE
  5
7F6E
  8
0
 10
-17.113251000000218
 20
119.50815586478799
 30
0.0
 11
-22.886748999999782
 21
119.50815586478799
 31
0.0
  0
LINE
  5
7F6F
  8
0
 10
-22.88676299999997
 20
119.50814106478811
 30
0.0
 11
-25.773537000000029
 21
124.5081585861989
 31
0.0
  0
LINE
  5
7F70
  8
0
 10
-25.773522999999841
 20
124.50816006543479
 30
0.0
 11
-22.886761000000199
 21
129.5081591647876
 31
0.0
  0
LINE
  5
7F71
  8
0
 10
22.886748999999782
 20
129.50815586478799
 30
0.0
 11
17.113251000000218
 21
129.50815586478799
 31
0.0
  0
LINE
  5
7F72
  8
0
 10
17.113241000000009
 20
129.5081553647878
 30
0.0
 11
15.958540999999959
 21
127.50815396478809
 31
0.0
  0
LINE
  5
7F73
  8
0
 10
25.77350599999999
 20
124.5081461435875
 30
0.0
 11
22.886731999999942
 21
129.50816306478819
 31
0.0
  0
LINE
  5
7F74
  8
0
 10
22.886744999999792
 20
119.5081568647883
 30
0.0
 11
25.77350800000022
 21
124.5081543381302
 31
0.0
  0
LINE
  5
7F75
  8
0
 10
17.113251000000218
 20
119.50815586478799
 30
0.0
 11
22.886748999999782
 21
119.50815586478799
 31
0.0
  0
LINE
  5
7F76
  8
0
 10
15.958536000000089
 20
121.5081715647879
 30
0.0
 11
17.113244999999999
 21
119.5081568647883
 31
0.0
  0
ARC
  5
7F77
  8
0
 10
-22.0
 20
130.50815586478799
 30
0.0
 40
5.0
 50
90.0
 51
180.000010000001
  0
ARC
  5
7F78
  8
0
 10
-22.0
 20
118.50815586478799
 30
0.0
 40
5.0
 50
179.99998999999889
 51
270.0
  0
ARC
  5
7F79
  8
0
 10
22.0
 20
118.50815586478799
 30
0.0
 40
5.0
 50
270.0
 51
0.0
  0
ARC
  5
7F7A
  8
0
 10
22.0
 20
130.50815586478799
 30
0.0
 40
5.0
 50
0.0
 51
90.0
  0
ARC
  5
7F7B
  8
0
 10
0.0
 20
124.50815586478799
 30
0.0
 40
10.0
 50
197.45759999998239
 51
342.54240000001761
  0
ARC
  5
7F7C
  8
0
 10
20.0
 20
124.50815586478799
 30
0.0
 40
3.0
 50
270.0
 51
90.0
  0
ARC
  5
7F7D
  8
0
 10
-20.0
 20
124.50815586478799
 30
0.0
 40
3.0
 50
90.0
 51
270.0
  0
ARC
  5
7F7E
  8
0
 10
-20.0
 20
124.50815586478799
 30
0.0
 40
5.0
 50
36.869897999995409
 51
323.13010000001481
  0
ARC
  5
7F7F
  8
0
 10
0.0
 20
124.50815586478799
 30
0.0
 40
11.0
 50
195.8266199999963
 51
344.17338000000359
  0
ARC
  5
7F80
  8
0
 10
0.0
 20
124.50815586478799
 30
0.0
 40
10.0
 50
17.45760200001261
 51
162.54240000001761
  0
ARC
  5
7F81
  8
0
 10
0.0
 20
124.50815586478799
 30
0.0
 40
11.0
 50
15.826621000016271
 51
164.17338000000359
  0
ARC
  5
7F82
  8
0
 10
-20.0
 20
124.50815586478799
 30
0.0
 40
6.25
 50
28.685401000005552
 51
331.31460999999598
  0
ARC
  5
7F83
  8
0
 10
20.0
 20
124.50815586478799
 30
0.0
 40
5.0
 50
216.86989999998511
 51
143.13010000001469
  0
ARC
  5
7F84
  8
0
 10
20.0
 20
124.50815586478799
 30
0.0
 40
6.25
 50
208.68539999999629
 51
151.31460000000359
  0
LINE
  5
7F95
  8
0
  6
CENTER
 62
     0
 10
0.0
 20
89.928172246221038
 30
0.0
 11
0.0
 21
159.08813948335501
 31
0.0
  0
LINE
  5
7F96
  8
0
  6
CENTER
 62
     0
 10
-33.461524887681662
 20
124.50815586478799
 30
0.0
 11
33.461524887681207
 21
124.50815586478799
 31
0.0
  0
LINE
  5
7F97
  8
0
  6
CENTER
 62
     0
 10
-25.466880826291341
 20
0.0
 30
0.0
 11
25.466880826291341
 21
0.0
 31
0.0
  0
LINE
  5
7F98
  8
0
  6
CENTER
 62
     0
 10
121.4680052033509
 20
-47.460690848567083
 30
0.0
 11
121.4680052033509
 21
23.617010046595158
 31
0.0
  0
LINE
  5
7FB3
  8
0
  6
CENTER
 62
     0
 10
96.001124377059568
 20
0.0
 30
0.0
 11
146.9348860296422
 21
0.0
 31
0.0
  0
TEXT
  5
7FBE
  8
0
 10
-372.14288214285762
 20
220.12708766349391
 30
0.0
 40
50.0
  1
P-SUPPORT-UB 1S
 72
     4
 11
-0.0000250000002779
 21
245.12708766349391
 31
0.0
  0
ENDSEC
  0
EOF
