  0
SECTION
  2
HEADER
  9
$ACADVER
  1
AC1009
  9
$INSBASE
 10
0.0
 20
0.0
 30
0.0
  9
$EXTMIN
 10
-147.2835174494663
 20
-90.728412658428965
 30
0.0
  9
$EXTMAX
 10
229.28791112196211
 20
245.9593211379277
 30
0.0
  9
$LIMMIN
 10
0.0
 20
0.0
  9
$LIMMAX
 10
420.0
 20
297.0
  9
$ORTHOMODE
 70
     0
  9
$REGENMODE
 70
     1
  9
$FILLMODE
 70
     1
  9
$QTEXTMODE
 70
     0
  9
$MIRRTEXT
 70
     1
  9
$DRAGMODE
 70
     2
  9
$LTSCALE
 40
1.0
  9
$OSMODE
 70
    37
  9
$ATTMODE
 70
     1
  9
$TEXTSIZE
 40
73.985717453579113
  9
$TRACEWID
 40
1.0
  9
$TEXTSTYLE
  7
STANDARD
  9
$CLAYER
  8
0
  9
$CELTYPE
  6
BYLAYER
  9
$CECOLOR
 62
   256
  9
$DIMSCALE
 40
1.0
  9
$DIMASZ
 40
0.18
  9
$DIMEXO
 40
0.0625
  9
$DIMDLI
 40
0.38
  9
$DIMRND
 40
0.0
  9
$DIMDLE
 40
0.0
  9
$DIMEXE
 40
0.18
  9
$DIMTP
 40
0.0
  9
$DIMTM
 40
0.0
  9
$DIMTXT
 40
0.18
  9
$DIMCEN
 40
0.09
  9
$DIMTSZ
 40
0.0
  9
$DIMTOL
 70
     0
  9
$DIMLIM
 70
     0
  9
$DIMTIH
 70
     1
  9
$DIMTOH
 70
     1
  9
$DIMSE1
 70
     0
  9
$DIMSE2
 70
     0
  9
$DIMTAD
 70
     0
  9
$DIMZIN
 70
     0
  9
$DIMBLK
  1

  9
$DIMASO
 70
     1
  9
$DIMSHO
 70
     1
  9
$DIMPOST
  1

  9
$DIMAPOST
  1

  9
$DIMALT
 70
     0
  9
$DIMALTD
 70
     2
  9
$DIMALTF
 40
25.399999999999999
  9
$DIMLFAC
 40
1.0
  9
$DIMTOFL
 70
     0
  9
$DIMTVP
 40
0.0
  9
$DIMTIX
 70
     0
  9
$DIMSOXD
 70
     0
  9
$DIMSAH
 70
     0
  9
$DIMBLK1
  1

  9
$DIMBLK2
  1

  9
$DIMSTYLE
  2
STANDARD
  9
$DIMCLRD
 70
     0
  9
$DIMCLRE
 70
     0
  9
$DIMCLRT
 70
     0
  9
$DIMTFAC
 40
1.0
  9
$DIMGAP
 40
0.09
  9
$LUNITS
 70
     2
  9
$LUPREC
 70
     8
  9
$SKETCHINC
 40
1.0
  9
$FILLETRAD
 40
0.0
  9
$AUNITS
 70
     0
  9
$AUPREC
 70
     8
  9
$MENU
  1
.
  9
$ELEVATION
 40
0.0
  9
$PELEVATION
 40
0.0
  9
$THICKNESS
 40
0.0
  9
$LIMCHECK
 70
     0
  9
$BLIPMODE
 70
     0
  9
$CHAMFERA
 40
2.5
  9
$CHAMFERB
 40
2.5
  9
$SKPOLY
 70
     0
  9
$TDCREATE
 40
2454749.4701119331
  9
$TDUPDATE
 40
2454749.756388518
  9
$TDINDWG
 40
0.1756694792
  9
$TDUSRTIMER
 40
0.1756689468
  9
$USRTIMER
 70
     1
  9
$ANGBASE
 50
0.0
  9
$ANGDIR
 70
     1
  9
$PDMODE
 70
     0
  9
$PDSIZE
 40
0.0
  9
$PLINEWID
 40
0.0
  9
$COORDS
 70
     1
  9
$SPLFRAME
 70
     0
  9
$SPLINETYPE
 70
     6
  9
$SPLINESEGS
 70
     8
  9
$ATTDIA
 70
     0
  9
$ATTREQ
 70
     1
  9
$HANDLING
 70
 22529
  9
$HANDSEED
  5
10C99
  9
$SURFTAB1
 70
     6
  9
$SURFTAB2
 70
     6
  9
$SURFTYPE
 70
     6
  9
$SURFU
 70
     6
  9
$SURFV
 70
     6
  9
$UCSNAME
  2

  9
$UCSORG
 10
0.0
 20
0.0
 30
0.0
  9
$UCSXDIR
 10
1.0
 20
0.0
 30
0.0
  9
$UCSYDIR
 10
0.0
 20
1.0
 30
0.0
  9
$PUCSNAME
  2

  9
$PUCSORG
 10
0.0
 20
0.0
 30
0.0
  9
$PUCSXDIR
 10
1.0
 20
0.0
 30
0.0
  9
$PUCSYDIR
 10
0.0
 20
1.0
 30
0.0
  9
$USERI1
 70
     0
  9
$USERI2
 70
     0
  9
$USERI3
 70
     0
  9
$USERI4
 70
     0
  9
$USERI5
 70
     0
  9
$USERR1
 40
0.0
  9
$USERR2
 40
0.0
  9
$USERR3
 40
0.0
  9
$USERR4
 40
0.0
  9
$USERR5
 40
0.0
  9
$WORLDVIEW
 70
     1
  9
$SHADEDGE
 70
     3
  9
$SHADEDIF
 70
    70
  9
$TILEMODE
 70
     1
  9
$MAXACTVP
 70
    48
  9
$PLIMCHECK
 70
     0
  9
$PEXTMIN
 10
1.0000000000000000E+020
 20
1.0000000000000000E+020
 30
1.0000000000000000E+020
  9
$PEXTMAX
 10
-1.0000000000000000E+020
 20
-1.0000000000000000E+020
 30
-1.0000000000000000E+020
  9
$PLIMMIN
 10
0.0
 20
0.0
  9
$PLIMMAX
 10
420.0
 20
297.0
  9
$UNITMODE
 70
     0
  9
$VISRETAIN
 70
     1
  9
$PLINEGEN
 70
     0
  9
$PSLTSCALE
 70
     1
  0
ENDSEC
  0
SECTION
  2
TABLES
  0
TABLE
  2
VPORT
 70
     2
  0
VPORT
  2
*ACTIVE
 70
     0
 10
0.0
 20
0.0
 11
1.0
 21
1.0
 12
41.011746746768829
 22
77.621897150195863
 13
0.0
 23
0.0
 14
2.5
 24
2.5
 15
10.0
 25
10.0
 16
0.0
 26
0.0
 36
1.0
 17
0.0
 27
0.0
 37
0.0
 40
339.2914311571638
 41
1.531806615776081
 42
50.0
 43
0.0
 44
0.0
 50
0.0
 51
0.0
 71
     0
 72
   100
 73
     1
 74
     3
 75
     0
 76
     0
 77
     0
 78
     0
  0
ENDTAB
  0
TABLE
  2
LTYPE
 70
     2
  0
LTYPE
  2
CONTINUOUS
 70
     0
  3
Solid line
 72
    65
 73
     0
 40
0.0
  0
LTYPE
  2
CENTER
 70
     0
  3
__ . __
 72
    65
 73
     4
 40
7.0
 49
4.0
 49
-1.0
 49
1.0
 49
-1.0
  0
ENDTAB
  0
TABLE
  2
LAYER
 70
     1
  0
LAYER
  2
0
 70
     0
 62
     7
  6
CONTINUOUS
  0
ENDTAB
  0
TABLE
  2
STYLE
 70
     2
  0
STYLE
  2
STANDARD
 70
     0
 40
0.0
 41
0.7
 50
0.0
 71
     0
 42
73.985717453579113
  3
romans.shx
  4
bigfont.shx
  0
STYLE
  2
TSKDIM
 70
     0
 40
0.0
 41
0.75
 50
0.0
 71
     0
 42
4.0
  3
romans.shx
  4
EXTFONT.SHX
  0
ENDTAB
  0
TABLE
  2
VIEW
 70
     0
  0
ENDTAB
  0
TABLE
  2
UCS
 70
     0
  0
ENDTAB
  0
TABLE
  2
APPID
 70
    43
  0
APPID
  2
ACAD
 70
     0
  0
APPID
  2
MCAD_NO_VIS
 70
     0
  0
APPID
  2
ACAD_TEMP_GRAPHIC
 70
     0
  0
APPID
  2
ACATTRIBSERVICES
 70
     0
  0
APPID
  2
AD_DRAW
 70
     0
  0
APPID
  2
DESIGNERASSEMBLIES
 70
     0
  0
APPID
  2
ASURF_PCURVE_APPNAME
 70
     0
  0
APPID
  2
ACADM_DIM_EDIT
 70
     0
  0
APPID
  2
GENIUS_GENDIM_13
 70
     0
  0
APPID
  2
GENIUS_GENDTOL_13
 70
     0
  0
APPID
  2
GENIUS_GE3DTOL_13
 70
     0
  0
APPID
  2
AMG_3D2D_5_0
 70
     0
  0
APPID
  2
AMDT_DM_ADJ
 70
     0
  0
APPID
  2
CK_MATE-SERIES
 70
     0
  0
APPID
  2
GEVID1042077799
 70
     0
  0
APPID
  2
GEVMK
 70
     0
  0
APPID
  2
GEVDC
 70
     0
  0
APPID
  2
GENIUS_GENBH_13
 70
     0
  0
APPID
  2
GENIUS_GENOLIS_13
 70
     0
  0
APPID
  2
GENIUS_GENOENT_13
 70
     0
  0
APPID
  2
GENIUS_GENODEF_13
 70
     0
  0
APPID
  2
GENIUS_GENOBJ-NBEHI-BHF_13
 70
     0
  0
APPID
  2
GENIUS_GENOREF_13
 70
     0
  0
APPID
  2
GENIUS_GENOBJ-NBEHI-BHB_13
 70
     0
  0
APPID
  2
GEVID1042183772
 70
     0
  0
APPID
  2
GEVID1042183773
 70
     0
  0
APPID
  2
GEVID1042183774
 70
     0
  0
APPID
  2
DCO15
 70
     0
  0
APPID
  2
ACAD_DSTYLE_DIMARC_LENGTH_
 70
     0
  0
APPID
  2
ACAD_DSTYLE_DIMJOGGED_JOGA
 70
     0
  0
APPID
  2
ACAD_MLEADERVER
 70
     0
  0
APPID
  2
ACAD_DSTYLE_DIMJAG
 70
     0
  0
APPID
  2
ACAD_DSTYLE_DIMTALN
 70
     0
  0
APPID
  2
ACAD_PSEXT
 70
     0
  0
APPID
  2
ACAD_EXEMPT_FROM_CAD_STANDARDS
 70
     0
  0
APPID
  2
ACAECLAYERSTANDARD
 70
     0
  0
APPID
  2
ACAD_DSTYLE_DIMINSPECT
 70
     0
  0
APPID
  2
ACAD_DSTYLE_DIM_LINETYPE
 70
     0
  0
APPID
  2
ACAD_DSTYLE_DIM_EXT1_LINETYPE
 70
     0
  0
APPID
  2
ACAD_DSTYLE_DIM_EXT2_LINETYPE
 70
     0
  0
APPID
  2
ACADANNOTATIVE
 70
     0
  0
APPID
  2
ACAD_DSTYLE_DIMANGULAR_EXT
 70
     0
  0
APPID
  2
GENIUS_GENOBJ-N-FIL_13
 70
     0
  0
ENDTAB
  0
TABLE
  2
DIMSTYLE
 70
     1
  0
DIMSTYLE
  2
STANDARD
 70
     0
  3

  4

  5

  6

  7

 40
1.0
 41
0.18
 42
0.0625
 43
0.38
 44
0.18
 45
0.0
 46
0.0
 47
0.0
 48
0.0
140
0.18
141
0.09
142
0.0
143
25.399999999999999
144
1.0
145
0.0
146
1.0
147
0.09
 71
     0
 72
     0
 73
     1
 74
     1
 75
     0
 76
     0
 77
     0
 78
     0
170
     0
171
     2
172
     0
173
     0
174
     0
175
     0
176
     0
177
     0
178
     0
  0
ENDTAB
  0
ENDSEC
  0
SECTION
  2
BLOCKS
  0
BLOCK
  8
0
  2
$MODEL_SPACE
 70
     0
 10
0.0
 20
0.0
 30
0.0
  3
$MODEL_SPACE
  1

  0
ENDBLK
  5
21
  8
0
  0
BLOCK
 67
     1
  8
0
  2
$PAPER_SPACE
 70
     0
 10
0.0
 20
0.0
 30
0.0
  3
$PAPER_SPACE
  1

  0
ENDBLK
  5
1D
 67
     1
  8
0
  0
BLOCK
  8
0
  2
_OPEN
 70
     0
 10
0.0
 20
0.0
 30
0.0
  3
_OPEN
  1

  0
LINE
  5
15A
  8
0
  6
BYBLOCK
 62
     0
 10
-1.0
 20
0.1666666666666666
 30
0.0
 11
0.0
 21
0.0
 31
0.0
  0
LINE
  5
15B
  8
0
  6
BYBLOCK
 62
     0
 10
-1.0
 20
-0.1666666666666666
 30
0.0
 11
0.0
 21
0.0
 31
0.0
  0
LINE
  5
15C
  8
0
  6
BYBLOCK
 62
     0
 10
0.0
 20
0.0
 30
0.0
 11
-1.0
 21
0.0
 31
0.0
  0
ENDBLK
  5
15E
  8
0
  0
ENDSEC
  0
SECTION
  2
ENTITIES
  0
LINE
  5
1EE9
  8
0
 10
-71.0
 20
-10.000009999999969
 30
0.0
 11
-55.722530000000923
 21
-10.000009999999969
 31
0.0
  0
LINE
  5
1EEB
  8
0
 10
-71.0
 20
-8.0000099999999748
 30
0.0
 11
-55.722530000000923
 21
-8.0000099999999748
 31
0.0
  0
LINE
  5
1EEC
  8
0
  6
CENTER
 10
-65.0
 20
11.37771999999995
 30
0.0
 11
-65.0
 21
-9.2131010132068241
 31
0.0
  0
LINE
  5
1EED
  8
0
  6
CENTER
 10
67.0
 20
38.43479479768552
 30
0.0
 11
67.0
 21
-9.9959612231143637
 31
0.0
  0
LINE
  5
1EEE
  8
0
 10
74.0
 20
4.0
 30
0.0
 11
74.0
 21
-10.000009999999969
 31
0.0
  0
LINE
  5
1EEF
  8
0
 10
60.0
 20
4.0
 30
0.0
 11
60.0
 21
-8.0000099999999748
 31
0.0
  0
LINE
  5
1EF0
  8
0
  6
CENTER
 10
-74.437290000000743
 20
0.0
 30
0.0
 11
80.956629559650537
 21
0.0
 31
0.0
  0
LINE
  5
1EF1
  8
0
 10
55.722539999998837
 20
-6.0000099999999739
 30
0.0
 11
60.0
 21
-6.0000099999999739
 31
0.0
  0
LINE
  5
1EF2
  8
0
 10
55.722539999998837
 20
-8.0000099999999748
 30
0.0
 11
74.0
 21
-8.0000099999999748
 31
0.0
  0
LINE
  5
1EF3
  8
0
 10
55.722539999998837
 20
-10.000009999999969
 30
0.0
 11
74.0
 21
-10.000009999999969
 31
0.0
  0
LINE
  5
1EF4
  8
0
 10
-71.0
 20
-10.000009999999969
 30
0.0
 11
-71.0
 21
10.000009999999969
 31
0.0
  0
LINE
  5
1EF5
  8
0
 10
-59.0
 20
-8.0000099999999748
 30
0.0
 11
-59.0
 21
8.0000099999999748
 31
0.0
  0
LINE
  5
1EF6
  8
0
 10
-59.0
 20
-6.0000099999999739
 30
0.0
 11
-55.722530000000923
 21
-6.0000099999999739
 31
0.0
  0
LINE
  5
1EF7
  8
0
  6
CENTER
 10
0.0
 20
62.687409169072232
 30
0.0
 11
0.0
 21
-90.728412658428965
 31
0.0
  0
LINE
  5
1EFA
  8
0
 10
15.0
 20
-50.833060108555401
 30
0.0
 11
15.0
 21
-54.600006000000121
 31
0.0
  0
LINE
  5
1EFB
  8
0
 10
-15.0
 20
-50.833060108555287
 30
0.0
 11
-15.0
 21
-54.600006000000121
 31
0.0
  0
LINE
  5
1EFC
  8
0
 10
-14.0
 20
-55.600006000000121
 30
0.0
 11
14.0
 21
-55.600006000000121
 31
0.0
  0
LINE
  5
1F02
  8
0
 10
12.6999999999989
 20
-55.600006000000121
 30
0.0
 11
12.6999999999989
 21
-80.600006000000121
 31
0.0
  0
LINE
  5
1F03
  8
0
 10
-12.70000000000072
 20
-55.600006000000121
 30
0.0
 11
-12.70000000000072
 21
-80.600006000000121
 31
0.0
  0
LINE
  5
1F04
  8
0
 10
-12.70000000000072
 20
-80.600006000000121
 30
0.0
 11
12.6999999999989
 21
-80.600006000000121
 31
0.0
  0
ARC
  5
1F7D
  8
0
 10
-65.0
 20
0.0
 30
0.0
 40
6.0
 50
0.0
 51
180.000010000001
  0
ARC
  5
1F7E
  8
0
 10
62.0
 20
4.0
 30
0.0
 40
2.0
 50
90.000002999984659
 51
180.000010000001
  0
ARC
  5
1F7F
  8
0
 10
72.0
 20
4.0
 30
0.0
 40
2.0
 50
0.0
 51
90.000002999984659
  0
ARC
  5
1F82
  8
0
 10
-14.0
 20
-54.600006000000121
 30
0.0
 40
1.0
 50
179.99998999999889
 51
270.0
  0
ARC
  5
1F83
  8
0
 10
14.0
 20
-54.600006000000121
 30
0.0
 40
1.0
 50
270.0
 51
0.0
  0
ARC
  5
1F85
  8
0
 10
0.0
 20
0.0
 30
0.0
 40
51.0
 50
192.15319999999869
 51
347.84680000000122
  0
ARC
  5
1F86
  8
0
 10
0.0
 20
0.0
 30
0.0
 40
53.0
 50
192.15319999999869
 51
347.84680000000122
  0
ARC
  5
1F87
  8
0
 10
0.0
 20
0.0
 30
0.0
 40
55.0
 50
192.15319999999869
 51
254.1733800000286
  0
ARC
  5
1F89
  8
0
 10
-55.722530000000923
 20
-12.000009999999969
 30
0.0
 40
2.0
 50
12.153197000001409
 51
90.000002999984659
  0
ARC
  5
1F8A
  8
0
 10
-55.722530000000923
 20
-12.000009999999969
 30
0.0
 40
4.0
 50
12.153197000001409
 51
90.000002999984659
  0
ARC
  5
1F8B
  8
0
 10
-55.722530000000923
 20
-12.000009999999969
 30
0.0
 40
6.0
 50
12.153197000001409
 51
90.000002999984659
  0
ARC
  5
1F8C
  8
0
 10
55.722539999998837
 20
-12.000009999999969
 30
0.0
 40
2.0
 50
90.000002999984659
 51
167.8468000000012
  0
ARC
  5
1F8D
  8
0
 10
55.722539999998837
 20
-12.000009999999969
 30
0.0
 40
4.0
 50
90.000002999984659
 51
167.8468000000012
  0
ARC
  5
1F8E
  8
0
 10
55.722539999998837
 20
-12.000009999999969
 30
0.0
 40
6.0
 50
90.000002999984659
 51
167.8468000000012
  0
ARC
  5
1F8F
  8
0
 10
0.0
 20
0.0
 30
0.0
 40
55.0
 50
285.82661999997117
 51
347.84680000000122
  0
LINE
  5
F995
  8
0
  6
CENTER
 10
0.0
 20
135.96201308396411
 30
0.0
 11
0.0
 21
98.170673083963962
 31
0.0
  0
LINE
  5
F996
  8
0
  6
CENTER
 10
-74.516540000000532
 20
117.3590327031899
 30
0.0
 11
78.446519999999509
 21
117.3590331153288
 31
0.0
  0
LINE
  5
F997
  8
0
 10
-52.934720000000191
 20
100.3590327031899
 30
0.0
 11
76.0
 21
100.3590331153288
 31
0.0
  0
LINE
  5
F998
  8
0
 10
-52.934720000000191
 20
134.35903270319
 30
0.0
 11
76.0
 21
134.3590331153288
 31
0.0
  0
LINE
  5
F999
  8
0
 10
76.0
 20
134.3590331153288
 30
0.0
 11
76.0
 21
121.6090331153288
 31
0.0
  0
LINE
  5
F99A
  8
0
 10
72.562153647646483
 20
121.6090331153288
 30
0.0
 11
76.0
 21
121.6090331153288
 31
0.0
  0
LINE
  5
F99B
  8
0
 10
72.562153647646483
 20
113.1090331153288
 30
0.0
 11
76.0
 21
113.1090331153288
 31
0.0
  0
LINE
  5
F99C
  8
0
 10
76.0
 20
113.1090331153288
 30
0.0
 11
76.0
 21
100.3590331153288
 31
0.0
  0
LINE
  5
F99D
  8
0
 10
-71.0
 20
133.85903270318991
 30
0.0
 11
-71.0
 21
100.8590327031899
 31
0.0
  0
LINE
  5
F99E
  8
0
 10
-71.0
 20
100.8590327031899
 30
0.0
 11
-59.0
 21
100.8590327031899
 31
0.0
  0
LINE
  5
F99F
  8
0
 10
-54.465968309493292
 20
124.3567077031896
 30
0.0
 11
-54.465968309493292
 21
110.3613677031896
 31
0.0
  0
LINE
  5
F9A0
  8
0
 10
-71.0
 20
125.8590327031899
 30
0.0
 11
76.0
 21
125.8590331153288
 31
0.0
  0
LINE
  5
F9A1
  8
0
 10
-71.0
 20
108.8590327031899
 30
0.0
 11
76.0
 21
108.8590331153288
 31
0.0
  0
LINE
  5
F9A2
  8
0
 10
-55.434720000000191
 20
131.85903270318991
 30
0.0
 11
-52.934720000000191
 21
134.35903270319
 31
0.0
  0
LINE
  5
F9A3
  8
0
 10
-55.434720000000191
 20
102.8590327031899
 30
0.0
 11
-52.934720000000191
 21
100.3590427031899
 31
0.0
  0
LINE
  5
F9A4
  8
0
 10
-53.209406618984751
 20
131.85903270662419
 30
0.0
 11
-53.209406618984751
 21
125.8590334139887
 31
0.0
  0
LINE
  5
F9A5
  8
0
 10
-53.209406618984751
 20
108.85903343509899
 30
0.0
 11
-53.209406618984751
 21
102.85903270662421
 31
0.0
  0
LINE
  5
F9A6
  8
0
  6
CENTER
 10
67.0
 20
126.1406143884121
 30
0.0
 11
67.0
 21
108.57745184224559
 31
0.0
  0
LINE
  5
F9A7
  8
0
 10
-59.0
 20
102.8590327031899
 30
0.0
 11
-55.434720000000191
 21
102.8590327031899
 31
0.0
  0
LINE
  5
F9A8
  8
0
 10
-59.0
 20
131.85903270318991
 30
0.0
 11
-55.434720000000191
 21
131.85903270318991
 31
0.0
  0
LINE
  5
F9A9
  8
0
 10
-59.0
 20
102.8590327031899
 30
0.0
 11
-59.0
 21
100.8590327031899
 31
0.0
  0
LINE
  5
F9AA
  8
0
 10
-71.0
 20
133.85903270318991
 30
0.0
 11
-59.0
 21
133.85903270318991
 31
0.0
  0
LINE
  5
F9AB
  8
0
  6
CENTER
 10
-65.0
 20
99.492612703189934
 30
0.0
 11
-65.0
 21
135.22546270319
 31
0.0
  0
LINE
  5
F9AC
  8
0
 10
-59.0
 20
131.85903270318991
 30
0.0
 11
-59.0
 21
133.85903270318991
 31
0.0
  0
LINE
  5
F9AD
  8
0
 10
52.387657999999639
 20
119.6090331153288
 30
0.0
 11
61.981284999999851
 21
119.6090331153288
 31
0.0
  0
LINE
  5
F9AE
  8
0
 10
52.387657999999639
 20
115.1090331153288
 30
0.0
 11
61.981284999999851
 21
115.1090331153288
 31
0.0
  0
LINE
  5
F9AF
  8
0
 10
72.018715000000157
 20
115.1090331153288
 30
0.0
 11
81.612343000000692
 21
115.1090331153288
 31
0.0
  0
LINE
  5
F9B0
  8
0
 10
72.018715000000157
 20
119.6090331153288
 30
0.0
 11
81.612343000000692
 21
119.6090331153288
 31
0.0
  0
ARC
  5
F9B1
  8
0
 10
67.0
 20
117.3590331153288
 30
0.0
 40
7.0000037999999991
 50
18.749332000004159
 51
161.25067000000399
  0
ARC
  5
F9B2
  8
0
 10
67.0
 20
117.3590331153288
 30
0.0
 40
7.0000037999999991
 50
198.74932999999589
 51
341.25067000000399
  0
POLYLINE
  5
F9B3
  8
0
 10
60.646107272319462
 20
114.92652671556245
 30
0.0
 66
     1
 70
     8
  0
VERTEX
  8
0
  5
10505
 10
60.6461
 20
114.927
 30
0.000000
  70
    32
  0
VERTEX
  8
0
  5
10506
 10
60.6713
 20
114.957
 30
0.000000
  70
    32
  0
VERTEX
  8
0
  5
10507
 10
60.6962
 20
114.988
 30
0.000000
  70
    32
  0
VERTEX
  8
0
  5
10508
 10
60.7207
 20
115.019
 30
0.000000
  70
    32
  0
VERTEX
  8
0
  5
10509
 10
60.7450
 20
115.050
 30
0.000000
  70
    32
  0
VERTEX
  8
0
  5
1050A
 10
60.7689
 20
115.082
 30
0.000000
  70
    32
  0
VERTEX
  8
0
  5
1050B
 10
60.7925
 20
115.114
 30
0.000000
  70
    32
  0
VERTEX
  8
0
  5
1050C
 10
60.8157
 20
115.146
 30
0.000000
  70
    32
  0
VERTEX
  8
0
  5
1050D
 10
60.8386
 20
115.179
 30
0.000000
  70
    32
  0
VERTEX
  8
0
  5
1050E
 10
60.8611
 20
115.212
 30
0.000000
  70
    32
  0
VERTEX
  8
0
  5
1050F
 10
60.8833
 20
115.245
 30
0.000000
  70
    32
  0
VERTEX
  8
0
  5
10510
 10
60.9052
 20
115.279
 30
0.000000
  70
    32
  0
VERTEX
  8
0
  5
10511
 10
60.9267
 20
115.313
 30
0.000000
  70
    32
  0
VERTEX
  8
0
  5
10512
 10
60.9479
 20
115.347
 30
0.000000
  70
    32
  0
VERTEX
  8
0
  5
10513
 10
60.9687
 20
115.382
 30
0.000000
  70
    32
  0
VERTEX
  8
0
  5
10514
 10
60.9891
 20
115.417
 30
0.000000
  70
    32
  0
VERTEX
  8
0
  5
10515
 10
61.0092
 20
115.452
 30
0.000000
  70
    32
  0
VERTEX
  8
0
  5
10516
 10
61.0288
 20
115.487
 30
0.000000
  70
    32
  0
VERTEX
  8
0
  5
10517
 10
61.0482
 20
115.523
 30
0.000000
  70
    32
  0
VERTEX
  8
0
  5
10518
 10
61.0671
 20
115.559
 30
0.000000
  70
    32
  0
VERTEX
  8
0
  5
10519
 10
61.0857
 20
115.595
 30
0.000000
  70
    32
  0
VERTEX
  8
0
  5
1051A
 10
61.1039
 20
115.631
 30
0.000000
  70
    32
  0
VERTEX
  8
0
  5
1051B
 10
61.1217
 20
115.668
 30
0.000000
  70
    32
  0
VERTEX
  8
0
  5
1051C
 10
61.1392
 20
115.705
 30
0.000000
  70
    32
  0
VERTEX
  8
0
  5
1051D
 10
61.1562
 20
115.742
 30
0.000000
  70
    32
  0
VERTEX
  8
0
  5
1051E
 10
61.1729
 20
115.779
 30
0.000000
  70
    32
  0
VERTEX
  8
0
  5
1051F
 10
61.1892
 20
115.817
 30
0.000000
  70
    32
  0
VERTEX
  8
0
  5
10520
 10
61.2050
 20
115.855
 30
0.000000
  70
    32
  0
VERTEX
  8
0
  5
10521
 10
61.2205
 20
115.893
 30
0.000000
  70
    32
  0
VERTEX
  8
0
  5
10522
 10
61.2356
 20
115.931
 30
0.000000
  70
    32
  0
VERTEX
  8
0
  5
10523
 10
61.2503
 20
115.970
 30
0.000000
  70
    32
  0
VERTEX
  8
0
  5
10524
 10
61.2646
 20
116.008
 30
0.000000
  70
    32
  0
VERTEX
  8
0
  5
10525
 10
61.2785
 20
116.047
 30
0.000000
  70
    32
  0
VERTEX
  8
0
  5
10526
 10
61.2919
 20
116.086
 30
0.000000
  70
    32
  0
VERTEX
  8
0
  5
10527
 10
61.3050
 20
116.125
 30
0.000000
  70
    32
  0
VERTEX
  8
0
  5
10528
 10
61.3176
 20
116.165
 30
0.000000
  70
    32
  0
VERTEX
  8
0
  5
10529
 10
61.3299
 20
116.204
 30
0.000000
  70
    32
  0
VERTEX
  8
0
  5
1052A
 10
61.3417
 20
116.244
 30
0.000000
  70
    32
  0
VERTEX
  8
0
  5
1052B
 10
61.3531
 20
116.284
 30
0.000000
  70
    32
  0
VERTEX
  8
0
  5
1052C
 10
61.3641
 20
116.324
 30
0.000000
  70
    32
  0
VERTEX
  8
0
  5
1052D
 10
61.3747
 20
116.364
 30
0.000000
  70
    32
  0
VERTEX
  8
0
  5
1052E
 10
61.3849
 20
116.405
 30
0.000000
  70
    32
  0
VERTEX
  8
0
  5
1052F
 10
61.3946
 20
116.445
 30
0.000000
  70
    32
  0
VERTEX
  8
0
  5
10530
 10
61.4039
 20
116.486
 30
0.000000
  70
    32
  0
VERTEX
  8
0
  5
10531
 10
61.4128
 20
116.527
 30
0.000000
  70
    32
  0
VERTEX
  8
0
  5
10532
 10
61.4213
 20
116.568
 30
0.000000
  70
    32
  0
VERTEX
  8
0
  5
10533
 10
61.4293
 20
116.608
 30
0.000000
  70
    32
  0
VERTEX
  8
0
  5
10534
 10
61.4369
 20
116.650
 30
0.000000
  70
    32
  0
VERTEX
  8
0
  5
10535
 10
61.4441
 20
116.691
 30
0.000000
  70
    32
  0
VERTEX
  8
0
  5
10536
 10
61.4508
 20
116.732
 30
0.000000
  70
    32
  0
VERTEX
  8
0
  5
10537
 10
61.4572
 20
116.773
 30
0.000000
  70
    32
  0
VERTEX
  8
0
  5
10538
 10
61.4631
 20
116.815
 30
0.000000
  70
    32
  0
VERTEX
  8
0
  5
10539
 10
61.4685
 20
116.856
 30
0.000000
  70
    32
  0
VERTEX
  8
0
  5
1053A
 10
61.4735
 20
116.898
 30
0.000000
  70
    32
  0
VERTEX
  8
0
  5
1053B
 10
61.4781
 20
116.940
 30
0.000000
  70
    32
  0
VERTEX
  8
0
  5
1053C
 10
61.4823
 20
116.982
 30
0.000000
  70
    32
  0
VERTEX
  8
0
  5
1053D
 10
61.4860
 20
117.023
 30
0.000000
  70
    32
  0
VERTEX
  8
0
  5
1053E
 10
61.4893
 20
117.065
 30
0.000000
  70
    32
  0
VERTEX
  8
0
  5
1053F
 10
61.4921
 20
117.107
 30
0.000000
  70
    32
  0
VERTEX
  8
0
  5
10540
 10
61.4945
 20
117.149
 30
0.000000
  70
    32
  0
VERTEX
  8
0
  5
10541
 10
61.4965
 20
117.191
 30
0.000000
  70
    32
  0
VERTEX
  8
0
  5
10542
 10
61.4980
 20
117.233
 30
0.000000
  70
    32
  0
VERTEX
  8
0
  5
10543
 10
61.4991
 20
117.275
 30
0.000000
  70
    32
  0
VERTEX
  8
0
  5
10544
 10
61.4998
 20
117.317
 30
0.000000
  70
    32
  0
VERTEX
  8
0
  5
10545
 10
61.5000
 20
117.359
 30
0.000000
  70
    32
  0
VERTEX
  8
0
  5
10546
 10
61.4998
 20
117.401
 30
0.000000
  70
    32
  0
VERTEX
  8
0
  5
10547
 10
61.4991
 20
117.443
 30
0.000000
  70
    32
  0
VERTEX
  8
0
  5
10548
 10
61.4980
 20
117.485
 30
0.000000
  70
    32
  0
VERTEX
  8
0
  5
10549
 10
61.4965
 20
117.527
 30
0.000000
  70
    32
  0
VERTEX
  8
0
  5
1054A
 10
61.4945
 20
117.569
 30
0.000000
  70
    32
  0
VERTEX
  8
0
  5
1054B
 10
61.4921
 20
117.611
 30
0.000000
  70
    32
  0
VERTEX
  8
0
  5
1054C
 10
61.4893
 20
117.653
 30
0.000000
  70
    32
  0
VERTEX
  8
0
  5
1054D
 10
61.4860
 20
117.695
 30
0.000000
  70
    32
  0
VERTEX
  8
0
  5
1054E
 10
61.4823
 20
117.737
 30
0.000000
  70
    32
  0
VERTEX
  8
0
  5
1054F
 10
61.4781
 20
117.778
 30
0.000000
  70
    32
  0
VERTEX
  8
0
  5
10550
 10
61.4735
 20
117.820
 30
0.000000
  70
    32
  0
VERTEX
  8
0
  5
10551
 10
61.4685
 20
117.862
 30
0.000000
  70
    32
  0
VERTEX
  8
0
  5
10552
 10
61.4631
 20
117.903
 30
0.000000
  70
    32
  0
VERTEX
  8
0
  5
10553
 10
61.4572
 20
117.945
 30
0.000000
  70
    32
  0
VERTEX
  8
0
  5
10554
 10
61.4508
 20
117.986
 30
0.000000
  70
    32
  0
VERTEX
  8
0
  5
10555
 10
61.4441
 20
118.027
 30
0.000000
  70
    32
  0
VERTEX
  8
0
  5
10556
 10
61.4369
 20
118.068
 30
0.000000
  70
    32
  0
VERTEX
  8
0
  5
10557
 10
61.4293
 20
118.110
 30
0.000000
  70
    32
  0
VERTEX
  8
0
  5
10558
 10
61.4213
 20
118.151
 30
0.000000
  70
    32
  0
VERTEX
  8
0
  5
10559
 10
61.4128
 20
118.191
 30
0.000000
  70
    32
  0
VERTEX
  8
0
  5
1055A
 10
61.4039
 20
118.232
 30
0.000000
  70
    32
  0
VERTEX
  8
0
  5
1055B
 10
61.3946
 20
118.273
 30
0.000000
  70
    32
  0
VERTEX
  8
0
  5
1055C
 10
61.3849
 20
118.313
 30
0.000000
  70
    32
  0
VERTEX
  8
0
  5
1055D
 10
61.3747
 20
118.354
 30
0.000000
  70
    32
  0
VERTEX
  8
0
  5
1055E
 10
61.3641
 20
118.394
 30
0.000000
  70
    32
  0
VERTEX
  8
0
  5
1055F
 10
61.3531
 20
118.434
 30
0.000000
  70
    32
  0
VERTEX
  8
0
  5
10560
 10
61.3417
 20
118.474
 30
0.000000
  70
    32
  0
VERTEX
  8
0
  5
10561
 10
61.3299
 20
118.514
 30
0.000000
  70
    32
  0
VERTEX
  8
0
  5
10562
 10
61.3176
 20
118.553
 30
0.000000
  70
    32
  0
VERTEX
  8
0
  5
10563
 10
61.3050
 20
118.593
 30
0.000000
  70
    32
  0
VERTEX
  8
0
  5
10564
 10
61.2919
 20
118.632
 30
0.000000
  70
    32
  0
VERTEX
  8
0
  5
10565
 10
61.2785
 20
118.671
 30
0.000000
  70
    32
  0
VERTEX
  8
0
  5
10566
 10
61.2646
 20
118.710
 30
0.000000
  70
    32
  0
VERTEX
  8
0
  5
10567
 10
61.2503
 20
118.748
 30
0.000000
  70
    32
  0
VERTEX
  8
0
  5
10568
 10
61.2356
 20
118.787
 30
0.000000
  70
    32
  0
VERTEX
  8
0
  5
10569
 10
61.2205
 20
118.825
 30
0.000000
  70
    32
  0
VERTEX
  8
0
  5
1056A
 10
61.2050
 20
118.863
 30
0.000000
  70
    32
  0
VERTEX
  8
0
  5
1056B
 10
61.1892
 20
118.901
 30
0.000000
  70
    32
  0
VERTEX
  8
0
  5
1056C
 10
61.1729
 20
118.939
 30
0.000000
  70
    32
  0
VERTEX
  8
0
  5
1056D
 10
61.1562
 20
118.976
 30
0.000000
  70
    32
  0
VERTEX
  8
0
  5
1056E
 10
61.1392
 20
119.013
 30
0.000000
  70
    32
  0
VERTEX
  8
0
  5
1056F
 10
61.1217
 20
119.050
 30
0.000000
  70
    32
  0
VERTEX
  8
0
  5
10570
 10
61.1039
 20
119.087
 30
0.000000
  70
    32
  0
VERTEX
  8
0
  5
10571
 10
61.0857
 20
119.123
 30
0.000000
  70
    32
  0
VERTEX
  8
0
  5
10572
 10
61.0671
 20
119.159
 30
0.000000
  70
    32
  0
VERTEX
  8
0
  5
10573
 10
61.0482
 20
119.195
 30
0.000000
  70
    32
  0
VERTEX
  8
0
  5
10574
 10
61.0288
 20
119.231
 30
0.000000
  70
    32
  0
VERTEX
  8
0
  5
10575
 10
61.0092
 20
119.266
 30
0.000000
  70
    32
  0
VERTEX
  8
0
  5
10576
 10
60.9891
 20
119.301
 30
0.000000
  70
    32
  0
VERTEX
  8
0
  5
10577
 10
60.9687
 20
119.336
 30
0.000000
  70
    32
  0
VERTEX
  8
0
  5
10578
 10
60.9479
 20
119.371
 30
0.000000
  70
    32
  0
VERTEX
  8
0
  5
10579
 10
60.9267
 20
119.405
 30
0.000000
  70
    32
  0
VERTEX
  8
0
  5
1057A
 10
60.9052
 20
119.439
 30
0.000000
  70
    32
  0
VERTEX
  8
0
  5
1057B
 10
60.8833
 20
119.473
 30
0.000000
  70
    32
  0
VERTEX
  8
0
  5
1057C
 10
60.8611
 20
119.506
 30
0.000000
  70
    32
  0
VERTEX
  8
0
  5
1057D
 10
60.8386
 20
119.539
 30
0.000000
  70
    32
  0
VERTEX
  8
0
  5
1057E
 10
60.8157
 20
119.572
 30
0.000000
  70
    32
  0
VERTEX
  8
0
  5
1057F
 10
60.7925
 20
119.604
 30
0.000000
  70
    32
  0
VERTEX
  8
0
  5
10580
 10
60.7689
 20
119.636
 30
0.000000
  70
    32
  0
VERTEX
  8
0
  5
10581
 10
60.7450
 20
119.668
 30
0.000000
  70
    32
  0
VERTEX
  8
0
  5
10582
 10
60.7207
 20
119.699
 30
0.000000
  70
    32
  0
VERTEX
  8
0
  5
10583
 10
60.6962
 20
119.730
 30
0.000000
  70
    32
  0
VERTEX
  8
0
  5
10584
 10
60.6713
 20
119.761
 30
0.000000
  70
    32
  0
VERTEX
  8
0
  5
10585
 10
60.6461
 20
119.792
 30
0.000000
  70
    32
  0
SEQEND
  8
0
  5
10586
  0
POLYLINE
  5
F9B4
  8
0
 10
81.401915269674518
 20
114.82923763355898
 30
0.0
 66
     1
 70
     8
  0
VERTEX
  8
0
  5
10587
 10
81.4019
 20
114.829
 30
0.000000
  70
    32
  0
VERTEX
  8
0
  5
10588
 10
81.4274
 20
114.860
 30
0.000000
  70
    32
  0
VERTEX
  8
0
  5
10589
 10
81.4525
 20
114.891
 30
0.000000
  70
    32
  0
VERTEX
  8
0
  5
1058A
 10
81.4774
 20
114.923
 30
0.000000
  70
    32
  0
VERTEX
  8
0
  5
1058B
 10
81.5019
 20
114.955
 30
0.000000
  70
    32
  0
VERTEX
  8
0
  5
1058C
 10
81.5261
 20
114.987
 30
0.000000
  70
    32
  0
VERTEX
  8
0
  5
1058D
 10
81.5499
 20
115.019
 30
0.000000
  70
    32
  0
VERTEX
  8
0
  5
1058E
 10
81.5735
 20
115.053
 30
0.000000
  70
    32
  0
VERTEX
  8
0
  5
1058F
 10
81.5967
 20
115.086
 30
0.000000
  70
    32
  0
VERTEX
  8
0
  5
10590
 10
81.6195
 20
115.120
 30
0.000000
  70
    32
  0
VERTEX
  8
0
  5
10591
 10
81.6420
 20
115.154
 30
0.000000
  70
    32
  0
VERTEX
  8
0
  5
10592
 10
81.6642
 20
115.188
 30
0.000000
  70
    32
  0
VERTEX
  8
0
  5
10593
 10
81.6860
 20
115.223
 30
0.000000
  70
    32
  0
VERTEX
  8
0
  5
10594
 10
81.7074
 20
115.258
 30
0.000000
  70
    32
  0
VERTEX
  8
0
  5
10595
 10
81.7285
 20
115.294
 30
0.000000
  70
    32
  0
VERTEX
  8
0
  5
10596
 10
81.7493
 20
115.330
 30
0.000000
  70
    32
  0
VERTEX
  8
0
  5
10597
 10
81.7697
 20
115.366
 30
0.000000
  70
    32
  0
VERTEX
  8
0
  5
10598
 10
81.7897
 20
115.402
 30
0.000000
  70
    32
  0
VERTEX
  8
0
  5
10599
 10
81.8093
 20
115.439
 30
0.000000
  70
    32
  0
VERTEX
  8
0
  5
1059A
 10
81.8285
 20
115.476
 30
0.000000
  70
    32
  0
VERTEX
  8
0
  5
1059B
 10
81.8474
 20
115.514
 30
0.000000
  70
    32
  0
VERTEX
  8
0
  5
1059C
 10
81.8659
 20
115.551
 30
0.000000
  70
    32
  0
VERTEX
  8
0
  5
1059D
 10
81.8840
 20
115.589
 30
0.000000
  70
    32
  0
VERTEX
  8
0
  5
1059E
 10
81.9018
 20
115.627
 30
0.000000
  70
    32
  0
VERTEX
  8
0
  5
1059F
 10
81.9191
 20
115.666
 30
0.000000
  70
    32
  0
VERTEX
  8
0
  5
105A0
 10
81.9361
 20
115.705
 30
0.000000
  70
    32
  0
VERTEX
  8
0
  5
105A1
 10
81.9526
 20
115.744
 30
0.000000
  70
    32
  0
VERTEX
  8
0
  5
105A2
 10
81.9688
 20
115.783
 30
0.000000
  70
    32
  0
VERTEX
  8
0
  5
105A3
 10
81.9845
 20
115.823
 30
0.000000
  70
    32
  0
VERTEX
  8
0
  5
105A4
 10
81.9999
 20
115.863
 30
0.000000
  70
    32
  0
VERTEX
  8
0
  5
105A5
 10
82.0149
 20
115.903
 30
0.000000
  70
    32
  0
VERTEX
  8
0
  5
105A6
 10
82.0294
 20
115.943
 30
0.000000
  70
    32
  0
VERTEX
  8
0
  5
105A7
 10
82.0435
 20
115.983
 30
0.000000
  70
    32
  0
VERTEX
  8
0
  5
105A8
 10
82.0573
 20
116.024
 30
0.000000
  70
    32
  0
VERTEX
  8
0
  5
105A9
 10
82.0706
 20
116.065
 30
0.000000
  70
    32
  0
VERTEX
  8
0
  5
105AA
 10
82.0835
 20
116.106
 30
0.000000
  70
    32
  0
VERTEX
  8
0
  5
105AB
 10
82.0960
 20
116.148
 30
0.000000
  70
    32
  0
VERTEX
  8
0
  5
105AC
 10
82.1080
 20
116.189
 30
0.000000
  70
    32
  0
VERTEX
  8
0
  5
105AD
 10
82.1197
 20
116.231
 30
0.000000
  70
    32
  0
VERTEX
  8
0
  5
105AE
 10
82.1309
 20
116.273
 30
0.000000
  70
    32
  0
VERTEX
  8
0
  5
105AF
 10
82.1417
 20
116.315
 30
0.000000
  70
    32
  0
VERTEX
  8
0
  5
105B0
 10
82.1520
 20
116.357
 30
0.000000
  70
    32
  0
VERTEX
  8
0
  5
105B1
 10
82.1620
 20
116.400
 30
0.000000
  70
    32
  0
VERTEX
  8
0
  5
105B2
 10
82.1715
 20
116.442
 30
0.000000
  70
    32
  0
VERTEX
  8
0
  5
105B3
 10
82.1805
 20
116.485
 30
0.000000
  70
    32
  0
VERTEX
  8
0
  5
105B4
 10
82.1892
 20
116.528
 30
0.000000
  70
    32
  0
VERTEX
  8
0
  5
105B5
 10
82.1974
 20
116.571
 30
0.000000
  70
    32
  0
VERTEX
  8
0
  5
105B6
 10
82.2051
 20
116.614
 30
0.000000
  70
    32
  0
VERTEX
  8
0
  5
105B7
 10
82.2125
 20
116.657
 30
0.000000
  70
    32
  0
VERTEX
  8
0
  5
105B8
 10
82.2194
 20
116.700
 30
0.000000
  70
    32
  0
VERTEX
  8
0
  5
105B9
 10
82.2258
 20
116.744
 30
0.000000
  70
    32
  0
VERTEX
  8
0
  5
105BA
 10
82.2318
 20
116.787
 30
0.000000
  70
    32
  0
VERTEX
  8
0
  5
105BB
 10
82.2374
 20
116.831
 30
0.000000
  70
    32
  0
VERTEX
  8
0
  5
105BC
 10
82.2425
 20
116.875
 30
0.000000
  70
    32
  0
VERTEX
  8
0
  5
105BD
 10
82.2472
 20
116.918
 30
0.000000
  70
    32
  0
VERTEX
  8
0
  5
105BE
 10
82.2514
 20
116.962
 30
0.000000
  70
    32
  0
VERTEX
  8
0
  5
105BF
 10
82.2552
 20
117.006
 30
0.000000
  70
    32
  0
VERTEX
  8
0
  5
105C0
 10
82.2586
 20
117.050
 30
0.000000
  70
    32
  0
VERTEX
  8
0
  5
105C1
 10
82.2615
 20
117.094
 30
0.000000
  70
    32
  0
VERTEX
  8
0
  5
105C2
 10
82.2640
 20
117.138
 30
0.000000
  70
    32
  0
VERTEX
  8
0
  5
105C3
 10
82.2660
 20
117.182
 30
0.000000
  70
    32
  0
VERTEX
  8
0
  5
105C4
 10
82.2675
 20
117.227
 30
0.000000
  70
    32
  0
VERTEX
  8
0
  5
105C5
 10
82.2687
 20
117.271
 30
0.000000
  70
    32
  0
VERTEX
  8
0
  5
105C6
 10
82.2693
 20
117.315
 30
0.000000
  70
    32
  0
VERTEX
  8
0
  5
105C7
 10
82.2695
 20
117.359
 30
0.000000
  70
    32
  0
VERTEX
  8
0
  5
105C8
 10
82.2693
 20
117.403
 30
0.000000
  70
    32
  0
VERTEX
  8
0
  5
105C9
 10
82.2687
 20
117.447
 30
0.000000
  70
    32
  0
VERTEX
  8
0
  5
105CA
 10
82.2675
 20
117.492
 30
0.000000
  70
    32
  0
VERTEX
  8
0
  5
105CB
 10
82.2660
 20
117.536
 30
0.000000
  70
    32
  0
VERTEX
  8
0
  5
105CC
 10
82.2640
 20
117.580
 30
0.000000
  70
    32
  0
VERTEX
  8
0
  5
105CD
 10
82.2615
 20
117.624
 30
0.000000
  70
    32
  0
VERTEX
  8
0
  5
105CE
 10
82.2586
 20
117.668
 30
0.000000
  70
    32
  0
VERTEX
  8
0
  5
105CF
 10
82.2552
 20
117.712
 30
0.000000
  70
    32
  0
VERTEX
  8
0
  5
105D0
 10
82.2514
 20
117.756
 30
0.000000
  70
    32
  0
VERTEX
  8
0
  5
105D1
 10
82.2472
 20
117.800
 30
0.000000
  70
    32
  0
VERTEX
  8
0
  5
105D2
 10
82.2425
 20
117.843
 30
0.000000
  70
    32
  0
VERTEX
  8
0
  5
105D3
 10
82.2374
 20
117.887
 30
0.000000
  70
    32
  0
VERTEX
  8
0
  5
105D4
 10
82.2318
 20
117.931
 30
0.000000
  70
    32
  0
VERTEX
  8
0
  5
105D5
 10
82.2258
 20
117.974
 30
0.000000
  70
    32
  0
VERTEX
  8
0
  5
105D6
 10
82.2194
 20
118.018
 30
0.000000
  70
    32
  0
VERTEX
  8
0
  5
105D7
 10
82.2125
 20
118.061
 30
0.000000
  70
    32
  0
VERTEX
  8
0
  5
105D8
 10
82.2051
 20
118.104
 30
0.000000
  70
    32
  0
VERTEX
  8
0
  5
105D9
 10
82.1974
 20
118.147
 30
0.000000
  70
    32
  0
VERTEX
  8
0
  5
105DA
 10
82.1892
 20
118.190
 30
0.000000
  70
    32
  0
VERTEX
  8
0
  5
105DB
 10
82.1805
 20
118.233
 30
0.000000
  70
    32
  0
VERTEX
  8
0
  5
105DC
 10
82.1715
 20
118.276
 30
0.000000
  70
    32
  0
VERTEX
  8
0
  5
105DD
 10
82.1620
 20
118.319
 30
0.000000
  70
    32
  0
VERTEX
  8
0
  5
105DE
 10
82.1520
 20
118.361
 30
0.000000
  70
    32
  0
VERTEX
  8
0
  5
105DF
 10
82.1417
 20
118.403
 30
0.000000
  70
    32
  0
VERTEX
  8
0
  5
105E0
 10
82.1309
 20
118.445
 30
0.000000
  70
    32
  0
VERTEX
  8
0
  5
105E1
 10
82.1197
 20
118.487
 30
0.000000
  70
    32
  0
VERTEX
  8
0
  5
105E2
 10
82.1080
 20
118.529
 30
0.000000
  70
    32
  0
VERTEX
  8
0
  5
105E3
 10
82.0960
 20
118.570
 30
0.000000
  70
    32
  0
VERTEX
  8
0
  5
105E4
 10
82.0835
 20
118.612
 30
0.000000
  70
    32
  0
VERTEX
  8
0
  5
105E5
 10
82.0706
 20
118.653
 30
0.000000
  70
    32
  0
VERTEX
  8
0
  5
105E6
 10
82.0573
 20
118.694
 30
0.000000
  70
    32
  0
VERTEX
  8
0
  5
105E7
 10
82.0435
 20
118.735
 30
0.000000
  70
    32
  0
VERTEX
  8
0
  5
105E8
 10
82.0294
 20
118.775
 30
0.000000
  70
    32
  0
VERTEX
  8
0
  5
105E9
 10
82.0149
 20
118.815
 30
0.000000
  70
    32
  0
VERTEX
  8
0
  5
105EA
 10
81.9999
 20
118.855
 30
0.000000
  70
    32
  0
VERTEX
  8
0
  5
105EB
 10
81.9845
 20
118.895
 30
0.000000
  70
    32
  0
VERTEX
  8
0
  5
105EC
 10
81.9688
 20
118.935
 30
0.000000
  70
    32
  0
VERTEX
  8
0
  5
105ED
 10
81.9526
 20
118.974
 30
0.000000
  70
    32
  0
VERTEX
  8
0
  5
105EE
 10
81.9361
 20
119.013
 30
0.000000
  70
    32
  0
VERTEX
  8
0
  5
105EF
 10
81.9191
 20
119.052
 30
0.000000
  70
    32
  0
VERTEX
  8
0
  5
105F0
 10
81.9018
 20
119.091
 30
0.000000
  70
    32
  0
VERTEX
  8
0
  5
105F1
 10
81.8840
 20
119.129
 30
0.000000
  70
    32
  0
VERTEX
  8
0
  5
105F2
 10
81.8659
 20
119.167
 30
0.000000
  70
    32
  0
VERTEX
  8
0
  5
105F3
 10
81.8474
 20
119.205
 30
0.000000
  70
    32
  0
VERTEX
  8
0
  5
105F4
 10
81.8285
 20
119.242
 30
0.000000
  70
    32
  0
VERTEX
  8
0
  5
105F5
 10
81.8093
 20
119.279
 30
0.000000
  70
    32
  0
VERTEX
  8
0
  5
105F6
 10
81.7897
 20
119.316
 30
0.000000
  70
    32
  0
VERTEX
  8
0
  5
105F7
 10
81.7696
 20
119.352
 30
0.000000
  70
    32
  0
VERTEX
  8
0
  5
105F8
 10
81.7493
 20
119.388
 30
0.000000
  70
    32
  0
VERTEX
  8
0
  5
105F9
 10
81.7285
 20
119.424
 30
0.000000
  70
    32
  0
VERTEX
  8
0
  5
105FA
 10
81.7074
 20
119.460
 30
0.000000
  70
    32
  0
VERTEX
  8
0
  5
105FB
 10
81.6860
 20
119.495
 30
0.000000
  70
    32
  0
VERTEX
  8
0
  5
105FC
 10
81.6642
 20
119.530
 30
0.000000
  70
    32
  0
VERTEX
  8
0
  5
105FD
 10
81.6420
 20
119.564
 30
0.000000
  70
    32
  0
VERTEX
  8
0
  5
105FE
 10
81.6195
 20
119.598
 30
0.000000
  70
    32
  0
VERTEX
  8
0
  5
105FF
 10
81.5967
 20
119.632
 30
0.000000
  70
    32
  0
VERTEX
  8
0
  5
10600
 10
81.5735
 20
119.666
 30
0.000000
  70
    32
  0
VERTEX
  8
0
  5
10601
 10
81.5499
 20
119.699
 30
0.000000
  70
    32
  0
VERTEX
  8
0
  5
10602
 10
81.5261
 20
119.731
 30
0.000000
  70
    32
  0
VERTEX
  8
0
  5
10603
 10
81.5019
 20
119.764
 30
0.000000
  70
    32
  0
VERTEX
  8
0
  5
10604
 10
81.4774
 20
119.795
 30
0.000000
  70
    32
  0
VERTEX
  8
0
  5
10605
 10
81.4525
 20
119.827
 30
0.000000
  70
    32
  0
VERTEX
  8
0
  5
10606
 10
81.4274
 20
119.858
 30
0.000000
  70
    32
  0
VERTEX
  8
0
  5
10607
 10
81.4019
 20
119.889
 30
0.000000
  70
    32
  0
SEQEND
  8
0
  5
10608
  0
POLYLINE
  5
F9B5
  8
0
 10
73.353891105779141
 20
119.79153996561116
 30
0.0
 66
     1
 70
     8
  0
VERTEX
  8
0
  5
10609
 10
73.3539
 20
119.792
 30
0.000000
  70
    32
  0
VERTEX
  8
0
  5
1060A
 10
73.3287
 20
119.761
 30
0.000000
  70
    32
  0
VERTEX
  8
0
  5
1060B
 10
73.3038
 20
119.730
 30
0.000000
  70
    32
  0
VERTEX
  8
0
  5
1060C
 10
73.2793
 20
119.699
 30
0.000000
  70
    32
  0
VERTEX
  8
0
  5
1060D
 10
73.2550
 20
119.668
 30
0.000000
  70
    32
  0
VERTEX
  8
0
  5
1060E
 10
73.2311
 20
119.636
 30
0.000000
  70
    32
  0
VERTEX
  8
0
  5
1060F
 10
73.2075
 20
119.604
 30
0.000000
  70
    32
  0
VERTEX
  8
0
  5
10610
 10
73.1843
 20
119.572
 30
0.000000
  70
    32
  0
VERTEX
  8
0
  5
10611
 10
73.1614
 20
119.539
 30
0.000000
  70
    32
  0
VERTEX
  8
0
  5
10612
 10
73.1389
 20
119.506
 30
0.000000
  70
    32
  0
VERTEX
  8
0
  5
10613
 10
73.1166
 20
119.473
 30
0.000000
  70
    32
  0
VERTEX
  8
0
  5
10614
 10
73.0948
 20
119.439
 30
0.000000
  70
    32
  0
VERTEX
  8
0
  5
10615
 10
73.0733
 20
119.405
 30
0.000000
  70
    32
  0
VERTEX
  8
0
  5
10616
 10
73.0521
 20
119.371
 30
0.000000
  70
    32
  0
VERTEX
  8
0
  5
10617
 10
73.0313
 20
119.336
 30
0.000000
  70
    32
  0
VERTEX
  8
0
  5
10618
 10
73.0109
 20
119.301
 30
0.000000
  70
    32
  0
VERTEX
  8
0
  5
10619
 10
72.9908
 20
119.266
 30
0.000000
  70
    32
  0
VERTEX
  8
0
  5
1061A
 10
72.9711
 20
119.231
 30
0.000000
  70
    32
  0
VERTEX
  8
0
  5
1061B
 10
72.9518
 20
119.195
 30
0.000000
  70
    32
  0
VERTEX
  8
0
  5
1061C
 10
72.9329
 20
119.159
 30
0.000000
  70
    32
  0
VERTEX
  8
0
  5
1061D
 10
72.9143
 20
119.123
 30
0.000000
  70
    32
  0
VERTEX
  8
0
  5
1061E
 10
72.8961
 20
119.087
 30
0.000000
  70
    32
  0
VERTEX
  8
0
  5
1061F
 10
72.8783
 20
119.050
 30
0.000000
  70
    32
  0
VERTEX
  8
0
  5
10620
 10
72.8608
 20
119.013
 30
0.000000
  70
    32
  0
VERTEX
  8
0
  5
10621
 10
72.8438
 20
118.976
 30
0.000000
  70
    32
  0
VERTEX
  8
0
  5
10622
 10
72.8271
 20
118.939
 30
0.000000
  70
    32
  0
VERTEX
  8
0
  5
10623
 10
72.8108
 20
118.901
 30
0.000000
  70
    32
  0
VERTEX
  8
0
  5
10624
 10
72.7950
 20
118.863
 30
0.000000
  70
    32
  0
VERTEX
  8
0
  5
10625
 10
72.7795
 20
118.825
 30
0.000000
  70
    32
  0
VERTEX
  8
0
  5
10626
 10
72.7644
 20
118.787
 30
0.000000
  70
    32
  0
VERTEX
  8
0
  5
10627
 10
72.7497
 20
118.748
 30
0.000000
  70
    32
  0
VERTEX
  8
0
  5
10628
 10
72.7354
 20
118.710
 30
0.000000
  70
    32
  0
VERTEX
  8
0
  5
10629
 10
72.7215
 20
118.671
 30
0.000000
  70
    32
  0
VERTEX
  8
0
  5
1062A
 10
72.7081
 20
118.632
 30
0.000000
  70
    32
  0
VERTEX
  8
0
  5
1062B
 10
72.6950
 20
118.593
 30
0.000000
  70
    32
  0
VERTEX
  8
0
  5
1062C
 10
72.6824
 20
118.553
 30
0.000000
  70
    32
  0
VERTEX
  8
0
  5
1062D
 10
72.6701
 20
118.514
 30
0.000000
  70
    32
  0
VERTEX
  8
0
  5
1062E
 10
72.6583
 20
118.474
 30
0.000000
  70
    32
  0
VERTEX
  8
0
  5
1062F
 10
72.6469
 20
118.434
 30
0.000000
  70
    32
  0
VERTEX
  8
0
  5
10630
 10
72.6359
 20
118.394
 30
0.000000
  70
    32
  0
VERTEX
  8
0
  5
10631
 10
72.6253
 20
118.354
 30
0.000000
  70
    32
  0
VERTEX
  8
0
  5
10632
 10
72.6151
 20
118.313
 30
0.000000
  70
    32
  0
VERTEX
  8
0
  5
10633
 10
72.6054
 20
118.273
 30
0.000000
  70
    32
  0
VERTEX
  8
0
  5
10634
 10
72.5961
 20
118.232
 30
0.000000
  70
    32
  0
VERTEX
  8
0
  5
10635
 10
72.5872
 20
118.191
 30
0.000000
  70
    32
  0
VERTEX
  8
0
  5
10636
 10
72.5787
 20
118.151
 30
0.000000
  70
    32
  0
VERTEX
  8
0
  5
10637
 10
72.5707
 20
118.110
 30
0.000000
  70
    32
  0
VERTEX
  8
0
  5
10638
 10
72.5631
 20
118.068
 30
0.000000
  70
    32
  0
VERTEX
  8
0
  5
10639
 10
72.5559
 20
118.027
 30
0.000000
  70
    32
  0
VERTEX
  8
0
  5
1063A
 10
72.5491
 20
117.986
 30
0.000000
  70
    32
  0
VERTEX
  8
0
  5
1063B
 10
72.5428
 20
117.945
 30
0.000000
  70
    32
  0
VERTEX
  8
0
  5
1063C
 10
72.5369
 20
117.903
 30
0.000000
  70
    32
  0
VERTEX
  8
0
  5
1063D
 10
72.5315
 20
117.862
 30
0.000000
  70
    32
  0
VERTEX
  8
0
  5
1063E
 10
72.5265
 20
117.820
 30
0.000000
  70
    32
  0
VERTEX
  8
0
  5
1063F
 10
72.5219
 20
117.778
 30
0.000000
  70
    32
  0
VERTEX
  8
0
  5
10640
 10
72.5177
 20
117.737
 30
0.000000
  70
    32
  0
VERTEX
  8
0
  5
10641
 10
72.5140
 20
117.695
 30
0.000000
  70
    32
  0
VERTEX
  8
0
  5
10642
 10
72.5107
 20
117.653
 30
0.000000
  70
    32
  0
VERTEX
  8
0
  5
10643
 10
72.5079
 20
117.611
 30
0.000000
  70
    32
  0
VERTEX
  8
0
  5
10644
 10
72.5055
 20
117.569
 30
0.000000
  70
    32
  0
VERTEX
  8
0
  5
10645
 10
72.5035
 20
117.527
 30
0.000000
  70
    32
  0
VERTEX
  8
0
  5
10646
 10
72.5020
 20
117.485
 30
0.000000
  70
    32
  0
VERTEX
  8
0
  5
10647
 10
72.5009
 20
117.443
 30
0.000000
  70
    32
  0
VERTEX
  8
0
  5
10648
 10
72.5002
 20
117.401
 30
0.000000
  70
    32
  0
VERTEX
  8
0
  5
10649
 10
72.5000
 20
117.359
 30
0.000000
  70
    32
  0
VERTEX
  8
0
  5
1064A
 10
72.5002
 20
117.317
 30
0.000000
  70
    32
  0
VERTEX
  8
0
  5
1064B
 10
72.5009
 20
117.275
 30
0.000000
  70
    32
  0
VERTEX
  8
0
  5
1064C
 10
72.5020
 20
117.233
 30
0.000000
  70
    32
  0
VERTEX
  8
0
  5
1064D
 10
72.5035
 20
117.191
 30
0.000000
  70
    32
  0
VERTEX
  8
0
  5
1064E
 10
72.5055
 20
117.149
 30
0.000000
  70
    32
  0
VERTEX
  8
0
  5
1064F
 10
72.5079
 20
117.107
 30
0.000000
  70
    32
  0
VERTEX
  8
0
  5
10650
 10
72.5107
 20
117.065
 30
0.000000
  70
    32
  0
VERTEX
  8
0
  5
10651
 10
72.5140
 20
117.023
 30
0.000000
  70
    32
  0
VERTEX
  8
0
  5
10652
 10
72.5177
 20
116.982
 30
0.000000
  70
    32
  0
VERTEX
  8
0
  5
10653
 10
72.5219
 20
116.940
 30
0.000000
  70
    32
  0
VERTEX
  8
0
  5
10654
 10
72.5265
 20
116.898
 30
0.000000
  70
    32
  0
VERTEX
  8
0
  5
10655
 10
72.5315
 20
116.856
 30
0.000000
  70
    32
  0
VERTEX
  8
0
  5
10656
 10
72.5369
 20
116.815
 30
0.000000
  70
    32
  0
VERTEX
  8
0
  5
10657
 10
72.5428
 20
116.773
 30
0.000000
  70
    32
  0
VERTEX
  8
0
  5
10658
 10
72.5491
 20
116.732
 30
0.000000
  70
    32
  0
VERTEX
  8
0
  5
10659
 10
72.5559
 20
116.691
 30
0.000000
  70
    32
  0
VERTEX
  8
0
  5
1065A
 10
72.5631
 20
116.650
 30
0.000000
  70
    32
  0
VERTEX
  8
0
  5
1065B
 10
72.5707
 20
116.608
 30
0.000000
  70
    32
  0
VERTEX
  8
0
  5
1065C
 10
72.5787
 20
116.568
 30
0.000000
  70
    32
  0
VERTEX
  8
0
  5
1065D
 10
72.5872
 20
116.527
 30
0.000000
  70
    32
  0
VERTEX
  8
0
  5
1065E
 10
72.5961
 20
116.486
 30
0.000000
  70
    32
  0
VERTEX
  8
0
  5
1065F
 10
72.6054
 20
116.445
 30
0.000000
  70
    32
  0
VERTEX
  8
0
  5
10660
 10
72.6151
 20
116.405
 30
0.000000
  70
    32
  0
VERTEX
  8
0
  5
10661
 10
72.6253
 20
116.364
 30
0.000000
  70
    32
  0
VERTEX
  8
0
  5
10662
 10
72.6359
 20
116.324
 30
0.000000
  70
    32
  0
VERTEX
  8
0
  5
10663
 10
72.6469
 20
116.284
 30
0.000000
  70
    32
  0
VERTEX
  8
0
  5
10664
 10
72.6583
 20
116.244
 30
0.000000
  70
    32
  0
VERTEX
  8
0
  5
10665
 10
72.6701
 20
116.204
 30
0.000000
  70
    32
  0
VERTEX
  8
0
  5
10666
 10
72.6824
 20
116.165
 30
0.000000
  70
    32
  0
VERTEX
  8
0
  5
10667
 10
72.6950
 20
116.125
 30
0.000000
  70
    32
  0
VERTEX
  8
0
  5
10668
 10
72.7081
 20
116.086
 30
0.000000
  70
    32
  0
VERTEX
  8
0
  5
10669
 10
72.7215
 20
116.047
 30
0.000000
  70
    32
  0
VERTEX
  8
0
  5
1066A
 10
72.7354
 20
116.008
 30
0.000000
  70
    32
  0
VERTEX
  8
0
  5
1066B
 10
72.7497
 20
115.970
 30
0.000000
  70
    32
  0
VERTEX
  8
0
  5
1066C
 10
72.7644
 20
115.931
 30
0.000000
  70
    32
  0
VERTEX
  8
0
  5
1066D
 10
72.7795
 20
115.893
 30
0.000000
  70
    32
  0
VERTEX
  8
0
  5
1066E
 10
72.7950
 20
115.855
 30
0.000000
  70
    32
  0
VERTEX
  8
0
  5
1066F
 10
72.8108
 20
115.817
 30
0.000000
  70
    32
  0
VERTEX
  8
0
  5
10670
 10
72.8271
 20
115.779
 30
0.000000
  70
    32
  0
VERTEX
  8
0
  5
10671
 10
72.8438
 20
115.742
 30
0.000000
  70
    32
  0
VERTEX
  8
0
  5
10672
 10
72.8608
 20
115.705
 30
0.000000
  70
    32
  0
VERTEX
  8
0
  5
10673
 10
72.8783
 20
115.668
 30
0.000000
  70
    32
  0
VERTEX
  8
0
  5
10674
 10
72.8961
 20
115.631
 30
0.000000
  70
    32
  0
VERTEX
  8
0
  5
10675
 10
72.9143
 20
115.595
 30
0.000000
  70
    32
  0
VERTEX
  8
0
  5
10676
 10
72.9329
 20
115.559
 30
0.000000
  70
    32
  0
VERTEX
  8
0
  5
10677
 10
72.9518
 20
115.523
 30
0.000000
  70
    32
  0
VERTEX
  8
0
  5
10678
 10
72.9711
 20
115.487
 30
0.000000
  70
    32
  0
VERTEX
  8
0
  5
10679
 10
72.9908
 20
115.452
 30
0.000000
  70
    32
  0
VERTEX
  8
0
  5
1067A
 10
73.0109
 20
115.417
 30
0.000000
  70
    32
  0
VERTEX
  8
0
  5
1067B
 10
73.0313
 20
115.382
 30
0.000000
  70
    32
  0
VERTEX
  8
0
  5
1067C
 10
73.0521
 20
115.347
 30
0.000000
  70
    32
  0
VERTEX
  8
0
  5
1067D
 10
73.0733
 20
115.313
 30
0.000000
  70
    32
  0
VERTEX
  8
0
  5
1067E
 10
73.0948
 20
115.279
 30
0.000000
  70
    32
  0
VERTEX
  8
0
  5
1067F
 10
73.1166
 20
115.245
 30
0.000000
  70
    32
  0
VERTEX
  8
0
  5
10680
 10
73.1389
 20
115.212
 30
0.000000
  70
    32
  0
VERTEX
  8
0
  5
10681
 10
73.1614
 20
115.179
 30
0.000000
  70
    32
  0
VERTEX
  8
0
  5
10682
 10
73.1843
 20
115.146
 30
0.000000
  70
    32
  0
VERTEX
  8
0
  5
10683
 10
73.2075
 20
115.114
 30
0.000000
  70
    32
  0
VERTEX
  8
0
  5
10684
 10
73.2311
 20
115.082
 30
0.000000
  70
    32
  0
VERTEX
  8
0
  5
10685
 10
73.2550
 20
115.050
 30
0.000000
  70
    32
  0
VERTEX
  8
0
  5
10686
 10
73.2793
 20
115.019
 30
0.000000
  70
    32
  0
VERTEX
  8
0
  5
10687
 10
73.3038
 20
114.988
 30
0.000000
  70
    32
  0
VERTEX
  8
0
  5
10688
 10
73.3287
 20
114.957
 30
0.000000
  70
    32
  0
VERTEX
  8
0
  5
10689
 10
73.3539
 20
114.927
 30
0.000000
  70
    32
  0
SEQEND
  8
0
  5
1068A
  0
POLYLINE
  5
F9B6
  8
0
 10
52.598086961523428
 20
119.88883125564661
 30
0.0
 66
     1
 70
     8
  0
VERTEX
  8
0
  5
1068B
 10
52.5981
 20
119.889
 30
0.000000
  70
    32
  0
VERTEX
  8
0
  5
1068C
 10
52.5726
 20
119.858
 30
0.000000
  70
    32
  0
VERTEX
  8
0
  5
1068D
 10
52.5475
 20
119.827
 30
0.000000
  70
    32
  0
VERTEX
  8
0
  5
1068E
 10
52.5226
 20
119.795
 30
0.000000
  70
    32
  0
VERTEX
  8
0
  5
1068F
 10
52.4981
 20
119.764
 30
0.000000
  70
    32
  0
VERTEX
  8
0
  5
10690
 10
52.4739
 20
119.731
 30
0.000000
  70
    32
  0
VERTEX
  8
0
  5
10691
 10
52.4501
 20
119.699
 30
0.000000
  70
    32
  0
VERTEX
  8
0
  5
10692
 10
52.4265
 20
119.666
 30
0.000000
  70
    32
  0
VERTEX
  8
0
  5
10693
 10
52.4033
 20
119.632
 30
0.000000
  70
    32
  0
VERTEX
  8
0
  5
10694
 10
52.3805
 20
119.598
 30
0.000000
  70
    32
  0
VERTEX
  8
0
  5
10695
 10
52.3580
 20
119.564
 30
0.000000
  70
    32
  0
VERTEX
  8
0
  5
10696
 10
52.3358
 20
119.530
 30
0.000000
  70
    32
  0
VERTEX
  8
0
  5
10697
 10
52.3140
 20
119.495
 30
0.000000
  70
    32
  0
VERTEX
  8
0
  5
10698
 10
52.2926
 20
119.460
 30
0.000000
  70
    32
  0
VERTEX
  8
0
  5
10699
 10
52.2715
 20
119.424
 30
0.000000
  70
    32
  0
VERTEX
  8
0
  5
1069A
 10
52.2507
 20
119.388
 30
0.000000
  70
    32
  0
VERTEX
  8
0
  5
1069B
 10
52.2304
 20
119.352
 30
0.000000
  70
    32
  0
VERTEX
  8
0
  5
1069C
 10
52.2103
 20
119.316
 30
0.000000
  70
    32
  0
VERTEX
  8
0
  5
1069D
 10
52.1907
 20
119.279
 30
0.000000
  70
    32
  0
VERTEX
  8
0
  5
1069E
 10
52.1715
 20
119.242
 30
0.000000
  70
    32
  0
VERTEX
  8
0
  5
1069F
 10
52.1526
 20
119.205
 30
0.000000
  70
    32
  0
VERTEX
  8
0
  5
106A0
 10
52.1341
 20
119.167
 30
0.000000
  70
    32
  0
VERTEX
  8
0
  5
106A1
 10
52.1160
 20
119.129
 30
0.000000
  70
    32
  0
VERTEX
  8
0
  5
106A2
 10
52.0982
 20
119.091
 30
0.000000
  70
    32
  0
VERTEX
  8
0
  5
106A3
 10
52.0809
 20
119.052
 30
0.000000
  70
    32
  0
VERTEX
  8
0
  5
106A4
 10
52.0639
 20
119.013
 30
0.000000
  70
    32
  0
VERTEX
  8
0
  5
106A5
 10
52.0474
 20
118.974
 30
0.000000
  70
    32
  0
VERTEX
  8
0
  5
106A6
 10
52.0312
 20
118.935
 30
0.000000
  70
    32
  0
VERTEX
  8
0
  5
106A7
 10
52.0155
 20
118.895
 30
0.000000
  70
    32
  0
VERTEX
  8
0
  5
106A8
 10
52.0001
 20
118.855
 30
0.000000
  70
    32
  0
VERTEX
  8
0
  5
106A9
 10
51.9851
 20
118.815
 30
0.000000
  70
    32
  0
VERTEX
  8
0
  5
106AA
 10
51.9706
 20
118.775
 30
0.000000
  70
    32
  0
VERTEX
  8
0
  5
106AB
 10
51.9565
 20
118.735
 30
0.000000
  70
    32
  0
VERTEX
  8
0
  5
106AC
 10
51.9427
 20
118.694
 30
0.000000
  70
    32
  0
VERTEX
  8
0
  5
106AD
 10
51.9294
 20
118.653
 30
0.000000
  70
    32
  0
VERTEX
  8
0
  5
106AE
 10
51.9165
 20
118.612
 30
0.000000
  70
    32
  0
VERTEX
  8
0
  5
106AF
 10
51.9040
 20
118.570
 30
0.000000
  70
    32
  0
VERTEX
  8
0
  5
106B0
 10
51.8920
 20
118.529
 30
0.000000
  70
    32
  0
VERTEX
  8
0
  5
106B1
 10
51.8803
 20
118.487
 30
0.000000
  70
    32
  0
VERTEX
  8
0
  5
106B2
 10
51.8691
 20
118.445
 30
0.000000
  70
    32
  0
VERTEX
  8
0
  5
106B3
 10
51.8583
 20
118.403
 30
0.000000
  70
    32
  0
VERTEX
  8
0
  5
106B4
 10
51.8480
 20
118.361
 30
0.000000
  70
    32
  0
VERTEX
  8
0
  5
106B5
 10
51.8380
 20
118.319
 30
0.000000
  70
    32
  0
VERTEX
  8
0
  5
106B6
 10
51.8285
 20
118.276
 30
0.000000
  70
    32
  0
VERTEX
  8
0
  5
106B7
 10
51.8195
 20
118.233
 30
0.000000
  70
    32
  0
VERTEX
  8
0
  5
106B8
 10
51.8108
 20
118.190
 30
0.000000
  70
    32
  0
VERTEX
  8
0
  5
106B9
 10
51.8026
 20
118.147
 30
0.000000
  70
    32
  0
VERTEX
  8
0
  5
106BA
 10
51.7949
 20
118.104
 30
0.000000
  70
    32
  0
VERTEX
  8
0
  5
106BB
 10
51.7875
 20
118.061
 30
0.000000
  70
    32
  0
VERTEX
  8
0
  5
106BC
 10
51.7806
 20
118.018
 30
0.000000
  70
    32
  0
VERTEX
  8
0
  5
106BD
 10
51.7742
 20
117.974
 30
0.000000
  70
    32
  0
VERTEX
  8
0
  5
106BE
 10
51.7682
 20
117.931
 30
0.000000
  70
    32
  0
VERTEX
  8
0
  5
106BF
 10
51.7626
 20
117.887
 30
0.000000
  70
    32
  0
VERTEX
  8
0
  5
106C0
 10
51.7575
 20
117.843
 30
0.000000
  70
    32
  0
VERTEX
  8
0
  5
106C1
 10
51.7528
 20
117.800
 30
0.000000
  70
    32
  0
VERTEX
  8
0
  5
106C2
 10
51.7486
 20
117.756
 30
0.000000
  70
    32
  0
VERTEX
  8
0
  5
106C3
 10
51.7448
 20
117.712
 30
0.000000
  70
    32
  0
VERTEX
  8
0
  5
106C4
 10
51.7414
 20
117.668
 30
0.000000
  70
    32
  0
VERTEX
  8
0
  5
106C5
 10
51.7385
 20
117.624
 30
0.000000
  70
    32
  0
VERTEX
  8
0
  5
106C6
 10
51.7360
 20
117.580
 30
0.000000
  70
    32
  0
VERTEX
  8
0
  5
106C7
 10
51.7340
 20
117.536
 30
0.000000
  70
    32
  0
VERTEX
  8
0
  5
106C8
 10
51.7325
 20
117.492
 30
0.000000
  70
    32
  0
VERTEX
  8
0
  5
106C9
 10
51.7313
 20
117.447
 30
0.000000
  70
    32
  0
VERTEX
  8
0
  5
106CA
 10
51.7307
 20
117.403
 30
0.000000
  70
    32
  0
VERTEX
  8
0
  5
106CB
 10
51.7305
 20
117.359
 30
0.000000
  70
    32
  0
VERTEX
  8
0
  5
106CC
 10
51.7307
 20
117.315
 30
0.000000
  70
    32
  0
VERTEX
  8
0
  5
106CD
 10
51.7313
 20
117.271
 30
0.000000
  70
    32
  0
VERTEX
  8
0
  5
106CE
 10
51.7325
 20
117.227
 30
0.000000
  70
    32
  0
VERTEX
  8
0
  5
106CF
 10
51.7340
 20
117.182
 30
0.000000
  70
    32
  0
VERTEX
  8
0
  5
106D0
 10
51.7360
 20
117.138
 30
0.000000
  70
    32
  0
VERTEX
  8
0
  5
106D1
 10
51.7385
 20
117.094
 30
0.000000
  70
    32
  0
VERTEX
  8
0
  5
106D2
 10
51.7414
 20
117.050
 30
0.000000
  70
    32
  0
VERTEX
  8
0
  5
106D3
 10
51.7448
 20
117.006
 30
0.000000
  70
    32
  0
VERTEX
  8
0
  5
106D4
 10
51.7486
 20
116.962
 30
0.000000
  70
    32
  0
VERTEX
  8
0
  5
106D5
 10
51.7528
 20
116.918
 30
0.000000
  70
    32
  0
VERTEX
  8
0
  5
106D6
 10
51.7575
 20
116.875
 30
0.000000
  70
    32
  0
VERTEX
  8
0
  5
106D7
 10
51.7626
 20
116.831
 30
0.000000
  70
    32
  0
VERTEX
  8
0
  5
106D8
 10
51.7682
 20
116.787
 30
0.000000
  70
    32
  0
VERTEX
  8
0
  5
106D9
 10
51.7742
 20
116.744
 30
0.000000
  70
    32
  0
VERTEX
  8
0
  5
106DA
 10
51.7806
 20
116.700
 30
0.000000
  70
    32
  0
VERTEX
  8
0
  5
106DB
 10
51.7875
 20
116.657
 30
0.000000
  70
    32
  0
VERTEX
  8
0
  5
106DC
 10
51.7949
 20
116.614
 30
0.000000
  70
    32
  0
VERTEX
  8
0
  5
106DD
 10
51.8026
 20
116.571
 30
0.000000
  70
    32
  0
VERTEX
  8
0
  5
106DE
 10
51.8108
 20
116.528
 30
0.000000
  70
    32
  0
VERTEX
  8
0
  5
106DF
 10
51.8195
 20
116.485
 30
0.000000
  70
    32
  0
VERTEX
  8
0
  5
106E0
 10
51.8285
 20
116.442
 30
0.000000
  70
    32
  0
VERTEX
  8
0
  5
106E1
 10
51.8380
 20
116.400
 30
0.000000
  70
    32
  0
VERTEX
  8
0
  5
106E2
 10
51.8480
 20
116.357
 30
0.000000
  70
    32
  0
VERTEX
  8
0
  5
106E3
 10
51.8583
 20
116.315
 30
0.000000
  70
    32
  0
VERTEX
  8
0
  5
106E4
 10
51.8691
 20
116.273
 30
0.000000
  70
    32
  0
VERTEX
  8
0
  5
106E5
 10
51.8803
 20
116.231
 30
0.000000
  70
    32
  0
VERTEX
  8
0
  5
106E6
 10
51.8920
 20
116.189
 30
0.000000
  70
    32
  0
VERTEX
  8
0
  5
106E7
 10
51.9040
 20
116.148
 30
0.000000
  70
    32
  0
VERTEX
  8
0
  5
106E8
 10
51.9165
 20
116.106
 30
0.000000
  70
    32
  0
VERTEX
  8
0
  5
106E9
 10
51.9294
 20
116.065
 30
0.000000
  70
    32
  0
VERTEX
  8
0
  5
106EA
 10
51.9427
 20
116.024
 30
0.000000
  70
    32
  0
VERTEX
  8
0
  5
106EB
 10
51.9565
 20
115.983
 30
0.000000
  70
    32
  0
VERTEX
  8
0
  5
106EC
 10
51.9706
 20
115.943
 30
0.000000
  70
    32
  0
VERTEX
  8
0
  5
106ED
 10
51.9851
 20
115.903
 30
0.000000
  70
    32
  0
VERTEX
  8
0
  5
106EE
 10
52.0001
 20
115.863
 30
0.000000
  70
    32
  0
VERTEX
  8
0
  5
106EF
 10
52.0155
 20
115.823
 30
0.000000
  70
    32
  0
VERTEX
  8
0
  5
106F0
 10
52.0312
 20
115.783
 30
0.000000
  70
    32
  0
VERTEX
  8
0
  5
106F1
 10
52.0474
 20
115.744
 30
0.000000
  70
    32
  0
VERTEX
  8
0
  5
106F2
 10
52.0639
 20
115.705
 30
0.000000
  70
    32
  0
VERTEX
  8
0
  5
106F3
 10
52.0809
 20
115.666
 30
0.000000
  70
    32
  0
VERTEX
  8
0
  5
106F4
 10
52.0982
 20
115.627
 30
0.000000
  70
    32
  0
VERTEX
  8
0
  5
106F5
 10
52.1160
 20
115.589
 30
0.000000
  70
    32
  0
VERTEX
  8
0
  5
106F6
 10
52.1341
 20
115.551
 30
0.000000
  70
    32
  0
VERTEX
  8
0
  5
106F7
 10
52.1526
 20
115.514
 30
0.000000
  70
    32
  0
VERTEX
  8
0
  5
106F8
 10
52.1715
 20
115.476
 30
0.000000
  70
    32
  0
VERTEX
  8
0
  5
106F9
 10
52.1907
 20
115.439
 30
0.000000
  70
    32
  0
VERTEX
  8
0
  5
106FA
 10
52.2103
 20
115.402
 30
0.000000
  70
    32
  0
VERTEX
  8
0
  5
106FB
 10
52.2303
 20
115.366
 30
0.000000
  70
    32
  0
VERTEX
  8
0
  5
106FC
 10
52.2507
 20
115.330
 30
0.000000
  70
    32
  0
VERTEX
  8
0
  5
106FD
 10
52.2715
 20
115.294
 30
0.000000
  70
    32
  0
VERTEX
  8
0
  5
106FE
 10
52.2926
 20
115.258
 30
0.000000
  70
    32
  0
VERTEX
  8
0
  5
106FF
 10
52.3140
 20
115.223
 30
0.000000
  70
    32
  0
VERTEX
  8
0
  5
10700
 10
52.3358
 20
115.188
 30
0.000000
  70
    32
  0
VERTEX
  8
0
  5
10701
 10
52.3580
 20
115.154
 30
0.000000
  70
    32
  0
VERTEX
  8
0
  5
10702
 10
52.3805
 20
115.120
 30
0.000000
  70
    32
  0
VERTEX
  8
0
  5
10703
 10
52.4033
 20
115.086
 30
0.000000
  70
    32
  0
VERTEX
  8
0
  5
10704
 10
52.4265
 20
115.053
 30
0.000000
  70
    32
  0
VERTEX
  8
0
  5
10705
 10
52.4501
 20
115.019
 30
0.000000
  70
    32
  0
VERTEX
  8
0
  5
10706
 10
52.4739
 20
114.987
 30
0.000000
  70
    32
  0
VERTEX
  8
0
  5
10707
 10
52.4981
 20
114.955
 30
0.000000
  70
    32
  0
VERTEX
  8
0
  5
10708
 10
52.5226
 20
114.923
 30
0.000000
  70
    32
  0
VERTEX
  8
0
  5
10709
 10
52.5475
 20
114.891
 30
0.000000
  70
    32
  0
VERTEX
  8
0
  5
1070A
 10
52.5726
 20
114.860
 30
0.000000
  70
    32
  0
VERTEX
  8
0
  5
1070B
 10
52.5981
 20
114.829
 30
0.000000
  70
    32
  0
SEQEND
  8
0
  5
1070C
  0
LINE
  5
F9DE
  8
0
 10
-71.0
 20
10.000009999999969
 30
0.0
 11
-55.722530000000923
 21
10.000009999999969
 31
0.0
  0
LINE
  5
F9DF
  8
0
 10
-71.0
 20
8.0000099999999748
 30
0.0
 11
-55.722530000000923
 21
8.0000099999999748
 31
0.0
  0
LINE
  5
F9E0
  8
0
 10
74.0
 20
6.0000099999999739
 30
0.0
 11
74.0
 21
10.000009999999969
 31
0.0
  0
LINE
  5
F9E1
  8
0
 10
55.722539999998837
 20
6.0000099999999739
 30
0.0
 11
74.0
 21
6.0000099999999739
 31
0.0
  0
LINE
  5
F9E2
  8
0
 10
55.722539999998837
 20
8.0000099999999748
 30
0.0
 11
74.0
 21
8.0000099999999748
 31
0.0
  0
LINE
  5
F9E3
  8
0
 10
55.722539999998837
 20
10.000009999999969
 30
0.0
 11
74.0
 21
10.000009999999969
 31
0.0
  0
LINE
  5
F9E5
  8
0
 10
-59.0
 20
6.0000099999999739
 30
0.0
 11
-55.722530000000923
 21
6.0000099999999739
 31
0.0
  0
ARC
  5
F9E6
  8
0
 10
0.0
 20
0.0
 30
0.0
 40
51.0
 50
12.15320000001144
 51
167.84679999998849
  0
ARC
  5
F9E7
  8
0
 10
0.0
 20
0.0
 30
0.0
 40
53.0
 50
12.15320000001144
 51
167.84679999998849
  0
ARC
  5
F9E8
  8
0
 10
-55.722530000000923
 20
12.000009999999969
 30
0.0
 40
2.0
 50
269.99999699996317
 51
347.84680300001128
  0
ARC
  5
F9E9
  8
0
 10
-55.722530000000923
 20
12.000009999999969
 30
0.0
 40
4.0
 50
269.99999699996317
 51
347.84680300001128
  0
ARC
  5
F9EA
  8
0
 10
-55.722530000000923
 20
12.000009999999969
 30
0.0
 40
6.0
 50
269.99999699996317
 51
347.84680300001128
  0
ARC
  5
F9EB
  8
0
 10
55.722539999998837
 20
12.000009999999969
 30
0.0
 40
2.0
 50
192.1532000000114
 51
269.99999699996317
  0
ARC
  5
F9EC
  8
0
 10
55.722539999998837
 20
12.000009999999969
 30
0.0
 40
4.0
 50
192.1532000000114
 51
269.99999699996317
  0
ARC
  5
F9ED
  8
0
 10
55.722539999998837
 20
12.000009999999969
 30
0.0
 40
6.0
 50
192.1532000000114
 51
269.99999699996317
  0
ARC
  5
F9EE
  8
0
 10
0.0
 20
0.0
 30
0.0
 40
55.0
 50
12.15320000001144
 51
167.84679301798869
  0
LINE
  5
FA26
  8
0
 10
72.5
 20
16.000009999999971
 30
0.0
 11
61.5
 21
16.000009999999971
 31
0.0
  0
LINE
  5
FA27
  8
0
 10
72.500044000000344
 20
16.000029999999921
 30
0.0
 11
74.000045000000682
 21
10.000029999999921
 31
0.0
  0
LINE
  5
FA28
  8
0
 10
76.328972999999664
 20
24.526360000000071
 30
0.0
 11
81.765666999999667
 21
21.419679999999971
 31
0.0
  0
LINE
  5
FA29
  8
0
 10
71.0
 20
25.225460000000108
 30
0.0
 11
71.0
 21
16.000009999999971
 31
0.0
  0
LINE
  5
FA2A
  8
0
 10
70.0
 20
26.225460000000108
 30
0.0
 11
64.0
 21
26.225460000000108
 31
0.0
  0
LINE
  5
FA2B
  8
0
 10
70.000035999999454
 20
26.225500000000011
 30
0.0
 11
71.000036999999793
 21
25.225500000000011
 31
0.0
  0
ARC
  5
FA2C
  8
0
 10
75.832518999999593
 20
23.657580000000049
 30
0.0
 40
1.0
 50
60.255116000012798
 51
149.14714999999811
  0
ARC
  5
FA2D
  8
0
 10
81.269538999999895
 20
20.551470000000101
 30
0.0
 40
1.0
 50
338.72366000001159
 51
60.255116000012798
  0
POLYLINE
  8
0
  5
1070D
  66
     1
 10
0.000000
 20
0.000000
 30
0.000000
  70
     8
  0
VERTEX
  8
0
  5
1070E
 10
72.5000
 20
16.0000
 30
0.000000
  70
    32
  0
VERTEX
  8
0
  5
1070F
 10
72.5016
 20
16.0300
 30
0.000000
  70
    32
  0
VERTEX
  8
0
  5
10710
 10
72.5032
 20
16.0600
 30
0.000000
  70
    32
  0
VERTEX
  8
0
  5
10711
 10
72.5049
 20
16.0900
 30
0.000000
  70
    32
  0
VERTEX
  8
0
  5
10712
 10
72.5066
 20
16.1200
 30
0.000000
  70
    32
  0
VERTEX
  8
0
  5
10713
 10
72.5084
 20
16.1500
 30
0.000000
  70
    32
  0
VERTEX
  8
0
  5
10714
 10
72.5102
 20
16.1800
 30
0.000000
  70
    32
  0
VERTEX
  8
0
  5
10715
 10
72.5121
 20
16.2100
 30
0.000000
  70
    32
  0
VERTEX
  8
0
  5
10716
 10
72.5140
 20
16.2399
 30
0.000000
  70
    32
  0
VERTEX
  8
0
  5
10717
 10
72.5160
 20
16.2699
 30
0.000000
  70
    32
  0
VERTEX
  8
0
  5
10718
 10
72.5180
 20
16.2999
 30
0.000000
  70
    32
  0
VERTEX
  8
0
  5
10719
 10
72.5200
 20
16.3299
 30
0.000000
  70
    32
  0
VERTEX
  8
0
  5
1071A
 10
72.5221
 20
16.3598
 30
0.000000
  70
    32
  0
VERTEX
  8
0
  5
1071B
 10
72.5243
 20
16.3898
 30
0.000000
  70
    32
  0
VERTEX
  8
0
  5
1071C
 10
72.5265
 20
16.4198
 30
0.000000
  70
    32
  0
VERTEX
  8
0
  5
1071D
 10
72.5288
 20
16.4497
 30
0.000000
  70
    32
  0
VERTEX
  8
0
  5
1071E
 10
72.5311
 20
16.4797
 30
0.000000
  70
    32
  0
VERTEX
  8
0
  5
1071F
 10
72.5334
 20
16.5097
 30
0.000000
  70
    32
  0
VERTEX
  8
0
  5
10720
 10
72.5358
 20
16.5396
 30
0.000000
  70
    32
  0
VERTEX
  8
0
  5
10721
 10
72.5383
 20
16.5696
 30
0.000000
  70
    32
  0
VERTEX
  8
0
  5
10722
 10
72.5408
 20
16.5995
 30
0.000000
  70
    32
  0
VERTEX
  8
0
  5
10723
 10
72.5433
 20
16.6294
 30
0.000000
  70
    32
  0
VERTEX
  8
0
  5
10724
 10
72.5459
 20
16.6594
 30
0.000000
  70
    32
  0
VERTEX
  8
0
  5
10725
 10
72.5486
 20
16.6893
 30
0.000000
  70
    32
  0
VERTEX
  8
0
  5
10726
 10
72.5513
 20
16.7192
 30
0.000000
  70
    32
  0
VERTEX
  8
0
  5
10727
 10
72.5540
 20
16.7492
 30
0.000000
  70
    32
  0
VERTEX
  8
0
  5
10728
 10
72.5568
 20
16.7791
 30
0.000000
  70
    32
  0
VERTEX
  8
0
  5
10729
 10
72.5597
 20
16.8090
 30
0.000000
  70
    32
  0
VERTEX
  8
0
  5
1072A
 10
72.5625
 20
16.8389
 30
0.000000
  70
    32
  0
VERTEX
  8
0
  5
1072B
 10
72.5655
 20
16.8688
 30
0.000000
  70
    32
  0
VERTEX
  8
0
  5
1072C
 10
72.5685
 20
16.8987
 30
0.000000
  70
    32
  0
VERTEX
  8
0
  5
1072D
 10
72.5715
 20
16.9286
 30
0.000000
  70
    32
  0
VERTEX
  8
0
  5
1072E
 10
72.5746
 20
16.9585
 30
0.000000
  70
    32
  0
VERTEX
  8
0
  5
1072F
 10
72.5777
 20
16.9884
 30
0.000000
  70
    32
  0
VERTEX
  8
0
  5
10730
 10
72.5809
 20
17.0183
 30
0.000000
  70
    32
  0
VERTEX
  8
0
  5
10731
 10
72.5842
 20
17.0482
 30
0.000000
  70
    32
  0
VERTEX
  8
0
  5
10732
 10
72.5874
 20
17.0780
 30
0.000000
  70
    32
  0
VERTEX
  8
0
  5
10733
 10
72.5908
 20
17.1079
 30
0.000000
  70
    32
  0
VERTEX
  8
0
  5
10734
 10
72.5941
 20
17.1378
 30
0.000000
  70
    32
  0
VERTEX
  8
0
  5
10735
 10
72.5976
 20
17.1676
 30
0.000000
  70
    32
  0
VERTEX
  8
0
  5
10736
 10
72.6010
 20
17.1975
 30
0.000000
  70
    32
  0
VERTEX
  8
0
  5
10737
 10
72.6046
 20
17.2273
 30
0.000000
  70
    32
  0
VERTEX
  8
0
  5
10738
 10
72.6081
 20
17.2571
 30
0.000000
  70
    32
  0
VERTEX
  8
0
  5
10739
 10
72.6118
 20
17.2870
 30
0.000000
  70
    32
  0
VERTEX
  8
0
  5
1073A
 10
72.6154
 20
17.3168
 30
0.000000
  70
    32
  0
VERTEX
  8
0
  5
1073B
 10
72.6192
 20
17.3466
 30
0.000000
  70
    32
  0
VERTEX
  8
0
  5
1073C
 10
72.6229
 20
17.3764
 30
0.000000
  70
    32
  0
VERTEX
  8
0
  5
1073D
 10
72.6268
 20
17.4062
 30
0.000000
  70
    32
  0
VERTEX
  8
0
  5
1073E
 10
72.6306
 20
17.4360
 30
0.000000
  70
    32
  0
VERTEX
  8
0
  5
1073F
 10
72.6345
 20
17.4658
 30
0.000000
  70
    32
  0
VERTEX
  8
0
  5
10740
 10
72.6385
 20
17.4956
 30
0.000000
  70
    32
  0
VERTEX
  8
0
  5
10741
 10
72.6425
 20
17.5254
 30
0.000000
  70
    32
  0
VERTEX
  8
0
  5
10742
 10
72.6466
 20
17.5552
 30
0.000000
  70
    32
  0
VERTEX
  8
0
  5
10743
 10
72.6507
 20
17.5849
 30
0.000000
  70
    32
  0
VERTEX
  8
0
  5
10744
 10
72.6549
 20
17.6147
 30
0.000000
  70
    32
  0
VERTEX
  8
0
  5
10745
 10
72.6591
 20
17.6444
 30
0.000000
  70
    32
  0
VERTEX
  8
0
  5
10746
 10
72.6633
 20
17.6742
 30
0.000000
  70
    32
  0
VERTEX
  8
0
  5
10747
 10
72.6677
 20
17.7039
 30
0.000000
  70
    32
  0
VERTEX
  8
0
  5
10748
 10
72.6720
 20
17.7337
 30
0.000000
  70
    32
  0
VERTEX
  8
0
  5
10749
 10
72.6764
 20
17.7634
 30
0.000000
  70
    32
  0
VERTEX
  8
0
  5
1074A
 10
72.6809
 20
17.7931
 30
0.000000
  70
    32
  0
VERTEX
  8
0
  5
1074B
 10
72.6854
 20
17.8228
 30
0.000000
  70
    32
  0
VERTEX
  8
0
  5
1074C
 10
72.6900
 20
17.8525
 30
0.000000
  70
    32
  0
VERTEX
  8
0
  5
1074D
 10
72.6946
 20
17.8822
 30
0.000000
  70
    32
  0
VERTEX
  8
0
  5
1074E
 10
72.6992
 20
17.9119
 30
0.000000
  70
    32
  0
VERTEX
  8
0
  5
1074F
 10
72.7039
 20
17.9416
 30
0.000000
  70
    32
  0
VERTEX
  8
0
  5
10750
 10
72.7087
 20
17.9712
 30
0.000000
  70
    32
  0
VERTEX
  8
0
  5
10751
 10
72.7135
 20
18.0009
 30
0.000000
  70
    32
  0
VERTEX
  8
0
  5
10752
 10
72.7183
 20
18.0306
 30
0.000000
  70
    32
  0
VERTEX
  8
0
  5
10753
 10
72.7232
 20
18.0602
 30
0.000000
  70
    32
  0
VERTEX
  8
0
  5
10754
 10
72.7282
 20
18.0898
 30
0.000000
  70
    32
  0
VERTEX
  8
0
  5
10755
 10
72.7332
 20
18.1195
 30
0.000000
  70
    32
  0
VERTEX
  8
0
  5
10756
 10
72.7382
 20
18.1491
 30
0.000000
  70
    32
  0
VERTEX
  8
0
  5
10757
 10
72.7434
 20
18.1787
 30
0.000000
  70
    32
  0
VERTEX
  8
0
  5
10758
 10
72.7485
 20
18.2083
 30
0.000000
  70
    32
  0
VERTEX
  8
0
  5
10759
 10
72.7537
 20
18.2379
 30
0.000000
  70
    32
  0
VERTEX
  8
0
  5
1075A
 10
72.7590
 20
18.2675
 30
0.000000
  70
    32
  0
VERTEX
  8
0
  5
1075B
 10
72.7643
 20
18.2971
 30
0.000000
  70
    32
  0
VERTEX
  8
0
  5
1075C
 10
72.7696
 20
18.3266
 30
0.000000
  70
    32
  0
VERTEX
  8
0
  5
1075D
 10
72.7750
 20
18.3562
 30
0.000000
  70
    32
  0
VERTEX
  8
0
  5
1075E
 10
72.7804
 20
18.3857
 30
0.000000
  70
    32
  0
VERTEX
  8
0
  5
1075F
 10
72.7859
 20
18.4153
 30
0.000000
  70
    32
  0
VERTEX
  8
0
  5
10760
 10
72.7915
 20
18.4448
 30
0.000000
  70
    32
  0
VERTEX
  8
0
  5
10761
 10
72.7971
 20
18.4743
 30
0.000000
  70
    32
  0
VERTEX
  8
0
  5
10762
 10
72.8027
 20
18.5038
 30
0.000000
  70
    32
  0
VERTEX
  8
0
  5
10763
 10
72.8084
 20
18.5334
 30
0.000000
  70
    32
  0
VERTEX
  8
0
  5
10764
 10
72.8142
 20
18.5628
 30
0.000000
  70
    32
  0
VERTEX
  8
0
  5
10765
 10
72.8200
 20
18.5923
 30
0.000000
  70
    32
  0
VERTEX
  8
0
  5
10766
 10
72.8258
 20
18.6218
 30
0.000000
  70
    32
  0
VERTEX
  8
0
  5
10767
 10
72.8317
 20
18.6513
 30
0.000000
  70
    32
  0
VERTEX
  8
0
  5
10768
 10
72.8377
 20
18.6807
 30
0.000000
  70
    32
  0
VERTEX
  8
0
  5
10769
 10
72.8437
 20
18.7102
 30
0.000000
  70
    32
  0
VERTEX
  8
0
  5
1076A
 10
72.8497
 20
18.7396
 30
0.000000
  70
    32
  0
VERTEX
  8
0
  5
1076B
 10
72.8558
 20
18.7690
 30
0.000000
  70
    32
  0
VERTEX
  8
0
  5
1076C
 10
72.8619
 20
18.7984
 30
0.000000
  70
    32
  0
VERTEX
  8
0
  5
1076D
 10
72.8681
 20
18.8278
 30
0.000000
  70
    32
  0
VERTEX
  8
0
  5
1076E
 10
72.8744
 20
18.8572
 30
0.000000
  70
    32
  0
VERTEX
  8
0
  5
1076F
 10
72.8807
 20
18.8866
 30
0.000000
  70
    32
  0
VERTEX
  8
0
  5
10770
 10
72.8870
 20
18.9160
 30
0.000000
  70
    32
  0
VERTEX
  8
0
  5
10771
 10
72.8934
 20
18.9453
 30
0.000000
  70
    32
  0
VERTEX
  8
0
  5
10772
 10
72.8999
 20
18.9747
 30
0.000000
  70
    32
  0
VERTEX
  8
0
  5
10773
 10
72.9064
 20
19.0040
 30
0.000000
  70
    32
  0
VERTEX
  8
0
  5
10774
 10
72.9129
 20
19.0334
 30
0.000000
  70
    32
  0
VERTEX
  8
0
  5
10775
 10
72.9195
 20
19.0627
 30
0.000000
  70
    32
  0
VERTEX
  8
0
  5
10776
 10
72.9261
 20
19.0920
 30
0.000000
  70
    32
  0
VERTEX
  8
0
  5
10777
 10
72.9328
 20
19.1213
 30
0.000000
  70
    32
  0
VERTEX
  8
0
  5
10778
 10
72.9396
 20
19.1506
 30
0.000000
  70
    32
  0
VERTEX
  8
0
  5
10779
 10
72.9464
 20
19.1798
 30
0.000000
  70
    32
  0
VERTEX
  8
0
  5
1077A
 10
72.9532
 20
19.2091
 30
0.000000
  70
    32
  0
VERTEX
  8
0
  5
1077B
 10
72.9601
 20
19.2383
 30
0.000000
  70
    32
  0
VERTEX
  8
0
  5
1077C
 10
72.9671
 20
19.2676
 30
0.000000
  70
    32
  0
VERTEX
  8
0
  5
1077D
 10
72.9741
 20
19.2968
 30
0.000000
  70
    32
  0
VERTEX
  8
0
  5
1077E
 10
72.9811
 20
19.3260
 30
0.000000
  70
    32
  0
VERTEX
  8
0
  5
1077F
 10
72.9882
 20
19.3552
 30
0.000000
  70
    32
  0
VERTEX
  8
0
  5
10780
 10
72.9954
 20
19.3844
 30
0.000000
  70
    32
  0
VERTEX
  8
0
  5
10781
 10
73.0026
 20
19.4136
 30
0.000000
  70
    32
  0
VERTEX
  8
0
  5
10782
 10
73.0098
 20
19.4427
 30
0.000000
  70
    32
  0
VERTEX
  8
0
  5
10783
 10
73.0171
 20
19.4719
 30
0.000000
  70
    32
  0
VERTEX
  8
0
  5
10784
 10
73.0245
 20
19.5010
 30
0.000000
  70
    32
  0
VERTEX
  8
0
  5
10785
 10
73.0319
 20
19.5301
 30
0.000000
  70
    32
  0
VERTEX
  8
0
  5
10786
 10
73.0393
 20
19.5593
 30
0.000000
  70
    32
  0
VERTEX
  8
0
  5
10787
 10
73.0468
 20
19.5884
 30
0.000000
  70
    32
  0
VERTEX
  8
0
  5
10788
 10
73.0544
 20
19.6174
 30
0.000000
  70
    32
  0
VERTEX
  8
0
  5
10789
 10
73.0620
 20
19.6465
 30
0.000000
  70
    32
  0
VERTEX
  8
0
  5
1078A
 10
73.0696
 20
19.6756
 30
0.000000
  70
    32
  0
VERTEX
  8
0
  5
1078B
 10
73.0773
 20
19.7046
 30
0.000000
  70
    32
  0
VERTEX
  8
0
  5
1078C
 10
73.0851
 20
19.7336
 30
0.000000
  70
    32
  0
VERTEX
  8
0
  5
1078D
 10
73.0929
 20
19.7627
 30
0.000000
  70
    32
  0
VERTEX
  8
0
  5
1078E
 10
73.1008
 20
19.7917
 30
0.000000
  70
    32
  0
VERTEX
  8
0
  5
1078F
 10
73.1087
 20
19.8207
 30
0.000000
  70
    32
  0
VERTEX
  8
0
  5
10790
 10
73.1166
 20
19.8496
 30
0.000000
  70
    32
  0
VERTEX
  8
0
  5
10791
 10
73.1246
 20
19.8786
 30
0.000000
  70
    32
  0
VERTEX
  8
0
  5
10792
 10
73.1327
 20
19.9075
 30
0.000000
  70
    32
  0
VERTEX
  8
0
  5
10793
 10
73.1408
 20
19.9365
 30
0.000000
  70
    32
  0
VERTEX
  8
0
  5
10794
 10
73.1490
 20
19.9654
 30
0.000000
  70
    32
  0
VERTEX
  8
0
  5
10795
 10
73.1572
 20
19.9943
 30
0.000000
  70
    32
  0
VERTEX
  8
0
  5
10796
 10
73.1655
 20
20.0232
 30
0.000000
  70
    32
  0
VERTEX
  8
0
  5
10797
 10
73.1738
 20
20.0521
 30
0.000000
  70
    32
  0
VERTEX
  8
0
  5
10798
 10
73.1822
 20
20.0809
 30
0.000000
  70
    32
  0
VERTEX
  8
0
  5
10799
 10
73.1906
 20
20.1098
 30
0.000000
  70
    32
  0
VERTEX
  8
0
  5
1079A
 10
73.1990
 20
20.1386
 30
0.000000
  70
    32
  0
VERTEX
  8
0
  5
1079B
 10
73.2076
 20
20.1674
 30
0.000000
  70
    32
  0
VERTEX
  8
0
  5
1079C
 10
73.2161
 20
20.1962
 30
0.000000
  70
    32
  0
VERTEX
  8
0
  5
1079D
 10
73.2248
 20
20.2250
 30
0.000000
  70
    32
  0
VERTEX
  8
0
  5
1079E
 10
73.2334
 20
20.2538
 30
0.000000
  70
    32
  0
VERTEX
  8
0
  5
1079F
 10
73.2422
 20
20.2825
 30
0.000000
  70
    32
  0
VERTEX
  8
0
  5
107A0
 10
73.2510
 20
20.3113
 30
0.000000
  70
    32
  0
VERTEX
  8
0
  5
107A1
 10
73.2598
 20
20.3400
 30
0.000000
  70
    32
  0
VERTEX
  8
0
  5
107A2
 10
73.2687
 20
20.3687
 30
0.000000
  70
    32
  0
VERTEX
  8
0
  5
107A3
 10
73.2776
 20
20.3974
 30
0.000000
  70
    32
  0
VERTEX
  8
0
  5
107A4
 10
73.2866
 20
20.4261
 30
0.000000
  70
    32
  0
VERTEX
  8
0
  5
107A5
 10
73.2956
 20
20.4547
 30
0.000000
  70
    32
  0
VERTEX
  8
0
  5
107A6
 10
73.3047
 20
20.4834
 30
0.000000
  70
    32
  0
VERTEX
  8
0
  5
107A7
 10
73.3138
 20
20.5120
 30
0.000000
  70
    32
  0
VERTEX
  8
0
  5
107A8
 10
73.3230
 20
20.5406
 30
0.000000
  70
    32
  0
VERTEX
  8
0
  5
107A9
 10
73.3323
 20
20.5692
 30
0.000000
  70
    32
  0
VERTEX
  8
0
  5
107AA
 10
73.3416
 20
20.5978
 30
0.000000
  70
    32
  0
VERTEX
  8
0
  5
107AB
 10
73.3509
 20
20.6263
 30
0.000000
  70
    32
  0
VERTEX
  8
0
  5
107AC
 10
73.3603
 20
20.6549
 30
0.000000
  70
    32
  0
VERTEX
  8
0
  5
107AD
 10
73.3697
 20
20.6834
 30
0.000000
  70
    32
  0
VERTEX
  8
0
  5
107AE
 10
73.3792
 20
20.7119
 30
0.000000
  70
    32
  0
VERTEX
  8
0
  5
107AF
 10
73.3888
 20
20.7404
 30
0.000000
  70
    32
  0
VERTEX
  8
0
  5
107B0
 10
73.3984
 20
20.7689
 30
0.000000
  70
    32
  0
VERTEX
  8
0
  5
107B1
 10
73.4080
 20
20.7973
 30
0.000000
  70
    32
  0
VERTEX
  8
0
  5
107B2
 10
73.4177
 20
20.8258
 30
0.000000
  70
    32
  0
VERTEX
  8
0
  5
107B3
 10
73.4275
 20
20.8542
 30
0.000000
  70
    32
  0
VERTEX
  8
0
  5
107B4
 10
73.4373
 20
20.8826
 30
0.000000
  70
    32
  0
VERTEX
  8
0
  5
107B5
 10
73.4471
 20
20.9110
 30
0.000000
  70
    32
  0
VERTEX
  8
0
  5
107B6
 10
73.4570
 20
20.9394
 30
0.000000
  70
    32
  0
VERTEX
  8
0
  5
107B7
 10
73.4669
 20
20.9677
 30
0.000000
  70
    32
  0
VERTEX
  8
0
  5
107B8
 10
73.4769
 20
20.9961
 30
0.000000
  70
    32
  0
VERTEX
  8
0
  5
107B9
 10
73.4870
 20
21.0244
 30
0.000000
  70
    32
  0
VERTEX
  8
0
  5
107BA
 10
73.4971
 20
21.0527
 30
0.000000
  70
    32
  0
VERTEX
  8
0
  5
107BB
 10
73.5072
 20
21.0810
 30
0.000000
  70
    32
  0
VERTEX
  8
0
  5
107BC
 10
73.5174
 20
21.1093
 30
0.000000
  70
    32
  0
VERTEX
  8
0
  5
107BD
 10
73.5277
 20
21.1375
 30
0.000000
  70
    32
  0
VERTEX
  8
0
  5
107BE
 10
73.5380
 20
21.1657
 30
0.000000
  70
    32
  0
VERTEX
  8
0
  5
107BF
 10
73.5483
 20
21.1939
 30
0.000000
  70
    32
  0
VERTEX
  8
0
  5
107C0
 10
73.5587
 20
21.2221
 30
0.000000
  70
    32
  0
VERTEX
  8
0
  5
107C1
 10
73.5692
 20
21.2503
 30
0.000000
  70
    32
  0
VERTEX
  8
0
  5
107C2
 10
73.5796
 20
21.2785
 30
0.000000
  70
    32
  0
VERTEX
  8
0
  5
107C3
 10
73.5902
 20
21.3066
 30
0.000000
  70
    32
  0
VERTEX
  8
0
  5
107C4
 10
73.6008
 20
21.3347
 30
0.000000
  70
    32
  0
VERTEX
  8
0
  5
107C5
 10
73.6114
 20
21.3628
 30
0.000000
  70
    32
  0
VERTEX
  8
0
  5
107C6
 10
73.6221
 20
21.3909
 30
0.000000
  70
    32
  0
VERTEX
  8
0
  5
107C7
 10
73.6329
 20
21.4190
 30
0.000000
  70
    32
  0
VERTEX
  8
0
  5
107C8
 10
73.6437
 20
21.4470
 30
0.000000
  70
    32
  0
VERTEX
  8
0
  5
107C9
 10
73.6545
 20
21.4751
 30
0.000000
  70
    32
  0
VERTEX
  8
0
  5
107CA
 10
73.6654
 20
21.5031
 30
0.000000
  70
    32
  0
VERTEX
  8
0
  5
107CB
 10
73.6763
 20
21.5310
 30
0.000000
  70
    32
  0
VERTEX
  8
0
  5
107CC
 10
73.6873
 20
21.5590
 30
0.000000
  70
    32
  0
VERTEX
  8
0
  5
107CD
 10
73.6983
 20
21.5870
 30
0.000000
  70
    32
  0
VERTEX
  8
0
  5
107CE
 10
73.7094
 20
21.6149
 30
0.000000
  70
    32
  0
VERTEX
  8
0
  5
107CF
 10
73.7206
 20
21.6428
 30
0.000000
  70
    32
  0
VERTEX
  8
0
  5
107D0
 10
73.7317
 20
21.6707
 30
0.000000
  70
    32
  0
VERTEX
  8
0
  5
107D1
 10
73.7430
 20
21.6986
 30
0.000000
  70
    32
  0
VERTEX
  8
0
  5
107D2
 10
73.7543
 20
21.7264
 30
0.000000
  70
    32
  0
VERTEX
  8
0
  5
107D3
 10
73.7656
 20
21.7542
 30
0.000000
  70
    32
  0
VERTEX
  8
0
  5
107D4
 10
73.7770
 20
21.7821
 30
0.000000
  70
    32
  0
VERTEX
  8
0
  5
107D5
 10
73.7884
 20
21.8099
 30
0.000000
  70
    32
  0
VERTEX
  8
0
  5
107D6
 10
73.7999
 20
21.8376
 30
0.000000
  70
    32
  0
VERTEX
  8
0
  5
107D7
 10
73.8114
 20
21.8654
 30
0.000000
  70
    32
  0
VERTEX
  8
0
  5
107D8
 10
73.8229
 20
21.8931
 30
0.000000
  70
    32
  0
VERTEX
  8
0
  5
107D9
 10
73.8346
 20
21.9208
 30
0.000000
  70
    32
  0
VERTEX
  8
0
  5
107DA
 10
73.8462
 20
21.9485
 30
0.000000
  70
    32
  0
VERTEX
  8
0
  5
107DB
 10
73.8579
 20
21.9762
 30
0.000000
  70
    32
  0
VERTEX
  8
0
  5
107DC
 10
73.8697
 20
22.0038
 30
0.000000
  70
    32
  0
VERTEX
  8
0
  5
107DD
 10
73.8815
 20
22.0315
 30
0.000000
  70
    32
  0
VERTEX
  8
0
  5
107DE
 10
73.8934
 20
22.0591
 30
0.000000
  70
    32
  0
VERTEX
  8
0
  5
107DF
 10
73.9053
 20
22.0867
 30
0.000000
  70
    32
  0
VERTEX
  8
0
  5
107E0
 10
73.9172
 20
22.1142
 30
0.000000
  70
    32
  0
VERTEX
  8
0
  5
107E1
 10
73.9292
 20
22.1418
 30
0.000000
  70
    32
  0
VERTEX
  8
0
  5
107E2
 10
73.9413
 20
22.1693
 30
0.000000
  70
    32
  0
VERTEX
  8
0
  5
107E3
 10
73.9534
 20
22.1968
 30
0.000000
  70
    32
  0
VERTEX
  8
0
  5
107E4
 10
73.9655
 20
22.2243
 30
0.000000
  70
    32
  0
VERTEX
  8
0
  5
107E5
 10
73.9777
 20
22.2518
 30
0.000000
  70
    32
  0
VERTEX
  8
0
  5
107E6
 10
73.9899
 20
22.2792
 30
0.000000
  70
    32
  0
VERTEX
  8
0
  5
107E7
 10
74.0022
 20
22.3066
 30
0.000000
  70
    32
  0
VERTEX
  8
0
  5
107E8
 10
74.0145
 20
22.3340
 30
0.000000
  70
    32
  0
VERTEX
  8
0
  5
107E9
 10
74.0269
 20
22.3614
 30
0.000000
  70
    32
  0
VERTEX
  8
0
  5
107EA
 10
74.0393
 20
22.3888
 30
0.000000
  70
    32
  0
VERTEX
  8
0
  5
107EB
 10
74.0518
 20
22.4161
 30
0.000000
  70
    32
  0
VERTEX
  8
0
  5
107EC
 10
74.0643
 20
22.4434
 30
0.000000
  70
    32
  0
VERTEX
  8
0
  5
107ED
 10
74.0769
 20
22.4707
 30
0.000000
  70
    32
  0
VERTEX
  8
0
  5
107EE
 10
74.0895
 20
22.4980
 30
0.000000
  70
    32
  0
VERTEX
  8
0
  5
107EF
 10
74.1022
 20
22.5253
 30
0.000000
  70
    32
  0
VERTEX
  8
0
  5
107F0
 10
74.1149
 20
22.5525
 30
0.000000
  70
    32
  0
VERTEX
  8
0
  5
107F1
 10
74.1276
 20
22.5797
 30
0.000000
  70
    32
  0
VERTEX
  8
0
  5
107F2
 10
74.1404
 20
22.6069
 30
0.000000
  70
    32
  0
VERTEX
  8
0
  5
107F3
 10
74.1532
 20
22.6341
 30
0.000000
  70
    32
  0
VERTEX
  8
0
  5
107F4
 10
74.1661
 20
22.6612
 30
0.000000
  70
    32
  0
VERTEX
  8
0
  5
107F5
 10
74.1791
 20
22.6883
 30
0.000000
  70
    32
  0
VERTEX
  8
0
  5
107F6
 10
74.1920
 20
22.7154
 30
0.000000
  70
    32
  0
VERTEX
  8
0
  5
107F7
 10
74.2051
 20
22.7425
 30
0.000000
  70
    32
  0
VERTEX
  8
0
  5
107F8
 10
74.2181
 20
22.7696
 30
0.000000
  70
    32
  0
VERTEX
  8
0
  5
107F9
 10
74.2312
 20
22.7966
 30
0.000000
  70
    32
  0
VERTEX
  8
0
  5
107FA
 10
74.2444
 20
22.8236
 30
0.000000
  70
    32
  0
VERTEX
  8
0
  5
107FB
 10
74.2576
 20
22.8506
 30
0.000000
  70
    32
  0
VERTEX
  8
0
  5
107FC
 10
74.2709
 20
22.8776
 30
0.000000
  70
    32
  0
VERTEX
  8
0
  5
107FD
 10
74.2842
 20
22.9046
 30
0.000000
  70
    32
  0
VERTEX
  8
0
  5
107FE
 10
74.2975
 20
22.9315
 30
0.000000
  70
    32
  0
VERTEX
  8
0
  5
107FF
 10
74.3109
 20
22.9584
 30
0.000000
  70
    32
  0
VERTEX
  8
0
  5
10800
 10
74.3243
 20
22.9853
 30
0.000000
  70
    32
  0
VERTEX
  8
0
  5
10801
 10
74.3378
 20
23.0121
 30
0.000000
  70
    32
  0
VERTEX
  8
0
  5
10802
 10
74.3513
 20
23.0390
 30
0.000000
  70
    32
  0
VERTEX
  8
0
  5
10803
 10
74.3649
 20
23.0658
 30
0.000000
  70
    32
  0
VERTEX
  8
0
  5
10804
 10
74.3785
 20
23.0926
 30
0.000000
  70
    32
  0
VERTEX
  8
0
  5
10805
 10
74.3921
 20
23.1193
 30
0.000000
  70
    32
  0
VERTEX
  8
0
  5
10806
 10
74.4058
 20
23.1461
 30
0.000000
  70
    32
  0
VERTEX
  8
0
  5
10807
 10
74.4196
 20
23.1728
 30
0.000000
  70
    32
  0
VERTEX
  8
0
  5
10808
 10
74.4334
 20
23.1995
 30
0.000000
  70
    32
  0
VERTEX
  8
0
  5
10809
 10
74.4472
 20
23.2262
 30
0.000000
  70
    32
  0
VERTEX
  8
0
  5
1080A
 10
74.4611
 20
23.2529
 30
0.000000
  70
    32
  0
VERTEX
  8
0
  5
1080B
 10
74.4750
 20
23.2795
 30
0.000000
  70
    32
  0
VERTEX
  8
0
  5
1080C
 10
74.4890
 20
23.3061
 30
0.000000
  70
    32
  0
VERTEX
  8
0
  5
1080D
 10
74.5030
 20
23.3327
 30
0.000000
  70
    32
  0
VERTEX
  8
0
  5
1080E
 10
74.5170
 20
23.3592
 30
0.000000
  70
    32
  0
VERTEX
  8
0
  5
1080F
 10
74.5311
 20
23.3858
 30
0.000000
  70
    32
  0
VERTEX
  8
0
  5
10810
 10
74.5453
 20
23.4123
 30
0.000000
  70
    32
  0
VERTEX
  8
0
  5
10811
 10
74.5595
 20
23.4388
 30
0.000000
  70
    32
  0
VERTEX
  8
0
  5
10812
 10
74.5737
 20
23.4653
 30
0.000000
  70
    32
  0
VERTEX
  8
0
  5
10813
 10
74.5880
 20
23.4917
 30
0.000000
  70
    32
  0
VERTEX
  8
0
  5
10814
 10
74.6023
 20
23.5181
 30
0.000000
  70
    32
  0
VERTEX
  8
0
  5
10815
 10
74.6167
 20
23.5445
 30
0.000000
  70
    32
  0
VERTEX
  8
0
  5
10816
 10
74.6311
 20
23.5709
 30
0.000000
  70
    32
  0
VERTEX
  8
0
  5
10817
 10
74.6455
 20
23.5972
 30
0.000000
  70
    32
  0
VERTEX
  8
0
  5
10818
 10
74.6600
 20
23.6236
 30
0.000000
  70
    32
  0
VERTEX
  8
0
  5
10819
 10
74.6745
 20
23.6499
 30
0.000000
  70
    32
  0
VERTEX
  8
0
  5
1081A
 10
74.6891
 20
23.6761
 30
0.000000
  70
    32
  0
VERTEX
  8
0
  5
1081B
 10
74.7037
 20
23.7024
 30
0.000000
  70
    32
  0
VERTEX
  8
0
  5
1081C
 10
74.7184
 20
23.7286
 30
0.000000
  70
    32
  0
VERTEX
  8
0
  5
1081D
 10
74.7331
 20
23.7548
 30
0.000000
  70
    32
  0
VERTEX
  8
0
  5
1081E
 10
74.7478
 20
23.7810
 30
0.000000
  70
    32
  0
VERTEX
  8
0
  5
1081F
 10
74.7626
 20
23.8071
 30
0.000000
  70
    32
  0
VERTEX
  8
0
  5
10820
 10
74.7775
 20
23.8333
 30
0.000000
  70
    32
  0
VERTEX
  8
0
  5
10821
 10
74.7924
 20
23.8594
 30
0.000000
  70
    32
  0
VERTEX
  8
0
  5
10822
 10
74.8073
 20
23.8855
 30
0.000000
  70
    32
  0
VERTEX
  8
0
  5
10823
 10
74.8222
 20
23.9115
 30
0.000000
  70
    32
  0
VERTEX
  8
0
  5
10824
 10
74.8372
 20
23.9375
 30
0.000000
  70
    32
  0
VERTEX
  8
0
  5
10825
 10
74.8523
 20
23.9636
 30
0.000000
  70
    32
  0
VERTEX
  8
0
  5
10826
 10
74.8674
 20
23.9895
 30
0.000000
  70
    32
  0
VERTEX
  8
0
  5
10827
 10
74.8825
 20
24.0155
 30
0.000000
  70
    32
  0
VERTEX
  8
0
  5
10828
 10
74.8977
 20
24.0414
 30
0.000000
  70
    32
  0
VERTEX
  8
0
  5
10829
 10
74.9129
 20
24.0673
 30
0.000000
  70
    32
  0
VERTEX
  8
0
  5
1082A
 10
74.9282
 20
24.0932
 30
0.000000
  70
    32
  0
VERTEX
  8
0
  5
1082B
 10
74.9435
 20
24.1191
 30
0.000000
  70
    32
  0
VERTEX
  8
0
  5
1082C
 10
74.9588
 20
24.1449
 30
0.000000
  70
    32
  0
VERTEX
  8
0
  5
1082D
 10
74.9742
 20
24.1707
 30
0.000000
  70
    32
  0
SEQEND
  8
0
  5
1082E
  0
POLYLINE
  8
0
  5
1082F
  66
     1
 10
0.000000
 20
0.000000
 30
0.000000
  70
     8
  0
VERTEX
  8
0
  5
10830
 10
74.0000
 20
10.0000
 30
0.000000
  70
    32
  0
VERTEX
  8
0
  5
10831
 10
74.0387
 20
10.0255
 30
0.000000
  70
    32
  0
VERTEX
  8
0
  5
10832
 10
74.0773
 20
10.0510
 30
0.000000
  70
    32
  0
VERTEX
  8
0
  5
10833
 10
74.1159
 20
10.0766
 30
0.000000
  70
    32
  0
VERTEX
  8
0
  5
10834
 10
74.1544
 20
10.1023
 30
0.000000
  70
    32
  0
VERTEX
  8
0
  5
10835
 10
74.1929
 20
10.1281
 30
0.000000
  70
    32
  0
VERTEX
  8
0
  5
10836
 10
74.2313
 20
10.1540
 30
0.000000
  70
    32
  0
VERTEX
  8
0
  5
10837
 10
74.2697
 20
10.1799
 30
0.000000
  70
    32
  0
VERTEX
  8
0
  5
10838
 10
74.3080
 20
10.2059
 30
0.000000
  70
    32
  0
VERTEX
  8
0
  5
10839
 10
74.3463
 20
10.2320
 30
0.000000
  70
    32
  0
VERTEX
  8
0
  5
1083A
 10
74.3845
 20
10.2581
 30
0.000000
  70
    32
  0
VERTEX
  8
0
  5
1083B
 10
74.4227
 20
10.2844
 30
0.000000
  70
    32
  0
VERTEX
  8
0
  5
1083C
 10
74.4608
 20
10.3107
 30
0.000000
  70
    32
  0
VERTEX
  8
0
  5
1083D
 10
74.4989
 20
10.3371
 30
0.000000
  70
    32
  0
VERTEX
  8
0
  5
1083E
 10
74.5369
 20
10.3636
 30
0.000000
  70
    32
  0
VERTEX
  8
0
  5
1083F
 10
74.5749
 20
10.3901
 30
0.000000
  70
    32
  0
VERTEX
  8
0
  5
10840
 10
74.6128
 20
10.4168
 30
0.000000
  70
    32
  0
VERTEX
  8
0
  5
10841
 10
74.6506
 20
10.4435
 30
0.000000
  70
    32
  0
VERTEX
  8
0
  5
10842
 10
74.6884
 20
10.4703
 30
0.000000
  70
    32
  0
VERTEX
  8
0
  5
10843
 10
74.7261
 20
10.4971
 30
0.000000
  70
    32
  0
VERTEX
  8
0
  5
10844
 10
74.7638
 20
10.5241
 30
0.000000
  70
    32
  0
VERTEX
  8
0
  5
10845
 10
74.8015
 20
10.5511
 30
0.000000
  70
    32
  0
VERTEX
  8
0
  5
10846
 10
74.8390
 20
10.5782
 30
0.000000
  70
    32
  0
VERTEX
  8
0
  5
10847
 10
74.8766
 20
10.6054
 30
0.000000
  70
    32
  0
VERTEX
  8
0
  5
10848
 10
74.9140
 20
10.6326
 30
0.000000
  70
    32
  0
VERTEX
  8
0
  5
10849
 10
74.9514
 20
10.6600
 30
0.000000
  70
    32
  0
VERTEX
  8
0
  5
1084A
 10
74.9888
 20
10.6874
 30
0.000000
  70
    32
  0
VERTEX
  8
0
  5
1084B
 10
75.0261
 20
10.7149
 30
0.000000
  70
    32
  0
VERTEX
  8
0
  5
1084C
 10
75.0633
 20
10.7424
 30
0.000000
  70
    32
  0
VERTEX
  8
0
  5
1084D
 10
75.1005
 20
10.7701
 30
0.000000
  70
    32
  0
VERTEX
  8
0
  5
1084E
 10
75.1376
 20
10.7978
 30
0.000000
  70
    32
  0
VERTEX
  8
0
  5
1084F
 10
75.1747
 20
10.8256
 30
0.000000
  70
    32
  0
VERTEX
  8
0
  5
10850
 10
75.2117
 20
10.8535
 30
0.000000
  70
    32
  0
VERTEX
  8
0
  5
10851
 10
75.2487
 20
10.8814
 30
0.000000
  70
    32
  0
VERTEX
  8
0
  5
10852
 10
75.2856
 20
10.9094
 30
0.000000
  70
    32
  0
VERTEX
  8
0
  5
10853
 10
75.3224
 20
10.9376
 30
0.000000
  70
    32
  0
VERTEX
  8
0
  5
10854
 10
75.3592
 20
10.9657
 30
0.000000
  70
    32
  0
VERTEX
  8
0
  5
10855
 10
75.3959
 20
10.9940
 30
0.000000
  70
    32
  0
VERTEX
  8
0
  5
10856
 10
75.4326
 20
11.0223
 30
0.000000
  70
    32
  0
VERTEX
  8
0
  5
10857
 10
75.4692
 20
11.0507
 30
0.000000
  70
    32
  0
VERTEX
  8
0
  5
10858
 10
75.5057
 20
11.0792
 30
0.000000
  70
    32
  0
VERTEX
  8
0
  5
10859
 10
75.5422
 20
11.1078
 30
0.000000
  70
    32
  0
VERTEX
  8
0
  5
1085A
 10
75.5786
 20
11.1364
 30
0.000000
  70
    32
  0
VERTEX
  8
0
  5
1085B
 10
75.6150
 20
11.1652
 30
0.000000
  70
    32
  0
VERTEX
  8
0
  5
1085C
 10
75.6513
 20
11.1940
 30
0.000000
  70
    32
  0
VERTEX
  8
0
  5
1085D
 10
75.6875
 20
11.2228
 30
0.000000
  70
    32
  0
VERTEX
  8
0
  5
1085E
 10
75.7237
 20
11.2518
 30
0.000000
  70
    32
  0
VERTEX
  8
0
  5
1085F
 10
75.7598
 20
11.2808
 30
0.000000
  70
    32
  0
VERTEX
  8
0
  5
10860
 10
75.7959
 20
11.3099
 30
0.000000
  70
    32
  0
VERTEX
  8
0
  5
10861
 10
75.8318
 20
11.3391
 30
0.000000
  70
    32
  0
VERTEX
  8
0
  5
10862
 10
75.8678
 20
11.3683
 30
0.000000
  70
    32
  0
VERTEX
  8
0
  5
10863
 10
75.9036
 20
11.3977
 30
0.000000
  70
    32
  0
VERTEX
  8
0
  5
10864
 10
75.9395
 20
11.4271
 30
0.000000
  70
    32
  0
VERTEX
  8
0
  5
10865
 10
75.9752
 20
11.4566
 30
0.000000
  70
    32
  0
VERTEX
  8
0
  5
10866
 10
76.0109
 20
11.4861
 30
0.000000
  70
    32
  0
VERTEX
  8
0
  5
10867
 10
76.0465
 20
11.5158
 30
0.000000
  70
    32
  0
VERTEX
  8
0
  5
10868
 10
76.0820
 20
11.5455
 30
0.000000
  70
    32
  0
VERTEX
  8
0
  5
10869
 10
76.1175
 20
11.5753
 30
0.000000
  70
    32
  0
VERTEX
  8
0
  5
1086A
 10
76.1529
 20
11.6051
 30
0.000000
  70
    32
  0
VERTEX
  8
0
  5
1086B
 10
76.1883
 20
11.6351
 30
0.000000
  70
    32
  0
VERTEX
  8
0
  5
1086C
 10
76.2236
 20
11.6651
 30
0.000000
  70
    32
  0
VERTEX
  8
0
  5
1086D
 10
76.2588
 20
11.6952
 30
0.000000
  70
    32
  0
VERTEX
  8
0
  5
1086E
 10
76.2940
 20
11.7254
 30
0.000000
  70
    32
  0
VERTEX
  8
0
  5
1086F
 10
76.3291
 20
11.7556
 30
0.000000
  70
    32
  0
VERTEX
  8
0
  5
10870
 10
76.3641
 20
11.7860
 30
0.000000
  70
    32
  0
VERTEX
  8
0
  5
10871
 10
76.3991
 20
11.8164
 30
0.000000
  70
    32
  0
VERTEX
  8
0
  5
10872
 10
76.4340
 20
11.8468
 30
0.000000
  70
    32
  0
VERTEX
  8
0
  5
10873
 10
76.4688
 20
11.8774
 30
0.000000
  70
    32
  0
VERTEX
  8
0
  5
10874
 10
76.5036
 20
11.9080
 30
0.000000
  70
    32
  0
VERTEX
  8
0
  5
10875
 10
76.5382
 20
11.9387
 30
0.000000
  70
    32
  0
VERTEX
  8
0
  5
10876
 10
76.5729
 20
11.9695
 30
0.000000
  70
    32
  0
VERTEX
  8
0
  5
10877
 10
76.6074
 20
12.0004
 30
0.000000
  70
    32
  0
VERTEX
  8
0
  5
10878
 10
76.6419
 20
12.0313
 30
0.000000
  70
    32
  0
VERTEX
  8
0
  5
10879
 10
76.6763
 20
12.0623
 30
0.000000
  70
    32
  0
VERTEX
  8
0
  5
1087A
 10
76.7107
 20
12.0934
 30
0.000000
  70
    32
  0
VERTEX
  8
0
  5
1087B
 10
76.7450
 20
12.1246
 30
0.000000
  70
    32
  0
VERTEX
  8
0
  5
1087C
 10
76.7792
 20
12.1558
 30
0.000000
  70
    32
  0
VERTEX
  8
0
  5
1087D
 10
76.8133
 20
12.1871
 30
0.000000
  70
    32
  0
VERTEX
  8
0
  5
1087E
 10
76.8474
 20
12.2185
 30
0.000000
  70
    32
  0
VERTEX
  8
0
  5
1087F
 10
76.8814
 20
12.2500
 30
0.000000
  70
    32
  0
VERTEX
  8
0
  5
10880
 10
76.9153
 20
12.2815
 30
0.000000
  70
    32
  0
VERTEX
  8
0
  5
10881
 10
76.9492
 20
12.3132
 30
0.000000
  70
    32
  0
VERTEX
  8
0
  5
10882
 10
76.9830
 20
12.3449
 30
0.000000
  70
    32
  0
VERTEX
  8
0
  5
10883
 10
77.0167
 20
12.3766
 30
0.000000
  70
    32
  0
VERTEX
  8
0
  5
10884
 10
77.0503
 20
12.4085
 30
0.000000
  70
    32
  0
VERTEX
  8
0
  5
10885
 10
77.0839
 20
12.4404
 30
0.000000
  70
    32
  0
VERTEX
  8
0
  5
10886
 10
77.1174
 20
12.4724
 30
0.000000
  70
    32
  0
VERTEX
  8
0
  5
10887
 10
77.1508
 20
12.5045
 30
0.000000
  70
    32
  0
VERTEX
  8
0
  5
10888
 10
77.1842
 20
12.5367
 30
0.000000
  70
    32
  0
VERTEX
  8
0
  5
10889
 10
77.2174
 20
12.5689
 30
0.000000
  70
    32
  0
VERTEX
  8
0
  5
1088A
 10
77.2506
 20
12.6012
 30
0.000000
  70
    32
  0
VERTEX
  8
0
  5
1088B
 10
77.2838
 20
12.6336
 30
0.000000
  70
    32
  0
VERTEX
  8
0
  5
1088C
 10
77.3168
 20
12.6660
 30
0.000000
  70
    32
  0
VERTEX
  8
0
  5
1088D
 10
77.3498
 20
12.6986
 30
0.000000
  70
    32
  0
VERTEX
  8
0
  5
1088E
 10
77.3827
 20
12.7312
 30
0.000000
  70
    32
  0
VERTEX
  8
0
  5
1088F
 10
77.4155
 20
12.7639
 30
0.000000
  70
    32
  0
VERTEX
  8
0
  5
10890
 10
77.4483
 20
12.7967
 30
0.000000
  70
    32
  0
VERTEX
  8
0
  5
10891
 10
77.4810
 20
12.8295
 30
0.000000
  70
    32
  0
VERTEX
  8
0
  5
10892
 10
77.5136
 20
12.8624
 30
0.000000
  70
    32
  0
VERTEX
  8
0
  5
10893
 10
77.5461
 20
12.8954
 30
0.000000
  70
    32
  0
VERTEX
  8
0
  5
10894
 10
77.5785
 20
12.9285
 30
0.000000
  70
    32
  0
VERTEX
  8
0
  5
10895
 10
77.6109
 20
12.9616
 30
0.000000
  70
    32
  0
VERTEX
  8
0
  5
10896
 10
77.6432
 20
12.9948
 30
0.000000
  70
    32
  0
VERTEX
  8
0
  5
10897
 10
77.6754
 20
13.0281
 30
0.000000
  70
    32
  0
VERTEX
  8
0
  5
10898
 10
77.7076
 20
13.0615
 30
0.000000
  70
    32
  0
VERTEX
  8
0
  5
10899
 10
77.7396
 20
13.0949
 30
0.000000
  70
    32
  0
VERTEX
  8
0
  5
1089A
 10
77.7716
 20
13.1285
 30
0.000000
  70
    32
  0
VERTEX
  8
0
  5
1089B
 10
77.8035
 20
13.1620
 30
0.000000
  70
    32
  0
VERTEX
  8
0
  5
1089C
 10
77.8354
 20
13.1957
 30
0.000000
  70
    32
  0
VERTEX
  8
0
  5
1089D
 10
77.8671
 20
13.2294
 30
0.000000
  70
    32
  0
VERTEX
  8
0
  5
1089E
 10
77.8988
 20
13.2633
 30
0.000000
  70
    32
  0
VERTEX
  8
0
  5
1089F
 10
77.9304
 20
13.2971
 30
0.000000
  70
    32
  0
VERTEX
  8
0
  5
108A0
 10
77.9619
 20
13.3311
 30
0.000000
  70
    32
  0
VERTEX
  8
0
  5
108A1
 10
77.9934
 20
13.3651
 30
0.000000
  70
    32
  0
VERTEX
  8
0
  5
108A2
 10
78.0247
 20
13.3992
 30
0.000000
  70
    32
  0
VERTEX
  8
0
  5
108A3
 10
78.0560
 20
13.4334
 30
0.000000
  70
    32
  0
VERTEX
  8
0
  5
108A4
 10
78.0872
 20
13.4677
 30
0.000000
  70
    32
  0
VERTEX
  8
0
  5
108A5
 10
78.1184
 20
13.5020
 30
0.000000
  70
    32
  0
VERTEX
  8
0
  5
108A6
 10
78.1494
 20
13.5364
 30
0.000000
  70
    32
  0
VERTEX
  8
0
  5
108A7
 10
78.1804
 20
13.5708
 30
0.000000
  70
    32
  0
VERTEX
  8
0
  5
108A8
 10
78.2113
 20
13.6054
 30
0.000000
  70
    32
  0
VERTEX
  8
0
  5
108A9
 10
78.2421
 20
13.6400
 30
0.000000
  70
    32
  0
VERTEX
  8
0
  5
108AA
 10
78.2728
 20
13.6747
 30
0.000000
  70
    32
  0
VERTEX
  8
0
  5
108AB
 10
78.3034
 20
13.7094
 30
0.000000
  70
    32
  0
VERTEX
  8
0
  5
108AC
 10
78.3340
 20
13.7442
 30
0.000000
  70
    32
  0
VERTEX
  8
0
  5
108AD
 10
78.3645
 20
13.7791
 30
0.000000
  70
    32
  0
VERTEX
  8
0
  5
108AE
 10
78.3949
 20
13.8141
 30
0.000000
  70
    32
  0
VERTEX
  8
0
  5
108AF
 10
78.4252
 20
13.8491
 30
0.000000
  70
    32
  0
VERTEX
  8
0
  5
108B0
 10
78.4555
 20
13.8842
 30
0.000000
  70
    32
  0
VERTEX
  8
0
  5
108B1
 10
78.4856
 20
13.9194
 30
0.000000
  70
    32
  0
VERTEX
  8
0
  5
108B2
 10
78.5157
 20
13.9546
 30
0.000000
  70
    32
  0
VERTEX
  8
0
  5
108B3
 10
78.5457
 20
13.9899
 30
0.000000
  70
    32
  0
VERTEX
  8
0
  5
108B4
 10
78.5756
 20
14.0253
 30
0.000000
  70
    32
  0
VERTEX
  8
0
  5
108B5
 10
78.6055
 20
14.0607
 30
0.000000
  70
    32
  0
VERTEX
  8
0
  5
108B6
 10
78.6352
 20
14.0963
 30
0.000000
  70
    32
  0
VERTEX
  8
0
  5
108B7
 10
78.6649
 20
14.1318
 30
0.000000
  70
    32
  0
VERTEX
  8
0
  5
108B8
 10
78.6945
 20
14.1675
 30
0.000000
  70
    32
  0
VERTEX
  8
0
  5
108B9
 10
78.7240
 20
14.2032
 30
0.000000
  70
    32
  0
VERTEX
  8
0
  5
108BA
 10
78.7534
 20
14.2390
 30
0.000000
  70
    32
  0
VERTEX
  8
0
  5
108BB
 10
78.7828
 20
14.2749
 30
0.000000
  70
    32
  0
VERTEX
  8
0
  5
108BC
 10
78.8120
 20
14.3108
 30
0.000000
  70
    32
  0
VERTEX
  8
0
  5
108BD
 10
78.8412
 20
14.3468
 30
0.000000
  70
    32
  0
VERTEX
  8
0
  5
108BE
 10
78.8703
 20
14.3828
 30
0.000000
  70
    32
  0
VERTEX
  8
0
  5
108BF
 10
78.8993
 20
14.4190
 30
0.000000
  70
    32
  0
VERTEX
  8
0
  5
108C0
 10
78.9283
 20
14.4551
 30
0.000000
  70
    32
  0
VERTEX
  8
0
  5
108C1
 10
78.9571
 20
14.4914
 30
0.000000
  70
    32
  0
VERTEX
  8
0
  5
108C2
 10
78.9859
 20
14.5277
 30
0.000000
  70
    32
  0
VERTEX
  8
0
  5
108C3
 10
79.0145
 20
14.5641
 30
0.000000
  70
    32
  0
VERTEX
  8
0
  5
108C4
 10
79.0431
 20
14.6006
 30
0.000000
  70
    32
  0
VERTEX
  8
0
  5
108C5
 10
79.0716
 20
14.6371
 30
0.000000
  70
    32
  0
VERTEX
  8
0
  5
108C6
 10
79.1001
 20
14.6737
 30
0.000000
  70
    32
  0
VERTEX
  8
0
  5
108C7
 10
79.1284
 20
14.7103
 30
0.000000
  70
    32
  0
VERTEX
  8
0
  5
108C8
 10
79.1567
 20
14.7471
 30
0.000000
  70
    32
  0
VERTEX
  8
0
  5
108C9
 10
79.1848
 20
14.7838
 30
0.000000
  70
    32
  0
VERTEX
  8
0
  5
108CA
 10
79.2129
 20
14.8207
 30
0.000000
  70
    32
  0
VERTEX
  8
0
  5
108CB
 10
79.2409
 20
14.8576
 30
0.000000
  70
    32
  0
VERTEX
  8
0
  5
108CC
 10
79.2689
 20
14.8946
 30
0.000000
  70
    32
  0
VERTEX
  8
0
  5
108CD
 10
79.2967
 20
14.9316
 30
0.000000
  70
    32
  0
VERTEX
  8
0
  5
108CE
 10
79.3244
 20
14.9687
 30
0.000000
  70
    32
  0
VERTEX
  8
0
  5
108CF
 10
79.3521
 20
15.0058
 30
0.000000
  70
    32
  0
VERTEX
  8
0
  5
108D0
 10
79.3797
 20
15.0431
 30
0.000000
  70
    32
  0
VERTEX
  8
0
  5
108D1
 10
79.4072
 20
15.0803
 30
0.000000
  70
    32
  0
VERTEX
  8
0
  5
108D2
 10
79.4346
 20
15.1177
 30
0.000000
  70
    32
  0
VERTEX
  8
0
  5
108D3
 10
79.4620
 20
15.1551
 30
0.000000
  70
    32
  0
VERTEX
  8
0
  5
108D4
 10
79.4892
 20
15.1926
 30
0.000000
  70
    32
  0
VERTEX
  8
0
  5
108D5
 10
79.5164
 20
15.2301
 30
0.000000
  70
    32
  0
VERTEX
  8
0
  5
108D6
 10
79.5435
 20
15.2677
 30
0.000000
  70
    32
  0
VERTEX
  8
0
  5
108D7
 10
79.5705
 20
15.3053
 30
0.000000
  70
    32
  0
VERTEX
  8
0
  5
108D8
 10
79.5974
 20
15.3430
 30
0.000000
  70
    32
  0
VERTEX
  8
0
  5
108D9
 10
79.6242
 20
15.3808
 30
0.000000
  70
    32
  0
VERTEX
  8
0
  5
108DA
 10
79.6510
 20
15.4186
 30
0.000000
  70
    32
  0
VERTEX
  8
0
  5
108DB
 10
79.6776
 20
15.4565
 30
0.000000
  70
    32
  0
VERTEX
  8
0
  5
108DC
 10
79.7042
 20
15.4945
 30
0.000000
  70
    32
  0
VERTEX
  8
0
  5
108DD
 10
79.7307
 20
15.5325
 30
0.000000
  70
    32
  0
VERTEX
  8
0
  5
108DE
 10
79.7572
 20
15.5705
 30
0.000000
  70
    32
  0
VERTEX
  8
0
  5
108DF
 10
79.7835
 20
15.6087
 30
0.000000
  70
    32
  0
VERTEX
  8
0
  5
108E0
 10
79.8097
 20
15.6468
 30
0.000000
  70
    32
  0
VERTEX
  8
0
  5
108E1
 10
79.8359
 20
15.6851
 30
0.000000
  70
    32
  0
VERTEX
  8
0
  5
108E2
 10
79.8620
 20
15.7234
 30
0.000000
  70
    32
  0
VERTEX
  8
0
  5
108E3
 10
79.8880
 20
15.7617
 30
0.000000
  70
    32
  0
VERTEX
  8
0
  5
108E4
 10
79.9139
 20
15.8001
 30
0.000000
  70
    32
  0
VERTEX
  8
0
  5
108E5
 10
79.9397
 20
15.8386
 30
0.000000
  70
    32
  0
VERTEX
  8
0
  5
108E6
 10
79.9655
 20
15.8771
 30
0.000000
  70
    32
  0
VERTEX
  8
0
  5
108E7
 10
79.9911
 20
15.9157
 30
0.000000
  70
    32
  0
VERTEX
  8
0
  5
108E8
 10
80.0167
 20
15.9543
 30
0.000000
  70
    32
  0
VERTEX
  8
0
  5
108E9
 10
80.0422
 20
15.9930
 30
0.000000
  70
    32
  0
VERTEX
  8
0
  5
108EA
 10
80.0676
 20
16.0317
 30
0.000000
  70
    32
  0
VERTEX
  8
0
  5
108EB
 10
80.0930
 20
16.0705
 30
0.000000
  70
    32
  0
VERTEX
  8
0
  5
108EC
 10
80.1182
 20
16.1093
 30
0.000000
  70
    32
  0
VERTEX
  8
0
  5
108ED
 10
80.1434
 20
16.1482
 30
0.000000
  70
    32
  0
VERTEX
  8
0
  5
108EE
 10
80.1685
 20
16.1872
 30
0.000000
  70
    32
  0
VERTEX
  8
0
  5
108EF
 10
80.1935
 20
16.2262
 30
0.000000
  70
    32
  0
VERTEX
  8
0
  5
108F0
 10
80.2184
 20
16.2653
 30
0.000000
  70
    32
  0
VERTEX
  8
0
  5
108F1
 10
80.2432
 20
16.3044
 30
0.000000
  70
    32
  0
VERTEX
  8
0
  5
108F2
 10
80.2680
 20
16.3435
 30
0.000000
  70
    32
  0
VERTEX
  8
0
  5
108F3
 10
80.2926
 20
16.3828
 30
0.000000
  70
    32
  0
VERTEX
  8
0
  5
108F4
 10
80.3172
 20
16.4220
 30
0.000000
  70
    32
  0
VERTEX
  8
0
  5
108F5
 10
80.3417
 20
16.4614
 30
0.000000
  70
    32
  0
VERTEX
  8
0
  5
108F6
 10
80.3661
 20
16.5007
 30
0.000000
  70
    32
  0
VERTEX
  8
0
  5
108F7
 10
80.3904
 20
16.5402
 30
0.000000
  70
    32
  0
VERTEX
  8
0
  5
108F8
 10
80.4147
 20
16.5796
 30
0.000000
  70
    32
  0
VERTEX
  8
0
  5
108F9
 10
80.4388
 20
16.6192
 30
0.000000
  70
    32
  0
VERTEX
  8
0
  5
108FA
 10
80.4629
 20
16.6587
 30
0.000000
  70
    32
  0
VERTEX
  8
0
  5
108FB
 10
80.4869
 20
16.6984
 30
0.000000
  70
    32
  0
VERTEX
  8
0
  5
108FC
 10
80.5108
 20
16.7380
 30
0.000000
  70
    32
  0
VERTEX
  8
0
  5
108FD
 10
80.5346
 20
16.7778
 30
0.000000
  70
    32
  0
VERTEX
  8
0
  5
108FE
 10
80.5584
 20
16.8176
 30
0.000000
  70
    32
  0
VERTEX
  8
0
  5
108FF
 10
80.5820
 20
16.8574
 30
0.000000
  70
    32
  0
VERTEX
  8
0
  5
10900
 10
80.6056
 20
16.8973
 30
0.000000
  70
    32
  0
VERTEX
  8
0
  5
10901
 10
80.6291
 20
16.9372
 30
0.000000
  70
    32
  0
VERTEX
  8
0
  5
10902
 10
80.6525
 20
16.9772
 30
0.000000
  70
    32
  0
VERTEX
  8
0
  5
10903
 10
80.6758
 20
17.0172
 30
0.000000
  70
    32
  0
VERTEX
  8
0
  5
10904
 10
80.6991
 20
17.0573
 30
0.000000
  70
    32
  0
VERTEX
  8
0
  5
10905
 10
80.7222
 20
17.0974
 30
0.000000
  70
    32
  0
VERTEX
  8
0
  5
10906
 10
80.7453
 20
17.1376
 30
0.000000
  70
    32
  0
VERTEX
  8
0
  5
10907
 10
80.7683
 20
17.1778
 30
0.000000
  70
    32
  0
VERTEX
  8
0
  5
10908
 10
80.7912
 20
17.2181
 30
0.000000
  70
    32
  0
VERTEX
  8
0
  5
10909
 10
80.8140
 20
17.2584
 30
0.000000
  70
    32
  0
VERTEX
  8
0
  5
1090A
 10
80.8368
 20
17.2987
 30
0.000000
  70
    32
  0
VERTEX
  8
0
  5
1090B
 10
80.8594
 20
17.3392
 30
0.000000
  70
    32
  0
VERTEX
  8
0
  5
1090C
 10
80.8820
 20
17.3796
 30
0.000000
  70
    32
  0
VERTEX
  8
0
  5
1090D
 10
80.9045
 20
17.4201
 30
0.000000
  70
    32
  0
VERTEX
  8
0
  5
1090E
 10
80.9269
 20
17.4607
 30
0.000000
  70
    32
  0
VERTEX
  8
0
  5
1090F
 10
80.9492
 20
17.5013
 30
0.000000
  70
    32
  0
VERTEX
  8
0
  5
10910
 10
80.9714
 20
17.5419
 30
0.000000
  70
    32
  0
VERTEX
  8
0
  5
10911
 10
80.9935
 20
17.5826
 30
0.000000
  70
    32
  0
VERTEX
  8
0
  5
10912
 10
81.0156
 20
17.6234
 30
0.000000
  70
    32
  0
VERTEX
  8
0
  5
10913
 10
81.0376
 20
17.6641
 30
0.000000
  70
    32
  0
VERTEX
  8
0
  5
10914
 10
81.0595
 20
17.7050
 30
0.000000
  70
    32
  0
VERTEX
  8
0
  5
10915
 10
81.0813
 20
17.7458
 30
0.000000
  70
    32
  0
VERTEX
  8
0
  5
10916
 10
81.1030
 20
17.7868
 30
0.000000
  70
    32
  0
VERTEX
  8
0
  5
10917
 10
81.1247
 20
17.8277
 30
0.000000
  70
    32
  0
VERTEX
  8
0
  5
10918
 10
81.1462
 20
17.8687
 30
0.000000
  70
    32
  0
VERTEX
  8
0
  5
10919
 10
81.1677
 20
17.9098
 30
0.000000
  70
    32
  0
VERTEX
  8
0
  5
1091A
 10
81.1891
 20
17.9509
 30
0.000000
  70
    32
  0
VERTEX
  8
0
  5
1091B
 10
81.2104
 20
17.9920
 30
0.000000
  70
    32
  0
VERTEX
  8
0
  5
1091C
 10
81.2316
 20
18.0332
 30
0.000000
  70
    32
  0
VERTEX
  8
0
  5
1091D
 10
81.2527
 20
18.0745
 30
0.000000
  70
    32
  0
VERTEX
  8
0
  5
1091E
 10
81.2738
 20
18.1157
 30
0.000000
  70
    32
  0
VERTEX
  8
0
  5
1091F
 10
81.2947
 20
18.1570
 30
0.000000
  70
    32
  0
VERTEX
  8
0
  5
10920
 10
81.3156
 20
18.1984
 30
0.000000
  70
    32
  0
VERTEX
  8
0
  5
10921
 10
81.3364
 20
18.2398
 30
0.000000
  70
    32
  0
VERTEX
  8
0
  5
10922
 10
81.3571
 20
18.2813
 30
0.000000
  70
    32
  0
VERTEX
  8
0
  5
10923
 10
81.3778
 20
18.3227
 30
0.000000
  70
    32
  0
VERTEX
  8
0
  5
10924
 10
81.3983
 20
18.3643
 30
0.000000
  70
    32
  0
VERTEX
  8
0
  5
10925
 10
81.4188
 20
18.4058
 30
0.000000
  70
    32
  0
VERTEX
  8
0
  5
10926
 10
81.4391
 20
18.4475
 30
0.000000
  70
    32
  0
VERTEX
  8
0
  5
10927
 10
81.4594
 20
18.4891
 30
0.000000
  70
    32
  0
VERTEX
  8
0
  5
10928
 10
81.4796
 20
18.5308
 30
0.000000
  70
    32
  0
VERTEX
  8
0
  5
10929
 10
81.4997
 20
18.5726
 30
0.000000
  70
    32
  0
VERTEX
  8
0
  5
1092A
 10
81.5198
 20
18.6143
 30
0.000000
  70
    32
  0
VERTEX
  8
0
  5
1092B
 10
81.5397
 20
18.6561
 30
0.000000
  70
    32
  0
VERTEX
  8
0
  5
1092C
 10
81.5596
 20
18.6980
 30
0.000000
  70
    32
  0
VERTEX
  8
0
  5
1092D
 10
81.5793
 20
18.7399
 30
0.000000
  70
    32
  0
VERTEX
  8
0
  5
1092E
 10
81.5990
 20
18.7819
 30
0.000000
  70
    32
  0
VERTEX
  8
0
  5
1092F
 10
81.6186
 20
18.8238
 30
0.000000
  70
    32
  0
VERTEX
  8
0
  5
10930
 10
81.6382
 20
18.8659
 30
0.000000
  70
    32
  0
VERTEX
  8
0
  5
10931
 10
81.6576
 20
18.9079
 30
0.000000
  70
    32
  0
VERTEX
  8
0
  5
10932
 10
81.6769
 20
18.9500
 30
0.000000
  70
    32
  0
VERTEX
  8
0
  5
10933
 10
81.6962
 20
18.9921
 30
0.000000
  70
    32
  0
VERTEX
  8
0
  5
10934
 10
81.7154
 20
19.0343
 30
0.000000
  70
    32
  0
VERTEX
  8
0
  5
10935
 10
81.7345
 20
19.0765
 30
0.000000
  70
    32
  0
VERTEX
  8
0
  5
10936
 10
81.7535
 20
19.1188
 30
0.000000
  70
    32
  0
VERTEX
  8
0
  5
10937
 10
81.7724
 20
19.1611
 30
0.000000
  70
    32
  0
VERTEX
  8
0
  5
10938
 10
81.7913
 20
19.2034
 30
0.000000
  70
    32
  0
VERTEX
  8
0
  5
10939
 10
81.8100
 20
19.2458
 30
0.000000
  70
    32
  0
VERTEX
  8
0
  5
1093A
 10
81.8287
 20
19.2882
 30
0.000000
  70
    32
  0
VERTEX
  8
0
  5
1093B
 10
81.8472
 20
19.3306
 30
0.000000
  70
    32
  0
VERTEX
  8
0
  5
1093C
 10
81.8657
 20
19.3731
 30
0.000000
  70
    32
  0
VERTEX
  8
0
  5
1093D
 10
81.8841
 20
19.4156
 30
0.000000
  70
    32
  0
VERTEX
  8
0
  5
1093E
 10
81.9025
 20
19.4582
 30
0.000000
  70
    32
  0
VERTEX
  8
0
  5
1093F
 10
81.9207
 20
19.5007
 30
0.000000
  70
    32
  0
VERTEX
  8
0
  5
10940
 10
81.9388
 20
19.5434
 30
0.000000
  70
    32
  0
VERTEX
  8
0
  5
10941
 10
81.9569
 20
19.5860
 30
0.000000
  70
    32
  0
VERTEX
  8
0
  5
10942
 10
81.9749
 20
19.6287
 30
0.000000
  70
    32
  0
VERTEX
  8
0
  5
10943
 10
81.9928
 20
19.6714
 30
0.000000
  70
    32
  0
VERTEX
  8
0
  5
10944
 10
82.0106
 20
19.7142
 30
0.000000
  70
    32
  0
VERTEX
  8
0
  5
10945
 10
82.0283
 20
19.7570
 30
0.000000
  70
    32
  0
VERTEX
  8
0
  5
10946
 10
82.0459
 20
19.7998
 30
0.000000
  70
    32
  0
VERTEX
  8
0
  5
10947
 10
82.0635
 20
19.8427
 30
0.000000
  70
    32
  0
VERTEX
  8
0
  5
10948
 10
82.0809
 20
19.8856
 30
0.000000
  70
    32
  0
VERTEX
  8
0
  5
10949
 10
82.0983
 20
19.9285
 30
0.000000
  70
    32
  0
VERTEX
  8
0
  5
1094A
 10
82.1156
 20
19.9715
 30
0.000000
  70
    32
  0
VERTEX
  8
0
  5
1094B
 10
82.1328
 20
20.0145
 30
0.000000
  70
    32
  0
VERTEX
  8
0
  5
1094C
 10
82.1499
 20
20.0576
 30
0.000000
  70
    32
  0
VERTEX
  8
0
  5
1094D
 10
82.1669
 20
20.1006
 30
0.000000
  70
    32
  0
VERTEX
  8
0
  5
1094E
 10
82.1839
 20
20.1437
 30
0.000000
  70
    32
  0
VERTEX
  8
0
  5
1094F
 10
82.2007
 20
20.1869
 30
0.000000
  70
    32
  0
SEQEND
  8
0
  5
10950
  0
LINE
  5
FA30
  8
0
 10
61.499955999999649
 20
16.000029999999921
 30
0.0
 11
59.999954999999318
 21
10.000029999999921
 31
0.0
  0
LINE
  5
FA31
  8
0
 10
57.671027000000322
 20
24.526360000000071
 30
0.0
 11
52.234333000000333
 21
21.419679999999971
 31
0.0
  0
LINE
  5
FA32
  8
0
 10
63.0
 20
25.225460000000108
 30
0.0
 11
63.0
 21
16.000009999999971
 31
0.0
  0
LINE
  5
FA33
  8
0
 10
63.999964000000553
 20
26.225500000000011
 30
0.0
 11
62.999963000000207
 21
25.225500000000011
 31
0.0
  0
ARC
  5
FA34
  8
0
 10
58.1674810000004
 20
23.657580000000049
 30
0.0
 40
1.0
 50
30.852849999990621
 51
119.7448839999871
  0
ARC
  5
FA35
  8
0
 10
52.730461000000098
 20
20.551470000000101
 30
0.0
 40
1.0
 50
119.7448839999871
 51
201.27633999998829
  0
POLYLINE
  8
0
  5
10951
  66
     1
 10
0.000000
 20
0.000000
 30
0.000000
  70
     8
  0
VERTEX
  8
0
  5
10952
 10
61.5000
 20
16.0000
 30
0.000000
  70
    32
  0
VERTEX
  8
0
  5
10953
 10
61.4984
 20
16.0300
 30
0.000000
  70
    32
  0
VERTEX
  8
0
  5
10954
 10
61.4968
 20
16.0600
 30
0.000000
  70
    32
  0
VERTEX
  8
0
  5
10955
 10
61.4951
 20
16.0900
 30
0.000000
  70
    32
  0
VERTEX
  8
0
  5
10956
 10
61.4934
 20
16.1200
 30
0.000000
  70
    32
  0
VERTEX
  8
0
  5
10957
 10
61.4916
 20
16.1500
 30
0.000000
  70
    32
  0
VERTEX
  8
0
  5
10958
 10
61.4898
 20
16.1800
 30
0.000000
  70
    32
  0
VERTEX
  8
0
  5
10959
 10
61.4879
 20
16.2100
 30
0.000000
  70
    32
  0
VERTEX
  8
0
  5
1095A
 10
61.4860
 20
16.2399
 30
0.000000
  70
    32
  0
VERTEX
  8
0
  5
1095B
 10
61.4840
 20
16.2699
 30
0.000000
  70
    32
  0
VERTEX
  8
0
  5
1095C
 10
61.4820
 20
16.2999
 30
0.000000
  70
    32
  0
VERTEX
  8
0
  5
1095D
 10
61.4800
 20
16.3299
 30
0.000000
  70
    32
  0
VERTEX
  8
0
  5
1095E
 10
61.4779
 20
16.3598
 30
0.000000
  70
    32
  0
VERTEX
  8
0
  5
1095F
 10
61.4757
 20
16.3898
 30
0.000000
  70
    32
  0
VERTEX
  8
0
  5
10960
 10
61.4735
 20
16.4198
 30
0.000000
  70
    32
  0
VERTEX
  8
0
  5
10961
 10
61.4712
 20
16.4497
 30
0.000000
  70
    32
  0
VERTEX
  8
0
  5
10962
 10
61.4689
 20
16.4797
 30
0.000000
  70
    32
  0
VERTEX
  8
0
  5
10963
 10
61.4666
 20
16.5097
 30
0.000000
  70
    32
  0
VERTEX
  8
0
  5
10964
 10
61.4642
 20
16.5396
 30
0.000000
  70
    32
  0
VERTEX
  8
0
  5
10965
 10
61.4617
 20
16.5696
 30
0.000000
  70
    32
  0
VERTEX
  8
0
  5
10966
 10
61.4592
 20
16.5995
 30
0.000000
  70
    32
  0
VERTEX
  8
0
  5
10967
 10
61.4567
 20
16.6294
 30
0.000000
  70
    32
  0
VERTEX
  8
0
  5
10968
 10
61.4541
 20
16.6594
 30
0.000000
  70
    32
  0
VERTEX
  8
0
  5
10969
 10
61.4514
 20
16.6893
 30
0.000000
  70
    32
  0
VERTEX
  8
0
  5
1096A
 10
61.4487
 20
16.7192
 30
0.000000
  70
    32
  0
VERTEX
  8
0
  5
1096B
 10
61.4460
 20
16.7492
 30
0.000000
  70
    32
  0
VERTEX
  8
0
  5
1096C
 10
61.4432
 20
16.7791
 30
0.000000
  70
    32
  0
VERTEX
  8
0
  5
1096D
 10
61.4403
 20
16.8090
 30
0.000000
  70
    32
  0
VERTEX
  8
0
  5
1096E
 10
61.4375
 20
16.8389
 30
0.000000
  70
    32
  0
VERTEX
  8
0
  5
1096F
 10
61.4345
 20
16.8688
 30
0.000000
  70
    32
  0
VERTEX
  8
0
  5
10970
 10
61.4315
 20
16.8987
 30
0.000000
  70
    32
  0
VERTEX
  8
0
  5
10971
 10
61.4285
 20
16.9286
 30
0.000000
  70
    32
  0
VERTEX
  8
0
  5
10972
 10
61.4254
 20
16.9585
 30
0.000000
  70
    32
  0
VERTEX
  8
0
  5
10973
 10
61.4223
 20
16.9884
 30
0.000000
  70
    32
  0
VERTEX
  8
0
  5
10974
 10
61.4191
 20
17.0183
 30
0.000000
  70
    32
  0
VERTEX
  8
0
  5
10975
 10
61.4158
 20
17.0482
 30
0.000000
  70
    32
  0
VERTEX
  8
0
  5
10976
 10
61.4126
 20
17.0780
 30
0.000000
  70
    32
  0
VERTEX
  8
0
  5
10977
 10
61.4092
 20
17.1079
 30
0.000000
  70
    32
  0
VERTEX
  8
0
  5
10978
 10
61.4059
 20
17.1378
 30
0.000000
  70
    32
  0
VERTEX
  8
0
  5
10979
 10
61.4024
 20
17.1676
 30
0.000000
  70
    32
  0
VERTEX
  8
0
  5
1097A
 10
61.3990
 20
17.1975
 30
0.000000
  70
    32
  0
VERTEX
  8
0
  5
1097B
 10
61.3954
 20
17.2273
 30
0.000000
  70
    32
  0
VERTEX
  8
0
  5
1097C
 10
61.3919
 20
17.2571
 30
0.000000
  70
    32
  0
VERTEX
  8
0
  5
1097D
 10
61.3882
 20
17.2870
 30
0.000000
  70
    32
  0
VERTEX
  8
0
  5
1097E
 10
61.3846
 20
17.3168
 30
0.000000
  70
    32
  0
VERTEX
  8
0
  5
1097F
 10
61.3808
 20
17.3466
 30
0.000000
  70
    32
  0
VERTEX
  8
0
  5
10980
 10
61.3771
 20
17.3764
 30
0.000000
  70
    32
  0
VERTEX
  8
0
  5
10981
 10
61.3732
 20
17.4062
 30
0.000000
  70
    32
  0
VERTEX
  8
0
  5
10982
 10
61.3694
 20
17.4360
 30
0.000000
  70
    32
  0
VERTEX
  8
0
  5
10983
 10
61.3655
 20
17.4658
 30
0.000000
  70
    32
  0
VERTEX
  8
0
  5
10984
 10
61.3615
 20
17.4956
 30
0.000000
  70
    32
  0
VERTEX
  8
0
  5
10985
 10
61.3575
 20
17.5254
 30
0.000000
  70
    32
  0
VERTEX
  8
0
  5
10986
 10
61.3534
 20
17.5552
 30
0.000000
  70
    32
  0
VERTEX
  8
0
  5
10987
 10
61.3493
 20
17.5849
 30
0.000000
  70
    32
  0
VERTEX
  8
0
  5
10988
 10
61.3451
 20
17.6147
 30
0.000000
  70
    32
  0
VERTEX
  8
0
  5
10989
 10
61.3409
 20
17.6444
 30
0.000000
  70
    32
  0
VERTEX
  8
0
  5
1098A
 10
61.3367
 20
17.6742
 30
0.000000
  70
    32
  0
VERTEX
  8
0
  5
1098B
 10
61.3323
 20
17.7039
 30
0.000000
  70
    32
  0
VERTEX
  8
0
  5
1098C
 10
61.3280
 20
17.7337
 30
0.000000
  70
    32
  0
VERTEX
  8
0
  5
1098D
 10
61.3236
 20
17.7634
 30
0.000000
  70
    32
  0
VERTEX
  8
0
  5
1098E
 10
61.3191
 20
17.7931
 30
0.000000
  70
    32
  0
VERTEX
  8
0
  5
1098F
 10
61.3146
 20
17.8228
 30
0.000000
  70
    32
  0
VERTEX
  8
0
  5
10990
 10
61.3100
 20
17.8525
 30
0.000000
  70
    32
  0
VERTEX
  8
0
  5
10991
 10
61.3054
 20
17.8822
 30
0.000000
  70
    32
  0
VERTEX
  8
0
  5
10992
 10
61.3008
 20
17.9119
 30
0.000000
  70
    32
  0
VERTEX
  8
0
  5
10993
 10
61.2961
 20
17.9416
 30
0.000000
  70
    32
  0
VERTEX
  8
0
  5
10994
 10
61.2913
 20
17.9712
 30
0.000000
  70
    32
  0
VERTEX
  8
0
  5
10995
 10
61.2865
 20
18.0009
 30
0.000000
  70
    32
  0
VERTEX
  8
0
  5
10996
 10
61.2817
 20
18.0306
 30
0.000000
  70
    32
  0
VERTEX
  8
0
  5
10997
 10
61.2768
 20
18.0602
 30
0.000000
  70
    32
  0
VERTEX
  8
0
  5
10998
 10
61.2718
 20
18.0898
 30
0.000000
  70
    32
  0
VERTEX
  8
0
  5
10999
 10
61.2668
 20
18.1195
 30
0.000000
  70
    32
  0
VERTEX
  8
0
  5
1099A
 10
61.2618
 20
18.1491
 30
0.000000
  70
    32
  0
VERTEX
  8
0
  5
1099B
 10
61.2566
 20
18.1787
 30
0.000000
  70
    32
  0
VERTEX
  8
0
  5
1099C
 10
61.2515
 20
18.2083
 30
0.000000
  70
    32
  0
VERTEX
  8
0
  5
1099D
 10
61.2463
 20
18.2379
 30
0.000000
  70
    32
  0
VERTEX
  8
0
  5
1099E
 10
61.2410
 20
18.2675
 30
0.000000
  70
    32
  0
VERTEX
  8
0
  5
1099F
 10
61.2357
 20
18.2971
 30
0.000000
  70
    32
  0
VERTEX
  8
0
  5
109A0
 10
61.2304
 20
18.3266
 30
0.000000
  70
    32
  0
VERTEX
  8
0
  5
109A1
 10
61.2250
 20
18.3562
 30
0.000000
  70
    32
  0
VERTEX
  8
0
  5
109A2
 10
61.2196
 20
18.3857
 30
0.000000
  70
    32
  0
VERTEX
  8
0
  5
109A3
 10
61.2141
 20
18.4153
 30
0.000000
  70
    32
  0
VERTEX
  8
0
  5
109A4
 10
61.2085
 20
18.4448
 30
0.000000
  70
    32
  0
VERTEX
  8
0
  5
109A5
 10
61.2029
 20
18.4743
 30
0.000000
  70
    32
  0
VERTEX
  8
0
  5
109A6
 10
61.1973
 20
18.5038
 30
0.000000
  70
    32
  0
VERTEX
  8
0
  5
109A7
 10
61.1916
 20
18.5334
 30
0.000000
  70
    32
  0
VERTEX
  8
0
  5
109A8
 10
61.1858
 20
18.5628
 30
0.000000
  70
    32
  0
VERTEX
  8
0
  5
109A9
 10
61.1800
 20
18.5923
 30
0.000000
  70
    32
  0
VERTEX
  8
0
  5
109AA
 10
61.1742
 20
18.6218
 30
0.000000
  70
    32
  0
VERTEX
  8
0
  5
109AB
 10
61.1683
 20
18.6513
 30
0.000000
  70
    32
  0
VERTEX
  8
0
  5
109AC
 10
61.1623
 20
18.6807
 30
0.000000
  70
    32
  0
VERTEX
  8
0
  5
109AD
 10
61.1563
 20
18.7102
 30
0.000000
  70
    32
  0
VERTEX
  8
0
  5
109AE
 10
61.1503
 20
18.7396
 30
0.000000
  70
    32
  0
VERTEX
  8
0
  5
109AF
 10
61.1442
 20
18.7690
 30
0.000000
  70
    32
  0
VERTEX
  8
0
  5
109B0
 10
61.1381
 20
18.7984
 30
0.000000
  70
    32
  0
VERTEX
  8
0
  5
109B1
 10
61.1319
 20
18.8278
 30
0.000000
  70
    32
  0
VERTEX
  8
0
  5
109B2
 10
61.1256
 20
18.8572
 30
0.000000
  70
    32
  0
VERTEX
  8
0
  5
109B3
 10
61.1193
 20
18.8866
 30
0.000000
  70
    32
  0
VERTEX
  8
0
  5
109B4
 10
61.1130
 20
18.9160
 30
0.000000
  70
    32
  0
VERTEX
  8
0
  5
109B5
 10
61.1066
 20
18.9453
 30
0.000000
  70
    32
  0
VERTEX
  8
0
  5
109B6
 10
61.1001
 20
18.9747
 30
0.000000
  70
    32
  0
VERTEX
  8
0
  5
109B7
 10
61.0936
 20
19.0040
 30
0.000000
  70
    32
  0
VERTEX
  8
0
  5
109B8
 10
61.0871
 20
19.0334
 30
0.000000
  70
    32
  0
VERTEX
  8
0
  5
109B9
 10
61.0805
 20
19.0627
 30
0.000000
  70
    32
  0
VERTEX
  8
0
  5
109BA
 10
61.0739
 20
19.0920
 30
0.000000
  70
    32
  0
VERTEX
  8
0
  5
109BB
 10
61.0672
 20
19.1213
 30
0.000000
  70
    32
  0
VERTEX
  8
0
  5
109BC
 10
61.0604
 20
19.1506
 30
0.000000
  70
    32
  0
VERTEX
  8
0
  5
109BD
 10
61.0536
 20
19.1798
 30
0.000000
  70
    32
  0
VERTEX
  8
0
  5
109BE
 10
61.0468
 20
19.2091
 30
0.000000
  70
    32
  0
VERTEX
  8
0
  5
109BF
 10
61.0399
 20
19.2383
 30
0.000000
  70
    32
  0
VERTEX
  8
0
  5
109C0
 10
61.0329
 20
19.2676
 30
0.000000
  70
    32
  0
VERTEX
  8
0
  5
109C1
 10
61.0259
 20
19.2968
 30
0.000000
  70
    32
  0
VERTEX
  8
0
  5
109C2
 10
61.0189
 20
19.3260
 30
0.000000
  70
    32
  0
VERTEX
  8
0
  5
109C3
 10
61.0118
 20
19.3552
 30
0.000000
  70
    32
  0
VERTEX
  8
0
  5
109C4
 10
61.0046
 20
19.3844
 30
0.000000
  70
    32
  0
VERTEX
  8
0
  5
109C5
 10
60.9974
 20
19.4136
 30
0.000000
  70
    32
  0
VERTEX
  8
0
  5
109C6
 10
60.9902
 20
19.4427
 30
0.000000
  70
    32
  0
VERTEX
  8
0
  5
109C7
 10
60.9829
 20
19.4719
 30
0.000000
  70
    32
  0
VERTEX
  8
0
  5
109C8
 10
60.9755
 20
19.5010
 30
0.000000
  70
    32
  0
VERTEX
  8
0
  5
109C9
 10
60.9681
 20
19.5301
 30
0.000000
  70
    32
  0
VERTEX
  8
0
  5
109CA
 10
60.9607
 20
19.5593
 30
0.000000
  70
    32
  0
VERTEX
  8
0
  5
109CB
 10
60.9532
 20
19.5884
 30
0.000000
  70
    32
  0
VERTEX
  8
0
  5
109CC
 10
60.9456
 20
19.6174
 30
0.000000
  70
    32
  0
VERTEX
  8
0
  5
109CD
 10
60.9380
 20
19.6465
 30
0.000000
  70
    32
  0
VERTEX
  8
0
  5
109CE
 10
60.9304
 20
19.6756
 30
0.000000
  70
    32
  0
VERTEX
  8
0
  5
109CF
 10
60.9227
 20
19.7046
 30
0.000000
  70
    32
  0
VERTEX
  8
0
  5
109D0
 10
60.9149
 20
19.7336
 30
0.000000
  70
    32
  0
VERTEX
  8
0
  5
109D1
 10
60.9071
 20
19.7627
 30
0.000000
  70
    32
  0
VERTEX
  8
0
  5
109D2
 10
60.8992
 20
19.7917
 30
0.000000
  70
    32
  0
VERTEX
  8
0
  5
109D3
 10
60.8913
 20
19.8207
 30
0.000000
  70
    32
  0
VERTEX
  8
0
  5
109D4
 10
60.8834
 20
19.8496
 30
0.000000
  70
    32
  0
VERTEX
  8
0
  5
109D5
 10
60.8754
 20
19.8786
 30
0.000000
  70
    32
  0
VERTEX
  8
0
  5
109D6
 10
60.8673
 20
19.9075
 30
0.000000
  70
    32
  0
VERTEX
  8
0
  5
109D7
 10
60.8592
 20
19.9365
 30
0.000000
  70
    32
  0
VERTEX
  8
0
  5
109D8
 10
60.8510
 20
19.9654
 30
0.000000
  70
    32
  0
VERTEX
  8
0
  5
109D9
 10
60.8428
 20
19.9943
 30
0.000000
  70
    32
  0
VERTEX
  8
0
  5
109DA
 10
60.8345
 20
20.0232
 30
0.000000
  70
    32
  0
VERTEX
  8
0
  5
109DB
 10
60.8262
 20
20.0521
 30
0.000000
  70
    32
  0
VERTEX
  8
0
  5
109DC
 10
60.8178
 20
20.0809
 30
0.000000
  70
    32
  0
VERTEX
  8
0
  5
109DD
 10
60.8094
 20
20.1098
 30
0.000000
  70
    32
  0
VERTEX
  8
0
  5
109DE
 10
60.8010
 20
20.1386
 30
0.000000
  70
    32
  0
VERTEX
  8
0
  5
109DF
 10
60.7924
 20
20.1674
 30
0.000000
  70
    32
  0
VERTEX
  8
0
  5
109E0
 10
60.7839
 20
20.1962
 30
0.000000
  70
    32
  0
VERTEX
  8
0
  5
109E1
 10
60.7752
 20
20.2250
 30
0.000000
  70
    32
  0
VERTEX
  8
0
  5
109E2
 10
60.7666
 20
20.2538
 30
0.000000
  70
    32
  0
VERTEX
  8
0
  5
109E3
 10
60.7578
 20
20.2825
 30
0.000000
  70
    32
  0
VERTEX
  8
0
  5
109E4
 10
60.7490
 20
20.3113
 30
0.000000
  70
    32
  0
VERTEX
  8
0
  5
109E5
 10
60.7402
 20
20.3400
 30
0.000000
  70
    32
  0
VERTEX
  8
0
  5
109E6
 10
60.7313
 20
20.3687
 30
0.000000
  70
    32
  0
VERTEX
  8
0
  5
109E7
 10
60.7224
 20
20.3974
 30
0.000000
  70
    32
  0
VERTEX
  8
0
  5
109E8
 10
60.7134
 20
20.4261
 30
0.000000
  70
    32
  0
VERTEX
  8
0
  5
109E9
 10
60.7044
 20
20.4547
 30
0.000000
  70
    32
  0
VERTEX
  8
0
  5
109EA
 10
60.6953
 20
20.4834
 30
0.000000
  70
    32
  0
VERTEX
  8
0
  5
109EB
 10
60.6862
 20
20.5120
 30
0.000000
  70
    32
  0
VERTEX
  8
0
  5
109EC
 10
60.6770
 20
20.5406
 30
0.000000
  70
    32
  0
VERTEX
  8
0
  5
109ED
 10
60.6677
 20
20.5692
 30
0.000000
  70
    32
  0
VERTEX
  8
0
  5
109EE
 10
60.6584
 20
20.5978
 30
0.000000
  70
    32
  0
VERTEX
  8
0
  5
109EF
 10
60.6491
 20
20.6263
 30
0.000000
  70
    32
  0
VERTEX
  8
0
  5
109F0
 10
60.6397
 20
20.6549
 30
0.000000
  70
    32
  0
VERTEX
  8
0
  5
109F1
 10
60.6303
 20
20.6834
 30
0.000000
  70
    32
  0
VERTEX
  8
0
  5
109F2
 10
60.6208
 20
20.7119
 30
0.000000
  70
    32
  0
VERTEX
  8
0
  5
109F3
 10
60.6112
 20
20.7404
 30
0.000000
  70
    32
  0
VERTEX
  8
0
  5
109F4
 10
60.6016
 20
20.7689
 30
0.000000
  70
    32
  0
VERTEX
  8
0
  5
109F5
 10
60.5920
 20
20.7973
 30
0.000000
  70
    32
  0
VERTEX
  8
0
  5
109F6
 10
60.5823
 20
20.8258
 30
0.000000
  70
    32
  0
VERTEX
  8
0
  5
109F7
 10
60.5725
 20
20.8542
 30
0.000000
  70
    32
  0
VERTEX
  8
0
  5
109F8
 10
60.5627
 20
20.8826
 30
0.000000
  70
    32
  0
VERTEX
  8
0
  5
109F9
 10
60.5529
 20
20.9110
 30
0.000000
  70
    32
  0
VERTEX
  8
0
  5
109FA
 10
60.5430
 20
20.9394
 30
0.000000
  70
    32
  0
VERTEX
  8
0
  5
109FB
 10
60.5331
 20
20.9677
 30
0.000000
  70
    32
  0
VERTEX
  8
0
  5
109FC
 10
60.5231
 20
20.9961
 30
0.000000
  70
    32
  0
VERTEX
  8
0
  5
109FD
 10
60.5130
 20
21.0244
 30
0.000000
  70
    32
  0
VERTEX
  8
0
  5
109FE
 10
60.5029
 20
21.0527
 30
0.000000
  70
    32
  0
VERTEX
  8
0
  5
109FF
 10
60.4928
 20
21.0810
 30
0.000000
  70
    32
  0
VERTEX
  8
0
  5
10A00
 10
60.4826
 20
21.1093
 30
0.000000
  70
    32
  0
VERTEX
  8
0
  5
10A01
 10
60.4723
 20
21.1375
 30
0.000000
  70
    32
  0
VERTEX
  8
0
  5
10A02
 10
60.4620
 20
21.1657
 30
0.000000
  70
    32
  0
VERTEX
  8
0
  5
10A03
 10
60.4517
 20
21.1939
 30
0.000000
  70
    32
  0
VERTEX
  8
0
  5
10A04
 10
60.4413
 20
21.2221
 30
0.000000
  70
    32
  0
VERTEX
  8
0
  5
10A05
 10
60.4308
 20
21.2503
 30
0.000000
  70
    32
  0
VERTEX
  8
0
  5
10A06
 10
60.4204
 20
21.2785
 30
0.000000
  70
    32
  0
VERTEX
  8
0
  5
10A07
 10
60.4098
 20
21.3066
 30
0.000000
  70
    32
  0
VERTEX
  8
0
  5
10A08
 10
60.3992
 20
21.3347
 30
0.000000
  70
    32
  0
VERTEX
  8
0
  5
10A09
 10
60.3886
 20
21.3628
 30
0.000000
  70
    32
  0
VERTEX
  8
0
  5
10A0A
 10
60.3779
 20
21.3909
 30
0.000000
  70
    32
  0
VERTEX
  8
0
  5
10A0B
 10
60.3671
 20
21.4190
 30
0.000000
  70
    32
  0
VERTEX
  8
0
  5
10A0C
 10
60.3563
 20
21.4470
 30
0.000000
  70
    32
  0
VERTEX
  8
0
  5
10A0D
 10
60.3455
 20
21.4751
 30
0.000000
  70
    32
  0
VERTEX
  8
0
  5
10A0E
 10
60.3346
 20
21.5031
 30
0.000000
  70
    32
  0
VERTEX
  8
0
  5
10A0F
 10
60.3237
 20
21.5310
 30
0.000000
  70
    32
  0
VERTEX
  8
0
  5
10A10
 10
60.3127
 20
21.5590
 30
0.000000
  70
    32
  0
VERTEX
  8
0
  5
10A11
 10
60.3017
 20
21.5870
 30
0.000000
  70
    32
  0
VERTEX
  8
0
  5
10A12
 10
60.2906
 20
21.6149
 30
0.000000
  70
    32
  0
VERTEX
  8
0
  5
10A13
 10
60.2794
 20
21.6428
 30
0.000000
  70
    32
  0
VERTEX
  8
0
  5
10A14
 10
60.2683
 20
21.6707
 30
0.000000
  70
    32
  0
VERTEX
  8
0
  5
10A15
 10
60.2570
 20
21.6986
 30
0.000000
  70
    32
  0
VERTEX
  8
0
  5
10A16
 10
60.2457
 20
21.7264
 30
0.000000
  70
    32
  0
VERTEX
  8
0
  5
10A17
 10
60.2344
 20
21.7542
 30
0.000000
  70
    32
  0
VERTEX
  8
0
  5
10A18
 10
60.2230
 20
21.7821
 30
0.000000
  70
    32
  0
VERTEX
  8
0
  5
10A19
 10
60.2116
 20
21.8099
 30
0.000000
  70
    32
  0
VERTEX
  8
0
  5
10A1A
 10
60.2001
 20
21.8376
 30
0.000000
  70
    32
  0
VERTEX
  8
0
  5
10A1B
 10
60.1886
 20
21.8654
 30
0.000000
  70
    32
  0
VERTEX
  8
0
  5
10A1C
 10
60.1771
 20
21.8931
 30
0.000000
  70
    32
  0
VERTEX
  8
0
  5
10A1D
 10
60.1654
 20
21.9208
 30
0.000000
  70
    32
  0
VERTEX
  8
0
  5
10A1E
 10
60.1538
 20
21.9485
 30
0.000000
  70
    32
  0
VERTEX
  8
0
  5
10A1F
 10
60.1421
 20
21.9762
 30
0.000000
  70
    32
  0
VERTEX
  8
0
  5
10A20
 10
60.1303
 20
22.0038
 30
0.000000
  70
    32
  0
VERTEX
  8
0
  5
10A21
 10
60.1185
 20
22.0315
 30
0.000000
  70
    32
  0
VERTEX
  8
0
  5
10A22
 10
60.1066
 20
22.0591
 30
0.000000
  70
    32
  0
VERTEX
  8
0
  5
10A23
 10
60.0947
 20
22.0867
 30
0.000000
  70
    32
  0
VERTEX
  8
0
  5
10A24
 10
60.0828
 20
22.1142
 30
0.000000
  70
    32
  0
VERTEX
  8
0
  5
10A25
 10
60.0708
 20
22.1418
 30
0.000000
  70
    32
  0
VERTEX
  8
0
  5
10A26
 10
60.0587
 20
22.1693
 30
0.000000
  70
    32
  0
VERTEX
  8
0
  5
10A27
 10
60.0466
 20
22.1968
 30
0.000000
  70
    32
  0
VERTEX
  8
0
  5
10A28
 10
60.0345
 20
22.2243
 30
0.000000
  70
    32
  0
VERTEX
  8
0
  5
10A29
 10
60.0223
 20
22.2518
 30
0.000000
  70
    32
  0
VERTEX
  8
0
  5
10A2A
 10
60.0101
 20
22.2792
 30
0.000000
  70
    32
  0
VERTEX
  8
0
  5
10A2B
 10
59.9978
 20
22.3066
 30
0.000000
  70
    32
  0
VERTEX
  8
0
  5
10A2C
 10
59.9855
 20
22.3340
 30
0.000000
  70
    32
  0
VERTEX
  8
0
  5
10A2D
 10
59.9731
 20
22.3614
 30
0.000000
  70
    32
  0
VERTEX
  8
0
  5
10A2E
 10
59.9607
 20
22.3888
 30
0.000000
  70
    32
  0
VERTEX
  8
0
  5
10A2F
 10
59.9482
 20
22.4161
 30
0.000000
  70
    32
  0
VERTEX
  8
0
  5
10A30
 10
59.9357
 20
22.4434
 30
0.000000
  70
    32
  0
VERTEX
  8
0
  5
10A31
 10
59.9231
 20
22.4707
 30
0.000000
  70
    32
  0
VERTEX
  8
0
  5
10A32
 10
59.9105
 20
22.4980
 30
0.000000
  70
    32
  0
VERTEX
  8
0
  5
10A33
 10
59.8978
 20
22.5253
 30
0.000000
  70
    32
  0
VERTEX
  8
0
  5
10A34
 10
59.8851
 20
22.5525
 30
0.000000
  70
    32
  0
VERTEX
  8
0
  5
10A35
 10
59.8724
 20
22.5797
 30
0.000000
  70
    32
  0
VERTEX
  8
0
  5
10A36
 10
59.8596
 20
22.6069
 30
0.000000
  70
    32
  0
VERTEX
  8
0
  5
10A37
 10
59.8468
 20
22.6341
 30
0.000000
  70
    32
  0
VERTEX
  8
0
  5
10A38
 10
59.8339
 20
22.6612
 30
0.000000
  70
    32
  0
VERTEX
  8
0
  5
10A39
 10
59.8209
 20
22.6883
 30
0.000000
  70
    32
  0
VERTEX
  8
0
  5
10A3A
 10
59.8080
 20
22.7154
 30
0.000000
  70
    32
  0
VERTEX
  8
0
  5
10A3B
 10
59.7949
 20
22.7425
 30
0.000000
  70
    32
  0
VERTEX
  8
0
  5
10A3C
 10
59.7819
 20
22.7696
 30
0.000000
  70
    32
  0
VERTEX
  8
0
  5
10A3D
 10
59.7688
 20
22.7966
 30
0.000000
  70
    32
  0
VERTEX
  8
0
  5
10A3E
 10
59.7556
 20
22.8236
 30
0.000000
  70
    32
  0
VERTEX
  8
0
  5
10A3F
 10
59.7424
 20
22.8506
 30
0.000000
  70
    32
  0
VERTEX
  8
0
  5
10A40
 10
59.7291
 20
22.8776
 30
0.000000
  70
    32
  0
VERTEX
  8
0
  5
10A41
 10
59.7158
 20
22.9046
 30
0.000000
  70
    32
  0
VERTEX
  8
0
  5
10A42
 10
59.7025
 20
22.9315
 30
0.000000
  70
    32
  0
VERTEX
  8
0
  5
10A43
 10
59.6891
 20
22.9584
 30
0.000000
  70
    32
  0
VERTEX
  8
0
  5
10A44
 10
59.6757
 20
22.9853
 30
0.000000
  70
    32
  0
VERTEX
  8
0
  5
10A45
 10
59.6622
 20
23.0121
 30
0.000000
  70
    32
  0
VERTEX
  8
0
  5
10A46
 10
59.6487
 20
23.0390
 30
0.000000
  70
    32
  0
VERTEX
  8
0
  5
10A47
 10
59.6351
 20
23.0658
 30
0.000000
  70
    32
  0
VERTEX
  8
0
  5
10A48
 10
59.6215
 20
23.0926
 30
0.000000
  70
    32
  0
VERTEX
  8
0
  5
10A49
 10
59.6079
 20
23.1193
 30
0.000000
  70
    32
  0
VERTEX
  8
0
  5
10A4A
 10
59.5942
 20
23.1461
 30
0.000000
  70
    32
  0
VERTEX
  8
0
  5
10A4B
 10
59.5804
 20
23.1728
 30
0.000000
  70
    32
  0
VERTEX
  8
0
  5
10A4C
 10
59.5666
 20
23.1995
 30
0.000000
  70
    32
  0
VERTEX
  8
0
  5
10A4D
 10
59.5528
 20
23.2262
 30
0.000000
  70
    32
  0
VERTEX
  8
0
  5
10A4E
 10
59.5389
 20
23.2529
 30
0.000000
  70
    32
  0
VERTEX
  8
0
  5
10A4F
 10
59.5250
 20
23.2795
 30
0.000000
  70
    32
  0
VERTEX
  8
0
  5
10A50
 10
59.5110
 20
23.3061
 30
0.000000
  70
    32
  0
VERTEX
  8
0
  5
10A51
 10
59.4970
 20
23.3327
 30
0.000000
  70
    32
  0
VERTEX
  8
0
  5
10A52
 10
59.4830
 20
23.3592
 30
0.000000
  70
    32
  0
VERTEX
  8
0
  5
10A53
 10
59.4689
 20
23.3858
 30
0.000000
  70
    32
  0
VERTEX
  8
0
  5
10A54
 10
59.4547
 20
23.4123
 30
0.000000
  70
    32
  0
VERTEX
  8
0
  5
10A55
 10
59.4405
 20
23.4388
 30
0.000000
  70
    32
  0
VERTEX
  8
0
  5
10A56
 10
59.4263
 20
23.4653
 30
0.000000
  70
    32
  0
VERTEX
  8
0
  5
10A57
 10
59.4120
 20
23.4917
 30
0.000000
  70
    32
  0
VERTEX
  8
0
  5
10A58
 10
59.3977
 20
23.5181
 30
0.000000
  70
    32
  0
VERTEX
  8
0
  5
10A59
 10
59.3833
 20
23.5445
 30
0.000000
  70
    32
  0
VERTEX
  8
0
  5
10A5A
 10
59.3689
 20
23.5709
 30
0.000000
  70
    32
  0
VERTEX
  8
0
  5
10A5B
 10
59.3545
 20
23.5972
 30
0.000000
  70
    32
  0
VERTEX
  8
0
  5
10A5C
 10
59.3400
 20
23.6236
 30
0.000000
  70
    32
  0
VERTEX
  8
0
  5
10A5D
 10
59.3255
 20
23.6499
 30
0.000000
  70
    32
  0
VERTEX
  8
0
  5
10A5E
 10
59.3109
 20
23.6761
 30
0.000000
  70
    32
  0
VERTEX
  8
0
  5
10A5F
 10
59.2963
 20
23.7024
 30
0.000000
  70
    32
  0
VERTEX
  8
0
  5
10A60
 10
59.2816
 20
23.7286
 30
0.000000
  70
    32
  0
VERTEX
  8
0
  5
10A61
 10
59.2669
 20
23.7548
 30
0.000000
  70
    32
  0
VERTEX
  8
0
  5
10A62
 10
59.2522
 20
23.7810
 30
0.000000
  70
    32
  0
VERTEX
  8
0
  5
10A63
 10
59.2374
 20
23.8071
 30
0.000000
  70
    32
  0
VERTEX
  8
0
  5
10A64
 10
59.2225
 20
23.8333
 30
0.000000
  70
    32
  0
VERTEX
  8
0
  5
10A65
 10
59.2076
 20
23.8594
 30
0.000000
  70
    32
  0
VERTEX
  8
0
  5
10A66
 10
59.1927
 20
23.8855
 30
0.000000
  70
    32
  0
VERTEX
  8
0
  5
10A67
 10
59.1778
 20
23.9115
 30
0.000000
  70
    32
  0
VERTEX
  8
0
  5
10A68
 10
59.1628
 20
23.9375
 30
0.000000
  70
    32
  0
VERTEX
  8
0
  5
10A69
 10
59.1477
 20
23.9636
 30
0.000000
  70
    32
  0
VERTEX
  8
0
  5
10A6A
 10
59.1326
 20
23.9895
 30
0.000000
  70
    32
  0
VERTEX
  8
0
  5
10A6B
 10
59.1175
 20
24.0155
 30
0.000000
  70
    32
  0
VERTEX
  8
0
  5
10A6C
 10
59.1023
 20
24.0414
 30
0.000000
  70
    32
  0
VERTEX
  8
0
  5
10A6D
 10
59.0871
 20
24.0673
 30
0.000000
  70
    32
  0
VERTEX
  8
0
  5
10A6E
 10
59.0718
 20
24.0932
 30
0.000000
  70
    32
  0
VERTEX
  8
0
  5
10A6F
 10
59.0565
 20
24.1191
 30
0.000000
  70
    32
  0
VERTEX
  8
0
  5
10A70
 10
59.0412
 20
24.1449
 30
0.000000
  70
    32
  0
VERTEX
  8
0
  5
10A71
 10
59.0258
 20
24.1707
 30
0.000000
  70
    32
  0
SEQEND
  8
0
  5
10A72
  0
POLYLINE
  8
0
  5
10A73
  66
     1
 10
0.000000
 20
0.000000
 30
0.000000
  70
     8
  0
VERTEX
  8
0
  5
10A74
 10
60.0000
 20
10.0000
 30
0.000000
  70
    32
  0
VERTEX
  8
0
  5
10A75
 10
59.9613
 20
10.0255
 30
0.000000
  70
    32
  0
VERTEX
  8
0
  5
10A76
 10
59.9227
 20
10.0510
 30
0.000000
  70
    32
  0
VERTEX
  8
0
  5
10A77
 10
59.8841
 20
10.0766
 30
0.000000
  70
    32
  0
VERTEX
  8
0
  5
10A78
 10
59.8456
 20
10.1023
 30
0.000000
  70
    32
  0
VERTEX
  8
0
  5
10A79
 10
59.8071
 20
10.1281
 30
0.000000
  70
    32
  0
VERTEX
  8
0
  5
10A7A
 10
59.7687
 20
10.1540
 30
0.000000
  70
    32
  0
VERTEX
  8
0
  5
10A7B
 10
59.7303
 20
10.1799
 30
0.000000
  70
    32
  0
VERTEX
  8
0
  5
10A7C
 10
59.6920
 20
10.2059
 30
0.000000
  70
    32
  0
VERTEX
  8
0
  5
10A7D
 10
59.6537
 20
10.2320
 30
0.000000
  70
    32
  0
VERTEX
  8
0
  5
10A7E
 10
59.6155
 20
10.2581
 30
0.000000
  70
    32
  0
VERTEX
  8
0
  5
10A7F
 10
59.5773
 20
10.2844
 30
0.000000
  70
    32
  0
VERTEX
  8
0
  5
10A80
 10
59.5392
 20
10.3107
 30
0.000000
  70
    32
  0
VERTEX
  8
0
  5
10A81
 10
59.5011
 20
10.3371
 30
0.000000
  70
    32
  0
VERTEX
  8
0
  5
10A82
 10
59.4631
 20
10.3636
 30
0.000000
  70
    32
  0
VERTEX
  8
0
  5
10A83
 10
59.4251
 20
10.3901
 30
0.000000
  70
    32
  0
VERTEX
  8
0
  5
10A84
 10
59.3872
 20
10.4168
 30
0.000000
  70
    32
  0
VERTEX
  8
0
  5
10A85
 10
59.3494
 20
10.4435
 30
0.000000
  70
    32
  0
VERTEX
  8
0
  5
10A86
 10
59.3116
 20
10.4703
 30
0.000000
  70
    32
  0
VERTEX
  8
0
  5
10A87
 10
59.2739
 20
10.4971
 30
0.000000
  70
    32
  0
VERTEX
  8
0
  5
10A88
 10
59.2362
 20
10.5241
 30
0.000000
  70
    32
  0
VERTEX
  8
0
  5
10A89
 10
59.1985
 20
10.5511
 30
0.000000
  70
    32
  0
VERTEX
  8
0
  5
10A8A
 10
59.1610
 20
10.5782
 30
0.000000
  70
    32
  0
VERTEX
  8
0
  5
10A8B
 10
59.1234
 20
10.6054
 30
0.000000
  70
    32
  0
VERTEX
  8
0
  5
10A8C
 10
59.0860
 20
10.6326
 30
0.000000
  70
    32
  0
VERTEX
  8
0
  5
10A8D
 10
59.0486
 20
10.6600
 30
0.000000
  70
    32
  0
VERTEX
  8
0
  5
10A8E
 10
59.0112
 20
10.6874
 30
0.000000
  70
    32
  0
VERTEX
  8
0
  5
10A8F
 10
58.9739
 20
10.7149
 30
0.000000
  70
    32
  0
VERTEX
  8
0
  5
10A90
 10
58.9367
 20
10.7424
 30
0.000000
  70
    32
  0
VERTEX
  8
0
  5
10A91
 10
58.8995
 20
10.7701
 30
0.000000
  70
    32
  0
VERTEX
  8
0
  5
10A92
 10
58.8624
 20
10.7978
 30
0.000000
  70
    32
  0
VERTEX
  8
0
  5
10A93
 10
58.8253
 20
10.8256
 30
0.000000
  70
    32
  0
VERTEX
  8
0
  5
10A94
 10
58.7883
 20
10.8535
 30
0.000000
  70
    32
  0
VERTEX
  8
0
  5
10A95
 10
58.7513
 20
10.8814
 30
0.000000
  70
    32
  0
VERTEX
  8
0
  5
10A96
 10
58.7144
 20
10.9094
 30
0.000000
  70
    32
  0
VERTEX
  8
0
  5
10A97
 10
58.6776
 20
10.9376
 30
0.000000
  70
    32
  0
VERTEX
  8
0
  5
10A98
 10
58.6408
 20
10.9657
 30
0.000000
  70
    32
  0
VERTEX
  8
0
  5
10A99
 10
58.6041
 20
10.9940
 30
0.000000
  70
    32
  0
VERTEX
  8
0
  5
10A9A
 10
58.5674
 20
11.0223
 30
0.000000
  70
    32
  0
VERTEX
  8
0
  5
10A9B
 10
58.5308
 20
11.0507
 30
0.000000
  70
    32
  0
VERTEX
  8
0
  5
10A9C
 10
58.4943
 20
11.0792
 30
0.000000
  70
    32
  0
VERTEX
  8
0
  5
10A9D
 10
58.4578
 20
11.1078
 30
0.000000
  70
    32
  0
VERTEX
  8
0
  5
10A9E
 10
58.4214
 20
11.1364
 30
0.000000
  70
    32
  0
VERTEX
  8
0
  5
10A9F
 10
58.3850
 20
11.1652
 30
0.000000
  70
    32
  0
VERTEX
  8
0
  5
10AA0
 10
58.3487
 20
11.1940
 30
0.000000
  70
    32
  0
VERTEX
  8
0
  5
10AA1
 10
58.3125
 20
11.2228
 30
0.000000
  70
    32
  0
VERTEX
  8
0
  5
10AA2
 10
58.2763
 20
11.2518
 30
0.000000
  70
    32
  0
VERTEX
  8
0
  5
10AA3
 10
58.2402
 20
11.2808
 30
0.000000
  70
    32
  0
VERTEX
  8
0
  5
10AA4
 10
58.2041
 20
11.3099
 30
0.000000
  70
    32
  0
VERTEX
  8
0
  5
10AA5
 10
58.1682
 20
11.3391
 30
0.000000
  70
    32
  0
VERTEX
  8
0
  5
10AA6
 10
58.1322
 20
11.3683
 30
0.000000
  70
    32
  0
VERTEX
  8
0
  5
10AA7
 10
58.0964
 20
11.3977
 30
0.000000
  70
    32
  0
VERTEX
  8
0
  5
10AA8
 10
58.0605
 20
11.4271
 30
0.000000
  70
    32
  0
VERTEX
  8
0
  5
10AA9
 10
58.0248
 20
11.4566
 30
0.000000
  70
    32
  0
VERTEX
  8
0
  5
10AAA
 10
57.9891
 20
11.4861
 30
0.000000
  70
    32
  0
VERTEX
  8
0
  5
10AAB
 10
57.9535
 20
11.5158
 30
0.000000
  70
    32
  0
VERTEX
  8
0
  5
10AAC
 10
57.9180
 20
11.5455
 30
0.000000
  70
    32
  0
VERTEX
  8
0
  5
10AAD
 10
57.8825
 20
11.5753
 30
0.000000
  70
    32
  0
VERTEX
  8
0
  5
10AAE
 10
57.8471
 20
11.6051
 30
0.000000
  70
    32
  0
VERTEX
  8
0
  5
10AAF
 10
57.8117
 20
11.6351
 30
0.000000
  70
    32
  0
VERTEX
  8
0
  5
10AB0
 10
57.7764
 20
11.6651
 30
0.000000
  70
    32
  0
VERTEX
  8
0
  5
10AB1
 10
57.7412
 20
11.6952
 30
0.000000
  70
    32
  0
VERTEX
  8
0
  5
10AB2
 10
57.7060
 20
11.7254
 30
0.000000
  70
    32
  0
VERTEX
  8
0
  5
10AB3
 10
57.6709
 20
11.7556
 30
0.000000
  70
    32
  0
VERTEX
  8
0
  5
10AB4
 10
57.6359
 20
11.7860
 30
0.000000
  70
    32
  0
VERTEX
  8
0
  5
10AB5
 10
57.6009
 20
11.8164
 30
0.000000
  70
    32
  0
VERTEX
  8
0
  5
10AB6
 10
57.5660
 20
11.8468
 30
0.000000
  70
    32
  0
VERTEX
  8
0
  5
10AB7
 10
57.5312
 20
11.8774
 30
0.000000
  70
    32
  0
VERTEX
  8
0
  5
10AB8
 10
57.4964
 20
11.9080
 30
0.000000
  70
    32
  0
VERTEX
  8
0
  5
10AB9
 10
57.4618
 20
11.9387
 30
0.000000
  70
    32
  0
VERTEX
  8
0
  5
10ABA
 10
57.4271
 20
11.9695
 30
0.000000
  70
    32
  0
VERTEX
  8
0
  5
10ABB
 10
57.3926
 20
12.0004
 30
0.000000
  70
    32
  0
VERTEX
  8
0
  5
10ABC
 10
57.3581
 20
12.0313
 30
0.000000
  70
    32
  0
VERTEX
  8
0
  5
10ABD
 10
57.3237
 20
12.0623
 30
0.000000
  70
    32
  0
VERTEX
  8
0
  5
10ABE
 10
57.2893
 20
12.0934
 30
0.000000
  70
    32
  0
VERTEX
  8
0
  5
10ABF
 10
57.2550
 20
12.1246
 30
0.000000
  70
    32
  0
VERTEX
  8
0
  5
10AC0
 10
57.2208
 20
12.1558
 30
0.000000
  70
    32
  0
VERTEX
  8
0
  5
10AC1
 10
57.1867
 20
12.1871
 30
0.000000
  70
    32
  0
VERTEX
  8
0
  5
10AC2
 10
57.1526
 20
12.2185
 30
0.000000
  70
    32
  0
VERTEX
  8
0
  5
10AC3
 10
57.1186
 20
12.2500
 30
0.000000
  70
    32
  0
VERTEX
  8
0
  5
10AC4
 10
57.0847
 20
12.2815
 30
0.000000
  70
    32
  0
VERTEX
  8
0
  5
10AC5
 10
57.0508
 20
12.3132
 30
0.000000
  70
    32
  0
VERTEX
  8
0
  5
10AC6
 10
57.0170
 20
12.3449
 30
0.000000
  70
    32
  0
VERTEX
  8
0
  5
10AC7
 10
56.9833
 20
12.3766
 30
0.000000
  70
    32
  0
VERTEX
  8
0
  5
10AC8
 10
56.9497
 20
12.4085
 30
0.000000
  70
    32
  0
VERTEX
  8
0
  5
10AC9
 10
56.9161
 20
12.4404
 30
0.000000
  70
    32
  0
VERTEX
  8
0
  5
10ACA
 10
56.8826
 20
12.4724
 30
0.000000
  70
    32
  0
VERTEX
  8
0
  5
10ACB
 10
56.8492
 20
12.5045
 30
0.000000
  70
    32
  0
VERTEX
  8
0
  5
10ACC
 10
56.8158
 20
12.5367
 30
0.000000
  70
    32
  0
VERTEX
  8
0
  5
10ACD
 10
56.7826
 20
12.5689
 30
0.000000
  70
    32
  0
VERTEX
  8
0
  5
10ACE
 10
56.7494
 20
12.6012
 30
0.000000
  70
    32
  0
VERTEX
  8
0
  5
10ACF
 10
56.7162
 20
12.6336
 30
0.000000
  70
    32
  0
VERTEX
  8
0
  5
10AD0
 10
56.6832
 20
12.6660
 30
0.000000
  70
    32
  0
VERTEX
  8
0
  5
10AD1
 10
56.6502
 20
12.6986
 30
0.000000
  70
    32
  0
VERTEX
  8
0
  5
10AD2
 10
56.6173
 20
12.7312
 30
0.000000
  70
    32
  0
VERTEX
  8
0
  5
10AD3
 10
56.5845
 20
12.7639
 30
0.000000
  70
    32
  0
VERTEX
  8
0
  5
10AD4
 10
56.5517
 20
12.7967
 30
0.000000
  70
    32
  0
VERTEX
  8
0
  5
10AD5
 10
56.5190
 20
12.8295
 30
0.000000
  70
    32
  0
VERTEX
  8
0
  5
10AD6
 10
56.4864
 20
12.8624
 30
0.000000
  70
    32
  0
VERTEX
  8
0
  5
10AD7
 10
56.4539
 20
12.8954
 30
0.000000
  70
    32
  0
VERTEX
  8
0
  5
10AD8
 10
56.4215
 20
12.9285
 30
0.000000
  70
    32
  0
VERTEX
  8
0
  5
10AD9
 10
56.3891
 20
12.9616
 30
0.000000
  70
    32
  0
VERTEX
  8
0
  5
10ADA
 10
56.3568
 20
12.9948
 30
0.000000
  70
    32
  0
VERTEX
  8
0
  5
10ADB
 10
56.3246
 20
13.0281
 30
0.000000
  70
    32
  0
VERTEX
  8
0
  5
10ADC
 10
56.2924
 20
13.0615
 30
0.000000
  70
    32
  0
VERTEX
  8
0
  5
10ADD
 10
56.2604
 20
13.0949
 30
0.000000
  70
    32
  0
VERTEX
  8
0
  5
10ADE
 10
56.2284
 20
13.1285
 30
0.000000
  70
    32
  0
VERTEX
  8
0
  5
10ADF
 10
56.1965
 20
13.1620
 30
0.000000
  70
    32
  0
VERTEX
  8
0
  5
10AE0
 10
56.1646
 20
13.1957
 30
0.000000
  70
    32
  0
VERTEX
  8
0
  5
10AE1
 10
56.1329
 20
13.2294
 30
0.000000
  70
    32
  0
VERTEX
  8
0
  5
10AE2
 10
56.1012
 20
13.2633
 30
0.000000
  70
    32
  0
VERTEX
  8
0
  5
10AE3
 10
56.0696
 20
13.2971
 30
0.000000
  70
    32
  0
VERTEX
  8
0
  5
10AE4
 10
56.0381
 20
13.3311
 30
0.000000
  70
    32
  0
VERTEX
  8
0
  5
10AE5
 10
56.0066
 20
13.3651
 30
0.000000
  70
    32
  0
VERTEX
  8
0
  5
10AE6
 10
55.9753
 20
13.3992
 30
0.000000
  70
    32
  0
VERTEX
  8
0
  5
10AE7
 10
55.9440
 20
13.4334
 30
0.000000
  70
    32
  0
VERTEX
  8
0
  5
10AE8
 10
55.9128
 20
13.4677
 30
0.000000
  70
    32
  0
VERTEX
  8
0
  5
10AE9
 10
55.8816
 20
13.5020
 30
0.000000
  70
    32
  0
VERTEX
  8
0
  5
10AEA
 10
55.8506
 20
13.5364
 30
0.000000
  70
    32
  0
VERTEX
  8
0
  5
10AEB
 10
55.8196
 20
13.5708
 30
0.000000
  70
    32
  0
VERTEX
  8
0
  5
10AEC
 10
55.7887
 20
13.6054
 30
0.000000
  70
    32
  0
VERTEX
  8
0
  5
10AED
 10
55.7579
 20
13.6400
 30
0.000000
  70
    32
  0
VERTEX
  8
0
  5
10AEE
 10
55.7272
 20
13.6747
 30
0.000000
  70
    32
  0
VERTEX
  8
0
  5
10AEF
 10
55.6966
 20
13.7094
 30
0.000000
  70
    32
  0
VERTEX
  8
0
  5
10AF0
 10
55.6660
 20
13.7442
 30
0.000000
  70
    32
  0
VERTEX
  8
0
  5
10AF1
 10
55.6355
 20
13.7791
 30
0.000000
  70
    32
  0
VERTEX
  8
0
  5
10AF2
 10
55.6051
 20
13.8141
 30
0.000000
  70
    32
  0
VERTEX
  8
0
  5
10AF3
 10
55.5748
 20
13.8491
 30
0.000000
  70
    32
  0
VERTEX
  8
0
  5
10AF4
 10
55.5445
 20
13.8842
 30
0.000000
  70
    32
  0
VERTEX
  8
0
  5
10AF5
 10
55.5144
 20
13.9194
 30
0.000000
  70
    32
  0
VERTEX
  8
0
  5
10AF6
 10
55.4843
 20
13.9546
 30
0.000000
  70
    32
  0
VERTEX
  8
0
  5
10AF7
 10
55.4543
 20
13.9899
 30
0.000000
  70
    32
  0
VERTEX
  8
0
  5
10AF8
 10
55.4244
 20
14.0253
 30
0.000000
  70
    32
  0
VERTEX
  8
0
  5
10AF9
 10
55.3945
 20
14.0607
 30
0.000000
  70
    32
  0
VERTEX
  8
0
  5
10AFA
 10
55.3648
 20
14.0963
 30
0.000000
  70
    32
  0
VERTEX
  8
0
  5
10AFB
 10
55.3351
 20
14.1318
 30
0.000000
  70
    32
  0
VERTEX
  8
0
  5
10AFC
 10
55.3055
 20
14.1675
 30
0.000000
  70
    32
  0
VERTEX
  8
0
  5
10AFD
 10
55.2760
 20
14.2032
 30
0.000000
  70
    32
  0
VERTEX
  8
0
  5
10AFE
 10
55.2466
 20
14.2390
 30
0.000000
  70
    32
  0
VERTEX
  8
0
  5
10AFF
 10
55.2172
 20
14.2749
 30
0.000000
  70
    32
  0
VERTEX
  8
0
  5
10B00
 10
55.1880
 20
14.3108
 30
0.000000
  70
    32
  0
VERTEX
  8
0
  5
10B01
 10
55.1588
 20
14.3468
 30
0.000000
  70
    32
  0
VERTEX
  8
0
  5
10B02
 10
55.1297
 20
14.3828
 30
0.000000
  70
    32
  0
VERTEX
  8
0
  5
10B03
 10
55.1007
 20
14.4190
 30
0.000000
  70
    32
  0
VERTEX
  8
0
  5
10B04
 10
55.0717
 20
14.4551
 30
0.000000
  70
    32
  0
VERTEX
  8
0
  5
10B05
 10
55.0429
 20
14.4914
 30
0.000000
  70
    32
  0
VERTEX
  8
0
  5
10B06
 10
55.0141
 20
14.5277
 30
0.000000
  70
    32
  0
VERTEX
  8
0
  5
10B07
 10
54.9855
 20
14.5641
 30
0.000000
  70
    32
  0
VERTEX
  8
0
  5
10B08
 10
54.9569
 20
14.6006
 30
0.000000
  70
    32
  0
VERTEX
  8
0
  5
10B09
 10
54.9284
 20
14.6371
 30
0.000000
  70
    32
  0
VERTEX
  8
0
  5
10B0A
 10
54.8999
 20
14.6737
 30
0.000000
  70
    32
  0
VERTEX
  8
0
  5
10B0B
 10
54.8716
 20
14.7103
 30
0.000000
  70
    32
  0
VERTEX
  8
0
  5
10B0C
 10
54.8433
 20
14.7471
 30
0.000000
  70
    32
  0
VERTEX
  8
0
  5
10B0D
 10
54.8152
 20
14.7838
 30
0.000000
  70
    32
  0
VERTEX
  8
0
  5
10B0E
 10
54.7871
 20
14.8207
 30
0.000000
  70
    32
  0
VERTEX
  8
0
  5
10B0F
 10
54.7591
 20
14.8576
 30
0.000000
  70
    32
  0
VERTEX
  8
0
  5
10B10
 10
54.7311
 20
14.8946
 30
0.000000
  70
    32
  0
VERTEX
  8
0
  5
10B11
 10
54.7033
 20
14.9316
 30
0.000000
  70
    32
  0
VERTEX
  8
0
  5
10B12
 10
54.6756
 20
14.9687
 30
0.000000
  70
    32
  0
VERTEX
  8
0
  5
10B13
 10
54.6479
 20
15.0058
 30
0.000000
  70
    32
  0
VERTEX
  8
0
  5
10B14
 10
54.6203
 20
15.0431
 30
0.000000
  70
    32
  0
VERTEX
  8
0
  5
10B15
 10
54.5928
 20
15.0803
 30
0.000000
  70
    32
  0
VERTEX
  8
0
  5
10B16
 10
54.5654
 20
15.1177
 30
0.000000
  70
    32
  0
VERTEX
  8
0
  5
10B17
 10
54.5380
 20
15.1551
 30
0.000000
  70
    32
  0
VERTEX
  8
0
  5
10B18
 10
54.5108
 20
15.1926
 30
0.000000
  70
    32
  0
VERTEX
  8
0
  5
10B19
 10
54.4836
 20
15.2301
 30
0.000000
  70
    32
  0
VERTEX
  8
0
  5
10B1A
 10
54.4565
 20
15.2677
 30
0.000000
  70
    32
  0
VERTEX
  8
0
  5
10B1B
 10
54.4295
 20
15.3053
 30
0.000000
  70
    32
  0
VERTEX
  8
0
  5
10B1C
 10
54.4026
 20
15.3430
 30
0.000000
  70
    32
  0
VERTEX
  8
0
  5
10B1D
 10
54.3758
 20
15.3808
 30
0.000000
  70
    32
  0
VERTEX
  8
0
  5
10B1E
 10
54.3490
 20
15.4186
 30
0.000000
  70
    32
  0
VERTEX
  8
0
  5
10B1F
 10
54.3224
 20
15.4565
 30
0.000000
  70
    32
  0
VERTEX
  8
0
  5
10B20
 10
54.2958
 20
15.4945
 30
0.000000
  70
    32
  0
VERTEX
  8
0
  5
10B21
 10
54.2693
 20
15.5325
 30
0.000000
  70
    32
  0
VERTEX
  8
0
  5
10B22
 10
54.2428
 20
15.5705
 30
0.000000
  70
    32
  0
VERTEX
  8
0
  5
10B23
 10
54.2165
 20
15.6087
 30
0.000000
  70
    32
  0
VERTEX
  8
0
  5
10B24
 10
54.1903
 20
15.6468
 30
0.000000
  70
    32
  0
VERTEX
  8
0
  5
10B25
 10
54.1641
 20
15.6851
 30
0.000000
  70
    32
  0
VERTEX
  8
0
  5
10B26
 10
54.1380
 20
15.7234
 30
0.000000
  70
    32
  0
VERTEX
  8
0
  5
10B27
 10
54.1120
 20
15.7617
 30
0.000000
  70
    32
  0
VERTEX
  8
0
  5
10B28
 10
54.0861
 20
15.8001
 30
0.000000
  70
    32
  0
VERTEX
  8
0
  5
10B29
 10
54.0603
 20
15.8386
 30
0.000000
  70
    32
  0
VERTEX
  8
0
  5
10B2A
 10
54.0345
 20
15.8771
 30
0.000000
  70
    32
  0
VERTEX
  8
0
  5
10B2B
 10
54.0089
 20
15.9157
 30
0.000000
  70
    32
  0
VERTEX
  8
0
  5
10B2C
 10
53.9833
 20
15.9543
 30
0.000000
  70
    32
  0
VERTEX
  8
0
  5
10B2D
 10
53.9578
 20
15.9930
 30
0.000000
  70
    32
  0
VERTEX
  8
0
  5
10B2E
 10
53.9324
 20
16.0317
 30
0.000000
  70
    32
  0
VERTEX
  8
0
  5
10B2F
 10
53.9070
 20
16.0705
 30
0.000000
  70
    32
  0
VERTEX
  8
0
  5
10B30
 10
53.8818
 20
16.1093
 30
0.000000
  70
    32
  0
VERTEX
  8
0
  5
10B31
 10
53.8566
 20
16.1482
 30
0.000000
  70
    32
  0
VERTEX
  8
0
  5
10B32
 10
53.8315
 20
16.1872
 30
0.000000
  70
    32
  0
VERTEX
  8
0
  5
10B33
 10
53.8065
 20
16.2262
 30
0.000000
  70
    32
  0
VERTEX
  8
0
  5
10B34
 10
53.7816
 20
16.2653
 30
0.000000
  70
    32
  0
VERTEX
  8
0
  5
10B35
 10
53.7568
 20
16.3044
 30
0.000000
  70
    32
  0
VERTEX
  8
0
  5
10B36
 10
53.7320
 20
16.3435
 30
0.000000
  70
    32
  0
VERTEX
  8
0
  5
10B37
 10
53.7074
 20
16.3828
 30
0.000000
  70
    32
  0
VERTEX
  8
0
  5
10B38
 10
53.6828
 20
16.4220
 30
0.000000
  70
    32
  0
VERTEX
  8
0
  5
10B39
 10
53.6583
 20
16.4614
 30
0.000000
  70
    32
  0
VERTEX
  8
0
  5
10B3A
 10
53.6339
 20
16.5007
 30
0.000000
  70
    32
  0
VERTEX
  8
0
  5
10B3B
 10
53.6096
 20
16.5402
 30
0.000000
  70
    32
  0
VERTEX
  8
0
  5
10B3C
 10
53.5853
 20
16.5796
 30
0.000000
  70
    32
  0
VERTEX
  8
0
  5
10B3D
 10
53.5612
 20
16.6192
 30
0.000000
  70
    32
  0
VERTEX
  8
0
  5
10B3E
 10
53.5371
 20
16.6587
 30
0.000000
  70
    32
  0
VERTEX
  8
0
  5
10B3F
 10
53.5131
 20
16.6984
 30
0.000000
  70
    32
  0
VERTEX
  8
0
  5
10B40
 10
53.4892
 20
16.7380
 30
0.000000
  70
    32
  0
VERTEX
  8
0
  5
10B41
 10
53.4654
 20
16.7778
 30
0.000000
  70
    32
  0
VERTEX
  8
0
  5
10B42
 10
53.4416
 20
16.8176
 30
0.000000
  70
    32
  0
VERTEX
  8
0
  5
10B43
 10
53.4180
 20
16.8574
 30
0.000000
  70
    32
  0
VERTEX
  8
0
  5
10B44
 10
53.3944
 20
16.8973
 30
0.000000
  70
    32
  0
VERTEX
  8
0
  5
10B45
 10
53.3709
 20
16.9372
 30
0.000000
  70
    32
  0
VERTEX
  8
0
  5
10B46
 10
53.3475
 20
16.9772
 30
0.000000
  70
    32
  0
VERTEX
  8
0
  5
10B47
 10
53.3242
 20
17.0172
 30
0.000000
  70
    32
  0
VERTEX
  8
0
  5
10B48
 10
53.3009
 20
17.0573
 30
0.000000
  70
    32
  0
VERTEX
  8
0
  5
10B49
 10
53.2778
 20
17.0974
 30
0.000000
  70
    32
  0
VERTEX
  8
0
  5
10B4A
 10
53.2547
 20
17.1376
 30
0.000000
  70
    32
  0
VERTEX
  8
0
  5
10B4B
 10
53.2317
 20
17.1778
 30
0.000000
  70
    32
  0
VERTEX
  8
0
  5
10B4C
 10
53.2088
 20
17.2181
 30
0.000000
  70
    32
  0
VERTEX
  8
0
  5
10B4D
 10
53.1860
 20
17.2584
 30
0.000000
  70
    32
  0
VERTEX
  8
0
  5
10B4E
 10
53.1632
 20
17.2987
 30
0.000000
  70
    32
  0
VERTEX
  8
0
  5
10B4F
 10
53.1406
 20
17.3392
 30
0.000000
  70
    32
  0
VERTEX
  8
0
  5
10B50
 10
53.1180
 20
17.3796
 30
0.000000
  70
    32
  0
VERTEX
  8
0
  5
10B51
 10
53.0955
 20
17.4201
 30
0.000000
  70
    32
  0
VERTEX
  8
0
  5
10B52
 10
53.0731
 20
17.4607
 30
0.000000
  70
    32
  0
VERTEX
  8
0
  5
10B53
 10
53.0508
 20
17.5013
 30
0.000000
  70
    32
  0
VERTEX
  8
0
  5
10B54
 10
53.0286
 20
17.5419
 30
0.000000
  70
    32
  0
VERTEX
  8
0
  5
10B55
 10
53.0065
 20
17.5826
 30
0.000000
  70
    32
  0
VERTEX
  8
0
  5
10B56
 10
52.9844
 20
17.6234
 30
0.000000
  70
    32
  0
VERTEX
  8
0
  5
10B57
 10
52.9624
 20
17.6641
 30
0.000000
  70
    32
  0
VERTEX
  8
0
  5
10B58
 10
52.9405
 20
17.7050
 30
0.000000
  70
    32
  0
VERTEX
  8
0
  5
10B59
 10
52.9187
 20
17.7458
 30
0.000000
  70
    32
  0
VERTEX
  8
0
  5
10B5A
 10
52.8970
 20
17.7868
 30
0.000000
  70
    32
  0
VERTEX
  8
0
  5
10B5B
 10
52.8753
 20
17.8277
 30
0.000000
  70
    32
  0
VERTEX
  8
0
  5
10B5C
 10
52.8538
 20
17.8687
 30
0.000000
  70
    32
  0
VERTEX
  8
0
  5
10B5D
 10
52.8323
 20
17.9098
 30
0.000000
  70
    32
  0
VERTEX
  8
0
  5
10B5E
 10
52.8109
 20
17.9509
 30
0.000000
  70
    32
  0
VERTEX
  8
0
  5
10B5F
 10
52.7896
 20
17.9920
 30
0.000000
  70
    32
  0
VERTEX
  8
0
  5
10B60
 10
52.7684
 20
18.0332
 30
0.000000
  70
    32
  0
VERTEX
  8
0
  5
10B61
 10
52.7473
 20
18.0745
 30
0.000000
  70
    32
  0
VERTEX
  8
0
  5
10B62
 10
52.7262
 20
18.1157
 30
0.000000
  70
    32
  0
VERTEX
  8
0
  5
10B63
 10
52.7053
 20
18.1570
 30
0.000000
  70
    32
  0
VERTEX
  8
0
  5
10B64
 10
52.6844
 20
18.1984
 30
0.000000
  70
    32
  0
VERTEX
  8
0
  5
10B65
 10
52.6636
 20
18.2398
 30
0.000000
  70
    32
  0
VERTEX
  8
0
  5
10B66
 10
52.6429
 20
18.2813
 30
0.000000
  70
    32
  0
VERTEX
  8
0
  5
10B67
 10
52.6222
 20
18.3227
 30
0.000000
  70
    32
  0
VERTEX
  8
0
  5
10B68
 10
52.6017
 20
18.3643
 30
0.000000
  70
    32
  0
VERTEX
  8
0
  5
10B69
 10
52.5812
 20
18.4058
 30
0.000000
  70
    32
  0
VERTEX
  8
0
  5
10B6A
 10
52.5609
 20
18.4475
 30
0.000000
  70
    32
  0
VERTEX
  8
0
  5
10B6B
 10
52.5406
 20
18.4891
 30
0.000000
  70
    32
  0
VERTEX
  8
0
  5
10B6C
 10
52.5204
 20
18.5308
 30
0.000000
  70
    32
  0
VERTEX
  8
0
  5
10B6D
 10
52.5003
 20
18.5726
 30
0.000000
  70
    32
  0
VERTEX
  8
0
  5
10B6E
 10
52.4802
 20
18.6143
 30
0.000000
  70
    32
  0
VERTEX
  8
0
  5
10B6F
 10
52.4603
 20
18.6561
 30
0.000000
  70
    32
  0
VERTEX
  8
0
  5
10B70
 10
52.4404
 20
18.6980
 30
0.000000
  70
    32
  0
VERTEX
  8
0
  5
10B71
 10
52.4207
 20
18.7399
 30
0.000000
  70
    32
  0
VERTEX
  8
0
  5
10B72
 10
52.4010
 20
18.7819
 30
0.000000
  70
    32
  0
VERTEX
  8
0
  5
10B73
 10
52.3814
 20
18.8238
 30
0.000000
  70
    32
  0
VERTEX
  8
0
  5
10B74
 10
52.3618
 20
18.8659
 30
0.000000
  70
    32
  0
VERTEX
  8
0
  5
10B75
 10
52.3424
 20
18.9079
 30
0.000000
  70
    32
  0
VERTEX
  8
0
  5
10B76
 10
52.3231
 20
18.9500
 30
0.000000
  70
    32
  0
VERTEX
  8
0
  5
10B77
 10
52.3038
 20
18.9921
 30
0.000000
  70
    32
  0
VERTEX
  8
0
  5
10B78
 10
52.2846
 20
19.0343
 30
0.000000
  70
    32
  0
VERTEX
  8
0
  5
10B79
 10
52.2655
 20
19.0765
 30
0.000000
  70
    32
  0
VERTEX
  8
0
  5
10B7A
 10
52.2465
 20
19.1188
 30
0.000000
  70
    32
  0
VERTEX
  8
0
  5
10B7B
 10
52.2276
 20
19.1611
 30
0.000000
  70
    32
  0
VERTEX
  8
0
  5
10B7C
 10
52.2087
 20
19.2034
 30
0.000000
  70
    32
  0
VERTEX
  8
0
  5
10B7D
 10
52.1900
 20
19.2458
 30
0.000000
  70
    32
  0
VERTEX
  8
0
  5
10B7E
 10
52.1713
 20
19.2882
 30
0.000000
  70
    32
  0
VERTEX
  8
0
  5
10B7F
 10
52.1528
 20
19.3306
 30
0.000000
  70
    32
  0
VERTEX
  8
0
  5
10B80
 10
52.1343
 20
19.3731
 30
0.000000
  70
    32
  0
VERTEX
  8
0
  5
10B81
 10
52.1159
 20
19.4156
 30
0.000000
  70
    32
  0
VERTEX
  8
0
  5
10B82
 10
52.0975
 20
19.4582
 30
0.000000
  70
    32
  0
VERTEX
  8
0
  5
10B83
 10
52.0793
 20
19.5007
 30
0.000000
  70
    32
  0
VERTEX
  8
0
  5
10B84
 10
52.0612
 20
19.5434
 30
0.000000
  70
    32
  0
VERTEX
  8
0
  5
10B85
 10
52.0431
 20
19.5860
 30
0.000000
  70
    32
  0
VERTEX
  8
0
  5
10B86
 10
52.0251
 20
19.6287
 30
0.000000
  70
    32
  0
VERTEX
  8
0
  5
10B87
 10
52.0072
 20
19.6714
 30
0.000000
  70
    32
  0
VERTEX
  8
0
  5
10B88
 10
51.9894
 20
19.7142
 30
0.000000
  70
    32
  0
VERTEX
  8
0
  5
10B89
 10
51.9717
 20
19.7570
 30
0.000000
  70
    32
  0
VERTEX
  8
0
  5
10B8A
 10
51.9541
 20
19.7998
 30
0.000000
  70
    32
  0
VERTEX
  8
0
  5
10B8B
 10
51.9365
 20
19.8427
 30
0.000000
  70
    32
  0
VERTEX
  8
0
  5
10B8C
 10
51.9191
 20
19.8856
 30
0.000000
  70
    32
  0
VERTEX
  8
0
  5
10B8D
 10
51.9017
 20
19.9285
 30
0.000000
  70
    32
  0
VERTEX
  8
0
  5
10B8E
 10
51.8844
 20
19.9715
 30
0.000000
  70
    32
  0
VERTEX
  8
0
  5
10B8F
 10
51.8672
 20
20.0145
 30
0.000000
  70
    32
  0
VERTEX
  8
0
  5
10B90
 10
51.8501
 20
20.0576
 30
0.000000
  70
    32
  0
VERTEX
  8
0
  5
10B91
 10
51.8331
 20
20.1006
 30
0.000000
  70
    32
  0
VERTEX
  8
0
  5
10B92
 10
51.8161
 20
20.1437
 30
0.000000
  70
    32
  0
VERTEX
  8
0
  5
10B93
 10
51.7993
 20
20.1869
 30
0.000000
  70
    32
  0
SEQEND
  8
0
  5
10B94
  0
LINE
  5
FD43
  8
0
 10
164.46223642455331
 20
16.00001999999995
 30
0.0
 11
167.71223642455331
 21
16.00001999999995
 31
0.0
  0
LINE
  5
FD44
  8
0
 10
173.96223642455331
 20
25.225467999999861
 30
0.0
 11
173.96223642455331
 21
16.00001999999995
 31
0.0
  0
LINE
  5
FD45
  8
0
 10
166.96223642455331
 20
26.225467999999861
 30
0.0
 11
172.96223642455331
 21
26.225467999999861
 31
0.0
  0
LINE
  5
FD4B
  8
0
 10
168.71223642455331
 20
24.657574000000061
 30
0.0
 11
171.21223642455331
 21
24.657574000000061
 31
0.0
  0
LINE
  5
FD4C
  8
0
 10
168.71223642455331
 20
21.00001999999995
 30
0.0
 11
171.21223642455331
 21
21.00001999999995
 31
0.0
  0
LINE
  5
FD4D
  8
0
 10
165.96223642455331
 20
10.000019999999941
 30
0.0
 11
165.96223642455331
 21
-4.1241161249206471
 31
0.0
  0
LINE
  5
FD4F
  8
0
 10
164.462233524553
 20
16.000023999999929
 30
0.0
 11
162.96223262455351
 21
10.000019999999941
 31
0.0
  0
LINE
  5
FD54
  8
0
 10
172.96223692455351
 20
26.225467999999861
 30
0.0
 11
173.962237824553
 21
25.225467999999861
 31
0.0
  0
LINE
  5
FD55
  8
0
 10
173.96223642455331
 20
10.00001999999972
 30
0.0
 11
173.96223642455331
 21
-4.1241161249213292
 31
0.0
  0
LINE
  5
FD56
  8
0
 10
172.21223642455331
 20
23.657574000000061
 30
0.0
 11
172.21223642455331
 21
10.000019999999941
 31
0.0
  0
LINE
  5
FD59
  8
0
 10
167.71223642455331
 20
23.657574000000061
 30
0.0
 11
167.71223642455331
 21
10.000019999999941
 31
0.0
  0
LINE
  5
FD5A
  8
0
 10
175.46223932455359
 20
16.000023999999929
 30
0.0
 11
176.96224022455311
 21
10.000019999999941
 31
0.0
  0
LINE
  5
FD5C
  8
0
 10
172.21223642455331
 20
16.00001999999995
 30
0.0
 11
175.46223642455331
 21
16.00001999999995
 31
0.0
  0
LINE
  5
FD5D
  8
0
 10
157.96223642455331
 20
2.5
 30
0.0
 11
165.96223642455331
 21
2.5
 31
0.0
  0
LINE
  5
FD5E
  8
0
 10
173.96223642455331
 20
2.5
 30
0.0
 11
181.96223642455331
 21
2.5
 31
0.0
  0
LINE
  5
FD5F
  8
0
 10
157.96223642455331
 20
-2.5
 30
0.0
 11
165.96223642455331
 21
-2.5
 31
0.0
  0
LINE
  5
FD60
  8
0
 10
173.96223642455331
 20
-2.5
 30
0.0
 11
181.8489877705014
 21
-2.5
 31
0.0
  0
LINE
  5
FD63
  8
0
 10
166.96223592455311
 20
26.225467999999861
 30
0.0
 11
165.96223502455359
 21
25.225467999999861
 31
0.0
  0
LINE
  5
FD64
  8
0
 10
165.96223642455331
 20
25.225467999999861
 30
0.0
 11
165.96223642455331
 21
16.00001999999995
 31
0.0
  0
ARC
  5
FD65
  8
0
 10
171.21223642455331
 20
22.00001999999995
 30
0.0
 40
1.0
 50
270.0
 51
0.0
  0
ARC
  5
FD66
  8
0
 10
168.71223642455331
 20
23.657574000000061
 30
0.0
 40
1.0
 50
90.0
 51
180.0
  0
ARC
  5
FD67
  8
0
 10
168.71223642455331
 20
22.00001999999995
 30
0.0
 40
1.0
 50
180.0
 51
270.0
  0
ARC
  5
FD68
  8
0
 10
171.21223642455331
 20
23.657574000000061
 30
0.0
 40
1.0
 50
0.0
 51
90.0
  0
POLYLINE
  5
FD69
  8
0
 10
155.96223642455331
 20
2.9999999000000002
 30
0.0
 66
     1
 70
     8
  0
VERTEX
  8
0
  5
10B95
 10
155.962
 20
3.00000
 30
0.000000
  70
    32
  0
VERTEX
  8
0
  5
10B96
 10
155.925
 20
2.99910
 30
0.000000
  70
    32
  0
VERTEX
  8
0
  5
10B97
 10
155.889
 20
2.99639
 30
0.000000
  70
    32
  0
VERTEX
  8
0
  5
10B98
 10
155.852
 20
2.99187
 30
0.000000
  70
    32
  0
VERTEX
  8
0
  5
10B99
 10
155.815
 20
2.98555
 30
0.000000
  70
    32
  0
VERTEX
  8
0
  5
10B9A
 10
155.779
 20
2.97744
 30
0.000000
  70
    32
  0
VERTEX
  8
0
  5
10B9B
 10
155.742
 20
2.96753
 30
0.000000
  70
    32
  0
VERTEX
  8
0
  5
10B9C
 10
155.706
 20
2.95583
 30
0.000000
  70
    32
  0
VERTEX
  8
0
  5
10B9D
 10
155.670
 20
2.94236
 30
0.000000
  70
    32
  0
VERTEX
  8
0
  5
10B9E
 10
155.634
 20
2.92711
 30
0.000000
  70
    32
  0
VERTEX
  8
0
  5
10B9F
 10
155.598
 20
2.91009
 30
0.000000
  70
    32
  0
VERTEX
  8
0
  5
10BA0
 10
155.562
 20
2.89133
 30
0.000000
  70
    32
  0
VERTEX
  8
0
  5
10BA1
 10
155.527
 20
2.87082
 30
0.000000
  70
    32
  0
VERTEX
  8
0
  5
10BA2
 10
155.492
 20
2.84858
 30
0.000000
  70
    32
  0
VERTEX
  8
0
  5
10BA3
 10
155.457
 20
2.82463
 30
0.000000
  70
    32
  0
VERTEX
  8
0
  5
10BA4
 10
155.422
 20
2.79898
 30
0.000000
  70
    32
  0
VERTEX
  8
0
  5
10BA5
 10
155.388
 20
2.77164
 30
0.000000
  70
    32
  0
VERTEX
  8
0
  5
10BA6
 10
155.354
 20
2.74263
 30
0.000000
  70
    32
  0
VERTEX
  8
0
  5
10BA7
 10
155.321
 20
2.71197
 30
0.000000
  70
    32
  0
VERTEX
  8
0
  5
10BA8
 10
155.288
 20
2.67967
 30
0.000000
  70
    32
  0
VERTEX
  8
0
  5
10BA9
 10
155.255
 20
2.64576
 30
0.000000
  70
    32
  0
VERTEX
  8
0
  5
10BAA
 10
155.223
 20
2.61026
 30
0.000000
  70
    32
  0
VERTEX
  8
0
  5
10BAB
 10
155.191
 20
2.57319
 30
0.000000
  70
    32
  0
VERTEX
  8
0
  5
10BAC
 10
155.160
 20
2.53456
 30
0.000000
  70
    32
  0
VERTEX
  8
0
  5
10BAD
 10
155.129
 20
2.49441
 30
0.000000
  70
    32
  0
VERTEX
  8
0
  5
10BAE
 10
155.099
 20
2.45275
 30
0.000000
  70
    32
  0
VERTEX
  8
0
  5
10BAF
 10
155.069
 20
2.40962
 30
0.000000
  70
    32
  0
VERTEX
  8
0
  5
10BB0
 10
155.039
 20
2.36504
 30
0.000000
  70
    32
  0
VERTEX
  8
0
  5
10BB1
 10
155.011
 20
2.31903
 30
0.000000
  70
    32
  0
VERTEX
  8
0
  5
10BB2
 10
154.982
 20
2.27163
 30
0.000000
  70
    32
  0
VERTEX
  8
0
  5
10BB3
 10
154.955
 20
2.22285
 30
0.000000
  70
    32
  0
VERTEX
  8
0
  5
10BB4
 10
154.928
 20
2.17274
 30
0.000000
  70
    32
  0
VERTEX
  8
0
  5
10BB5
 10
154.902
 20
2.12132
 30
0.000000
  70
    32
  0
VERTEX
  8
0
  5
10BB6
 10
154.876
 20
2.06862
 30
0.000000
  70
    32
  0
VERTEX
  8
0
  5
10BB7
 10
154.851
 20
2.01468
 30
0.000000
  70
    32
  0
VERTEX
  8
0
  5
10BB8
 10
154.826
 20
1.95952
 30
0.000000
  70
    32
  0
VERTEX
  8
0
  5
10BB9
 10
154.803
 20
1.90318
 30
0.000000
  70
    32
  0
VERTEX
  8
0
  5
10BBA
 10
154.780
 20
1.84569
 30
0.000000
  70
    32
  0
VERTEX
  8
0
  5
10BBB
 10
154.757
 20
1.78710
 30
0.000000
  70
    32
  0
VERTEX
  8
0
  5
10BBC
 10
154.736
 20
1.72742
 30
0.000000
  70
    32
  0
VERTEX
  8
0
  5
10BBD
 10
154.715
 20
1.66671
 30
0.000000
  70
    32
  0
VERTEX
  8
0
  5
10BBE
 10
154.695
 20
1.60499
 30
0.000000
  70
    32
  0
VERTEX
  8
0
  5
10BBF
 10
154.676
 20
1.54231
 30
0.000000
  70
    32
  0
VERTEX
  8
0
  5
10BC0
 10
154.657
 20
1.47869
 30
0.000000
  70
    32
  0
VERTEX
  8
0
  5
10BC1
 10
154.639
 20
1.41419
 30
0.000000
  70
    32
  0
VERTEX
  8
0
  5
10BC2
 10
154.622
 20
1.34883
 30
0.000000
  70
    32
  0
VERTEX
  8
0
  5
10BC3
 10
154.606
 20
1.28267
 30
0.000000
  70
    32
  0
VERTEX
  8
0
  5
10BC4
 10
154.591
 20
1.21572
 30
0.000000
  70
    32
  0
VERTEX
  8
0
  5
10BC5
 10
154.576
 20
1.14805
 30
0.000000
  70
    32
  0
VERTEX
  8
0
  5
10BC6
 10
154.563
 20
1.07969
 30
0.000000
  70
    32
  0
VERTEX
  8
0
  5
10BC7
 10
154.550
 20
1.01067
 30
0.000000
  70
    32
  0
VERTEX
  8
0
  5
10BC8
 10
154.538
 20
0.941045
 30
0.000000
  70
    32
  0
VERTEX
  8
0
  5
10BC9
 10
154.527
 20
0.870854
 30
0.000000
  70
    32
  0
VERTEX
  8
0
  5
10BCA
 10
154.517
 20
0.800138
 30
0.000000
  70
    32
  0
VERTEX
  8
0
  5
10BCB
 10
154.507
 20
0.728940
 30
0.000000
  70
    32
  0
VERTEX
  8
0
  5
10BCC
 10
154.499
 20
0.657304
 30
0.000000
  70
    32
  0
VERTEX
  8
0
  5
10BCD
 10
154.491
 20
0.585271
 30
0.000000
  70
    32
  0
VERTEX
  8
0
  5
10BCE
 10
154.484
 20
0.512886
 30
0.000000
  70
    32
  0
VERTEX
  8
0
  5
10BCF
 10
154.478
 20
0.440191
 30
0.000000
  70
    32
  0
VERTEX
  8
0
  5
10BD0
 10
154.474
 20
0.367232
 30
0.000000
  70
    32
  0
VERTEX
  8
0
  5
10BD1
 10
154.469
 20
0.294051
 30
0.000000
  70
    32
  0
VERTEX
  8
0
  5
10BD2
 10
154.466
 20
0.220694
 30
0.000000
  70
    32
  0
VERTEX
  8
0
  5
10BD3
 10
154.464
 20
0.147203
 30
0.000000
  70
    32
  0
VERTEX
  8
0
  5
10BD4
 10
154.463
 20
0.0736236
 30
0.000000
  70
    32
  0
VERTEX
  8
0
  5
10BD5
 10
154.462
 20
-3.48077e-008
 30
0.000000
  70
    32
  0
VERTEX
  8
0
  5
10BD6
 10
154.463
 20
-0.0736237
 30
0.000000
  70
    32
  0
VERTEX
  8
0
  5
10BD7
 10
154.464
 20
-0.147203
 30
0.000000
  70
    32
  0
VERTEX
  8
0
  5
10BD8
 10
154.466
 20
-0.220694
 30
0.000000
  70
    32
  0
VERTEX
  8
0
  5
10BD9
 10
154.469
 20
-0.294051
 30
0.000000
  70
    32
  0
VERTEX
  8
0
  5
10BDA
 10
154.474
 20
-0.367232
 30
0.000000
  70
    32
  0
VERTEX
  8
0
  5
10BDB
 10
154.478
 20
-0.440191
 30
0.000000
  70
    32
  0
VERTEX
  8
0
  5
10BDC
 10
154.484
 20
-0.512886
 30
0.000000
  70
    32
  0
VERTEX
  8
0
  5
10BDD
 10
154.491
 20
-0.585271
 30
0.000000
  70
    32
  0
VERTEX
  8
0
  5
10BDE
 10
154.499
 20
-0.657304
 30
0.000000
  70
    32
  0
VERTEX
  8
0
  5
10BDF
 10
154.507
 20
-0.728941
 30
0.000000
  70
    32
  0
VERTEX
  8
0
  5
10BE0
 10
154.517
 20
-0.800138
 30
0.000000
  70
    32
  0
VERTEX
  8
0
  5
10BE1
 10
154.527
 20
-0.870854
 30
0.000000
  70
    32
  0
VERTEX
  8
0
  5
10BE2
 10
154.538
 20
-0.941045
 30
0.000000
  70
    32
  0
VERTEX
  8
0
  5
10BE3
 10
154.550
 20
-1.01067
 30
0.000000
  70
    32
  0
VERTEX
  8
0
  5
10BE4
 10
154.563
 20
-1.07969
 30
0.000000
  70
    32
  0
VERTEX
  8
0
  5
10BE5
 10
154.576
 20
-1.14805
 30
0.000000
  70
    32
  0
VERTEX
  8
0
  5
10BE6
 10
154.591
 20
-1.21572
 30
0.000000
  70
    32
  0
VERTEX
  8
0
  5
10BE7
 10
154.606
 20
-1.28267
 30
0.000000
  70
    32
  0
VERTEX
  8
0
  5
10BE8
 10
154.622
 20
-1.34883
 30
0.000000
  70
    32
  0
VERTEX
  8
0
  5
10BE9
 10
154.639
 20
-1.41419
 30
0.000000
  70
    32
  0
VERTEX
  8
0
  5
10BEA
 10
154.657
 20
-1.47869
 30
0.000000
  70
    32
  0
VERTEX
  8
0
  5
10BEB
 10
154.676
 20
-1.54231
 30
0.000000
  70
    32
  0
VERTEX
  8
0
  5
10BEC
 10
154.695
 20
-1.60499
 30
0.000000
  70
    32
  0
VERTEX
  8
0
  5
10BED
 10
154.715
 20
-1.66671
 30
0.000000
  70
    32
  0
VERTEX
  8
0
  5
10BEE
 10
154.736
 20
-1.72742
 30
0.000000
  70
    32
  0
VERTEX
  8
0
  5
10BEF
 10
154.757
 20
-1.78710
 30
0.000000
  70
    32
  0
VERTEX
  8
0
  5
10BF0
 10
154.780
 20
-1.84569
 30
0.000000
  70
    32
  0
VERTEX
  8
0
  5
10BF1
 10
154.803
 20
-1.90318
 30
0.000000
  70
    32
  0
VERTEX
  8
0
  5
10BF2
 10
154.826
 20
-1.95952
 30
0.000000
  70
    32
  0
VERTEX
  8
0
  5
10BF3
 10
154.851
 20
-2.01468
 30
0.000000
  70
    32
  0
VERTEX
  8
0
  5
10BF4
 10
154.876
 20
-2.06862
 30
0.000000
  70
    32
  0
VERTEX
  8
0
  5
10BF5
 10
154.902
 20
-2.12132
 30
0.000000
  70
    32
  0
VERTEX
  8
0
  5
10BF6
 10
154.928
 20
-2.17274
 30
0.000000
  70
    32
  0
VERTEX
  8
0
  5
10BF7
 10
154.955
 20
-2.22285
 30
0.000000
  70
    32
  0
VERTEX
  8
0
  5
10BF8
 10
154.982
 20
-2.27163
 30
0.000000
  70
    32
  0
VERTEX
  8
0
  5
10BF9
 10
155.011
 20
-2.31903
 30
0.000000
  70
    32
  0
VERTEX
  8
0
  5
10BFA
 10
155.039
 20
-2.36504
 30
0.000000
  70
    32
  0
VERTEX
  8
0
  5
10BFB
 10
155.069
 20
-2.40962
 30
0.000000
  70
    32
  0
VERTEX
  8
0
  5
10BFC
 10
155.099
 20
-2.45275
 30
0.000000
  70
    32
  0
VERTEX
  8
0
  5
10BFD
 10
155.129
 20
-2.49441
 30
0.000000
  70
    32
  0
VERTEX
  8
0
  5
10BFE
 10
155.160
 20
-2.53456
 30
0.000000
  70
    32
  0
VERTEX
  8
0
  5
10BFF
 10
155.191
 20
-2.57319
 30
0.000000
  70
    32
  0
VERTEX
  8
0
  5
10C00
 10
155.223
 20
-2.61026
 30
0.000000
  70
    32
  0
VERTEX
  8
0
  5
10C01
 10
155.255
 20
-2.64576
 30
0.000000
  70
    32
  0
VERTEX
  8
0
  5
10C02
 10
155.288
 20
-2.67967
 30
0.000000
  70
    32
  0
VERTEX
  8
0
  5
10C03
 10
155.321
 20
-2.71197
 30
0.000000
  70
    32
  0
VERTEX
  8
0
  5
10C04
 10
155.354
 20
-2.74263
 30
0.000000
  70
    32
  0
VERTEX
  8
0
  5
10C05
 10
155.388
 20
-2.77164
 30
0.000000
  70
    32
  0
VERTEX
  8
0
  5
10C06
 10
155.422
 20
-2.79898
 30
0.000000
  70
    32
  0
VERTEX
  8
0
  5
10C07
 10
155.457
 20
-2.82463
 30
0.000000
  70
    32
  0
VERTEX
  8
0
  5
10C08
 10
155.492
 20
-2.84858
 30
0.000000
  70
    32
  0
VERTEX
  8
0
  5
10C09
 10
155.527
 20
-2.87082
 30
0.000000
  70
    32
  0
VERTEX
  8
0
  5
10C0A
 10
155.562
 20
-2.89133
 30
0.000000
  70
    32
  0
VERTEX
  8
0
  5
10C0B
 10
155.598
 20
-2.91009
 30
0.000000
  70
    32
  0
VERTEX
  8
0
  5
10C0C
 10
155.634
 20
-2.92711
 30
0.000000
  70
    32
  0
VERTEX
  8
0
  5
10C0D
 10
155.670
 20
-2.94236
 30
0.000000
  70
    32
  0
VERTEX
  8
0
  5
10C0E
 10
155.706
 20
-2.95583
 30
0.000000
  70
    32
  0
VERTEX
  8
0
  5
10C0F
 10
155.742
 20
-2.96753
 30
0.000000
  70
    32
  0
VERTEX
  8
0
  5
10C10
 10
155.779
 20
-2.97744
 30
0.000000
  70
    32
  0
VERTEX
  8
0
  5
10C11
 10
155.815
 20
-2.98555
 30
0.000000
  70
    32
  0
VERTEX
  8
0
  5
10C12
 10
155.852
 20
-2.99187
 30
0.000000
  70
    32
  0
VERTEX
  8
0
  5
10C13
 10
155.889
 20
-2.99639
 30
0.000000
  70
    32
  0
VERTEX
  8
0
  5
10C14
 10
155.925
 20
-2.99910
 30
0.000000
  70
    32
  0
VERTEX
  8
0
  5
10C15
 10
155.962
 20
-3.00000
 30
0.000000
  70
    32
  0
SEQEND
  8
0
  5
10C16
  0
ARC
  5
FD6B
  8
0
 10
169.96223642455331
 20
2.8040871053544829
 30
0.0
 40
8.0
 50
239.99999999999619
 51
299.99999999999721
  0
LINE
  5
FD75
  8
0
 10
176.46223642455331
 20
6.0000199999999486
 30
0.0
 11
186.96223642455331
 21
6.0000199999997221
 31
0.0
  0
LINE
  5
FD76
  8
0
 10
178.46223642455331
 20
8.0000199999997221
 30
0.0
 11
186.96223642455331
 21
8.0000199999999495
 31
0.0
  0
LINE
  5
FD77
  8
0
 10
161.46223642455419
 20
10.000019999999941
 30
0.0
 11
178.46223642455331
 21
10.00001999999972
 31
0.0
  0
LINE
  5
FD78
  8
0
 10
163.46223642455419
 20
8.0000199999999495
 30
0.0
 11
165.71223642455331
 21
8.0000199999999495
 31
0.0
  0
LINE
  5
FD79
  8
0
 10
161.46223642455419
 20
8.0000199999997221
 30
0.0
 11
152.96223642455331
 21
8.0000199999999495
 31
0.0
  0
LINE
  5
FD7A
  8
0
 10
157.96223642455331
 20
-55.600006000000121
 30
0.0
 11
181.96223642455331
 21
-55.600006000000121
 31
0.0
  0
LINE
  5
FD7B
  8
0
 10
156.96223642455331
 20
-50.833060108555401
 30
0.0
 11
156.96223642455331
 21
-54.600006000000121
 31
0.0
  0
LINE
  5
FD7C
  8
0
 10
182.96223642455331
 20
-50.833060108555401
 30
0.0
 11
182.96223642455331
 21
-54.600006000000121
 31
0.0
  0
LINE
  5
FD7D
  8
0
 10
180.96223642455331
 20
-55.600006000000121
 30
0.0
 11
180.96223642455331
 21
-80.600006000000121
 31
0.0
  0
LINE
  5
FD7E
  8
0
 10
158.96223642455331
 20
-55.600006000000121
 30
0.0
 11
158.96223642455331
 21
-80.600006000000121
 31
0.0
  0
ARC
  5
FD7F
  8
0
 10
157.96223642455331
 20
-54.600006000000121
 30
0.0
 40
1.0
 50
179.99998999999889
 51
270.0
  0
ARC
  5
FD80
  8
0
 10
181.96223642455331
 20
-54.600006000000121
 30
0.0
 40
1.0
 50
270.0
 51
0.0
  0
LINE
  5
FD8B
  8
0
 10
161.46223642455419
 20
55.000000000000227
 30
0.0
 11
178.46223642455331
 21
55.0
 31
0.0
  0
LINE
  5
FD8C
  8
0
 10
152.96223642455331
 20
53.0
 30
0.0
 11
161.3075358861733
 21
53.0
 31
0.0
  0
LINE
  5
FD8E
  8
0
 10
178.46223642455331
 20
53.0
 30
0.0
 11
186.96223642455331
 21
53.0
 31
0.0
  0
LINE
  5
FD90
  8
0
 10
148.71223642455331
 20
-53.0
 30
0.0
 11
156.96223642455331
 21
-53.0
 31
0.0
  0
LINE
  5
FD91
  8
0
 10
158.96223642455331
 20
-80.600006000000121
 30
0.0
 11
180.96223642455331
 21
-80.600006000000121
 31
0.0
  0
LINE
  5
FD92
  8
0
 10
161.46223642455331
 20
-52.915026221291903
 30
0.0
 11
178.46223642455331
 21
-52.915026221292003
 31
0.0
  0
LINE
  5
FD94
  8
0
 10
156.96223642455331
 20
-50.833060108555401
 30
0.0
 11
161.46223642455331
 21
-50.833060108555507
 31
0.0
  0
LINE
  5
FD95
  8
0
 10
182.96223642455331
 20
-53.0
 30
0.0
 11
191.21223642455331
 21
-53.0
 31
0.0
  0
LINE
  5
FD96
  8
0
 10
178.46223642455331
 20
-50.833060108555507
 30
0.0
 11
182.96223642455331
 21
-50.833060108555401
 31
0.0
  0
LINE
  5
FD98
  8
0
 10
155.96223642455331
 20
-8.0000099999999748
 30
0.0
 11
161.46223642455331
 21
-8.0000100000002021
 31
0.0
  0
LINE
  5
FD99
  8
0
 10
157.96223642455331
 20
-6.0000099999999739
 30
0.0
 11
163.46223642455331
 21
-6.0000099999999739
 31
0.0
  0
LINE
  5
FD9E
  8
0
 10
148.71223642455331
 20
-53.0
 30
0.0
 11
148.71223642455331
 21
-14.142116583077719
 31
0.0
  0
LINE
  5
FDA2
  8
0
 10
155.96223642455331
 20
-8.0000099999999748
 30
0.0
 11
148.71223642455331
 21
-14.142116583077719
 31
0.0
  0
LINE
  5
FDA3
  8
0
 10
157.96223642455331
 20
-6.0000099999999739
 30
0.0
 11
157.96223642455331
 21
6.0000199999999486
 31
0.0
  0
LINE
  5
FDA5
  8
0
 10
155.96223642455331
 20
-8.0000099999999748
 30
0.0
 11
155.96223642455331
 21
6.0000199999999486
 31
0.0
  0
LINE
  5
FF40
  8
0
 10
161.46223642455331
 20
-52.915026221291903
 30
0.0
 11
161.46223642455331
 21
-8.0000100000002021
 31
0.0
  0
LINE
  5
FF41
  8
0
 10
161.46223642455331
 20
-10.000009999999969
 30
0.0
 11
178.46223642455331
 21
-10.000009999999969
 31
0.0
  0
LINE
  5
FF77
  8
0
 10
163.46223642455331
 20
-8.0000099999999748
 30
0.0
 11
163.46223642455331
 21
-6.0000099999999739
 31
0.0
  0
LINE
  5
FF78
  8
0
 10
163.46223642455331
 20
-8.0000099999999748
 30
0.0
 11
176.46223642455331
 21
-8.0000099999999748
 31
0.0
  0
POLYLINE
  5
FF79
  8
0
 10
183.96223642455331
 20
2.9999999000000002
 30
0.0
 66
     1
 70
     8
  0
VERTEX
  8
0
  5
10C17
 10
183.962
 20
3.00000
 30
0.000000
  70
    32
  0
VERTEX
  8
0
  5
10C18
 10
183.999
 20
2.99910
 30
0.000000
  70
    32
  0
VERTEX
  8
0
  5
10C19
 10
184.036
 20
2.99639
 30
0.000000
  70
    32
  0
VERTEX
  8
0
  5
10C1A
 10
184.073
 20
2.99187
 30
0.000000
  70
    32
  0
VERTEX
  8
0
  5
10C1B
 10
184.109
 20
2.98555
 30
0.000000
  70
    32
  0
VERTEX
  8
0
  5
10C1C
 10
184.146
 20
2.97744
 30
0.000000
  70
    32
  0
VERTEX
  8
0
  5
10C1D
 10
184.182
 20
2.96753
 30
0.000000
  70
    32
  0
VERTEX
  8
0
  5
10C1E
 10
184.219
 20
2.95583
 30
0.000000
  70
    32
  0
VERTEX
  8
0
  5
10C1F
 10
184.255
 20
2.94236
 30
0.000000
  70
    32
  0
VERTEX
  8
0
  5
10C20
 10
184.291
 20
2.92711
 30
0.000000
  70
    32
  0
VERTEX
  8
0
  5
10C21
 10
184.327
 20
2.91009
 30
0.000000
  70
    32
  0
VERTEX
  8
0
  5
10C22
 10
184.362
 20
2.89133
 30
0.000000
  70
    32
  0
VERTEX
  8
0
  5
10C23
 10
184.398
 20
2.87082
 30
0.000000
  70
    32
  0
VERTEX
  8
0
  5
10C24
 10
184.433
 20
2.84858
 30
0.000000
  70
    32
  0
VERTEX
  8
0
  5
10C25
 10
184.468
 20
2.82463
 30
0.000000
  70
    32
  0
VERTEX
  8
0
  5
10C26
 10
184.502
 20
2.79898
 30
0.000000
  70
    32
  0
VERTEX
  8
0
  5
10C27
 10
184.536
 20
2.77164
 30
0.000000
  70
    32
  0
VERTEX
  8
0
  5
10C28
 10
184.570
 20
2.74263
 30
0.000000
  70
    32
  0
VERTEX
  8
0
  5
10C29
 10
184.604
 20
2.71197
 30
0.000000
  70
    32
  0
VERTEX
  8
0
  5
10C2A
 10
184.637
 20
2.67967
 30
0.000000
  70
    32
  0
VERTEX
  8
0
  5
10C2B
 10
184.669
 20
2.64576
 30
0.000000
  70
    32
  0
VERTEX
  8
0
  5
10C2C
 10
184.702
 20
2.61026
 30
0.000000
  70
    32
  0
VERTEX
  8
0
  5
10C2D
 10
184.733
 20
2.57319
 30
0.000000
  70
    32
  0
VERTEX
  8
0
  5
10C2E
 10
184.765
 20
2.53456
 30
0.000000
  70
    32
  0
VERTEX
  8
0
  5
10C2F
 10
184.796
 20
2.49441
 30
0.000000
  70
    32
  0
VERTEX
  8
0
  5
10C30
 10
184.826
 20
2.45275
 30
0.000000
  70
    32
  0
VERTEX
  8
0
  5
10C31
 10
184.856
 20
2.40962
 30
0.000000
  70
    32
  0
VERTEX
  8
0
  5
10C32
 10
184.885
 20
2.36504
 30
0.000000
  70
    32
  0
VERTEX
  8
0
  5
10C33
 10
184.914
 20
2.31903
 30
0.000000
  70
    32
  0
VERTEX
  8
0
  5
10C34
 10
184.942
 20
2.27163
 30
0.000000
  70
    32
  0
VERTEX
  8
0
  5
10C35
 10
184.970
 20
2.22285
 30
0.000000
  70
    32
  0
VERTEX
  8
0
  5
10C36
 10
184.997
 20
2.17274
 30
0.000000
  70
    32
  0
VERTEX
  8
0
  5
10C37
 10
185.023
 20
2.12132
 30
0.000000
  70
    32
  0
VERTEX
  8
0
  5
10C38
 10
185.049
 20
2.06862
 30
0.000000
  70
    32
  0
VERTEX
  8
0
  5
10C39
 10
185.074
 20
2.01468
 30
0.000000
  70
    32
  0
VERTEX
  8
0
  5
10C3A
 10
185.098
 20
1.95952
 30
0.000000
  70
    32
  0
VERTEX
  8
0
  5
10C3B
 10
185.122
 20
1.90318
 30
0.000000
  70
    32
  0
VERTEX
  8
0
  5
10C3C
 10
185.145
 20
1.84569
 30
0.000000
  70
    32
  0
VERTEX
  8
0
  5
10C3D
 10
185.167
 20
1.78710
 30
0.000000
  70
    32
  0
VERTEX
  8
0
  5
10C3E
 10
185.189
 20
1.72742
 30
0.000000
  70
    32
  0
VERTEX
  8
0
  5
10C3F
 10
185.209
 20
1.66671
 30
0.000000
  70
    32
  0
VERTEX
  8
0
  5
10C40
 10
185.230
 20
1.60499
 30
0.000000
  70
    32
  0
VERTEX
  8
0
  5
10C41
 10
185.249
 20
1.54231
 30
0.000000
  70
    32
  0
VERTEX
  8
0
  5
10C42
 10
185.267
 20
1.47869
 30
0.000000
  70
    32
  0
VERTEX
  8
0
  5
10C43
 10
185.285
 20
1.41419
 30
0.000000
  70
    32
  0
VERTEX
  8
0
  5
10C44
 10
185.302
 20
1.34883
 30
0.000000
  70
    32
  0
VERTEX
  8
0
  5
10C45
 10
185.318
 20
1.28267
 30
0.000000
  70
    32
  0
VERTEX
  8
0
  5
10C46
 10
185.334
 20
1.21572
 30
0.000000
  70
    32
  0
VERTEX
  8
0
  5
10C47
 10
185.348
 20
1.14805
 30
0.000000
  70
    32
  0
VERTEX
  8
0
  5
10C48
 10
185.362
 20
1.07969
 30
0.000000
  70
    32
  0
VERTEX
  8
0
  5
10C49
 10
185.375
 20
1.01067
 30
0.000000
  70
    32
  0
VERTEX
  8
0
  5
10C4A
 10
185.387
 20
0.941045
 30
0.000000
  70
    32
  0
VERTEX
  8
0
  5
10C4B
 10
185.398
 20
0.870854
 30
0.000000
  70
    32
  0
VERTEX
  8
0
  5
10C4C
 10
185.408
 20
0.800138
 30
0.000000
  70
    32
  0
VERTEX
  8
0
  5
10C4D
 10
185.417
 20
0.728940
 30
0.000000
  70
    32
  0
VERTEX
  8
0
  5
10C4E
 10
185.426
 20
0.657304
 30
0.000000
  70
    32
  0
VERTEX
  8
0
  5
10C4F
 10
185.433
 20
0.585271
 30
0.000000
  70
    32
  0
VERTEX
  8
0
  5
10C50
 10
185.440
 20
0.512886
 30
0.000000
  70
    32
  0
VERTEX
  8
0
  5
10C51
 10
185.446
 20
0.440191
 30
0.000000
  70
    32
  0
VERTEX
  8
0
  5
10C52
 10
185.451
 20
0.367232
 30
0.000000
  70
    32
  0
VERTEX
  8
0
  5
10C53
 10
185.455
 20
0.294051
 30
0.000000
  70
    32
  0
VERTEX
  8
0
  5
10C54
 10
185.458
 20
0.220694
 30
0.000000
  70
    32
  0
VERTEX
  8
0
  5
10C55
 10
185.460
 20
0.147203
 30
0.000000
  70
    32
  0
VERTEX
  8
0
  5
10C56
 10
185.462
 20
0.0736236
 30
0.000000
  70
    32
  0
VERTEX
  8
0
  5
10C57
 10
185.462
 20
-3.48077e-008
 30
0.000000
  70
    32
  0
VERTEX
  8
0
  5
10C58
 10
185.462
 20
-0.0736237
 30
0.000000
  70
    32
  0
VERTEX
  8
0
  5
10C59
 10
185.460
 20
-0.147203
 30
0.000000
  70
    32
  0
VERTEX
  8
0
  5
10C5A
 10
185.458
 20
-0.220694
 30
0.000000
  70
    32
  0
VERTEX
  8
0
  5
10C5B
 10
185.455
 20
-0.294051
 30
0.000000
  70
    32
  0
VERTEX
  8
0
  5
10C5C
 10
185.451
 20
-0.367232
 30
0.000000
  70
    32
  0
VERTEX
  8
0
  5
10C5D
 10
185.446
 20
-0.440191
 30
0.000000
  70
    32
  0
VERTEX
  8
0
  5
10C5E
 10
185.440
 20
-0.512886
 30
0.000000
  70
    32
  0
VERTEX
  8
0
  5
10C5F
 10
185.433
 20
-0.585271
 30
0.000000
  70
    32
  0
VERTEX
  8
0
  5
10C60
 10
185.426
 20
-0.657304
 30
0.000000
  70
    32
  0
VERTEX
  8
0
  5
10C61
 10
185.417
 20
-0.728941
 30
0.000000
  70
    32
  0
VERTEX
  8
0
  5
10C62
 10
185.408
 20
-0.800138
 30
0.000000
  70
    32
  0
VERTEX
  8
0
  5
10C63
 10
185.398
 20
-0.870854
 30
0.000000
  70
    32
  0
VERTEX
  8
0
  5
10C64
 10
185.387
 20
-0.941045
 30
0.000000
  70
    32
  0
VERTEX
  8
0
  5
10C65
 10
185.375
 20
-1.01067
 30
0.000000
  70
    32
  0
VERTEX
  8
0
  5
10C66
 10
185.362
 20
-1.07969
 30
0.000000
  70
    32
  0
VERTEX
  8
0
  5
10C67
 10
185.348
 20
-1.14805
 30
0.000000
  70
    32
  0
VERTEX
  8
0
  5
10C68
 10
185.334
 20
-1.21572
 30
0.000000
  70
    32
  0
VERTEX
  8
0
  5
10C69
 10
185.318
 20
-1.28267
 30
0.000000
  70
    32
  0
VERTEX
  8
0
  5
10C6A
 10
185.302
 20
-1.34883
 30
0.000000
  70
    32
  0
VERTEX
  8
0
  5
10C6B
 10
185.285
 20
-1.41419
 30
0.000000
  70
    32
  0
VERTEX
  8
0
  5
10C6C
 10
185.267
 20
-1.47869
 30
0.000000
  70
    32
  0
VERTEX
  8
0
  5
10C6D
 10
185.249
 20
-1.54231
 30
0.000000
  70
    32
  0
VERTEX
  8
0
  5
10C6E
 10
185.230
 20
-1.60499
 30
0.000000
  70
    32
  0
VERTEX
  8
0
  5
10C6F
 10
185.209
 20
-1.66671
 30
0.000000
  70
    32
  0
VERTEX
  8
0
  5
10C70
 10
185.189
 20
-1.72742
 30
0.000000
  70
    32
  0
VERTEX
  8
0
  5
10C71
 10
185.167
 20
-1.78710
 30
0.000000
  70
    32
  0
VERTEX
  8
0
  5
10C72
 10
185.145
 20
-1.84569
 30
0.000000
  70
    32
  0
VERTEX
  8
0
  5
10C73
 10
185.122
 20
-1.90318
 30
0.000000
  70
    32
  0
VERTEX
  8
0
  5
10C74
 10
185.098
 20
-1.95952
 30
0.000000
  70
    32
  0
VERTEX
  8
0
  5
10C75
 10
185.074
 20
-2.01468
 30
0.000000
  70
    32
  0
VERTEX
  8
0
  5
10C76
 10
185.049
 20
-2.06862
 30
0.000000
  70
    32
  0
VERTEX
  8
0
  5
10C77
 10
185.023
 20
-2.12132
 30
0.000000
  70
    32
  0
VERTEX
  8
0
  5
10C78
 10
184.997
 20
-2.17274
 30
0.000000
  70
    32
  0
VERTEX
  8
0
  5
10C79
 10
184.970
 20
-2.22285
 30
0.000000
  70
    32
  0
VERTEX
  8
0
  5
10C7A
 10
184.942
 20
-2.27163
 30
0.000000
  70
    32
  0
VERTEX
  8
0
  5
10C7B
 10
184.914
 20
-2.31903
 30
0.000000
  70
    32
  0
VERTEX
  8
0
  5
10C7C
 10
184.885
 20
-2.36504
 30
0.000000
  70
    32
  0
VERTEX
  8
0
  5
10C7D
 10
184.856
 20
-2.40962
 30
0.000000
  70
    32
  0
VERTEX
  8
0
  5
10C7E
 10
184.826
 20
-2.45275
 30
0.000000
  70
    32
  0
VERTEX
  8
0
  5
10C7F
 10
184.796
 20
-2.49441
 30
0.000000
  70
    32
  0
VERTEX
  8
0
  5
10C80
 10
184.765
 20
-2.53456
 30
0.000000
  70
    32
  0
VERTEX
  8
0
  5
10C81
 10
184.733
 20
-2.57319
 30
0.000000
  70
    32
  0
VERTEX
  8
0
  5
10C82
 10
184.702
 20
-2.61026
 30
0.000000
  70
    32
  0
VERTEX
  8
0
  5
10C83
 10
184.669
 20
-2.64576
 30
0.000000
  70
    32
  0
VERTEX
  8
0
  5
10C84
 10
184.637
 20
-2.67967
 30
0.000000
  70
    32
  0
VERTEX
  8
0
  5
10C85
 10
184.604
 20
-2.71197
 30
0.000000
  70
    32
  0
VERTEX
  8
0
  5
10C86
 10
184.570
 20
-2.74263
 30
0.000000
  70
    32
  0
VERTEX
  8
0
  5
10C87
 10
184.536
 20
-2.77164
 30
0.000000
  70
    32
  0
VERTEX
  8
0
  5
10C88
 10
184.502
 20
-2.79898
 30
0.000000
  70
    32
  0
VERTEX
  8
0
  5
10C89
 10
184.468
 20
-2.82463
 30
0.000000
  70
    32
  0
VERTEX
  8
0
  5
10C8A
 10
184.433
 20
-2.84858
 30
0.000000
  70
    32
  0
VERTEX
  8
0
  5
10C8B
 10
184.398
 20
-2.87082
 30
0.000000
  70
    32
  0
VERTEX
  8
0
  5
10C8C
 10
184.362
 20
-2.89133
 30
0.000000
  70
    32
  0
VERTEX
  8
0
  5
10C8D
 10
184.327
 20
-2.91009
 30
0.000000
  70
    32
  0
VERTEX
  8
0
  5
10C8E
 10
184.291
 20
-2.92711
 30
0.000000
  70
    32
  0
VERTEX
  8
0
  5
10C8F
 10
184.255
 20
-2.94236
 30
0.000000
  70
    32
  0
VERTEX
  8
0
  5
10C90
 10
184.219
 20
-2.95583
 30
0.000000
  70
    32
  0
VERTEX
  8
0
  5
10C91
 10
184.182
 20
-2.96753
 30
0.000000
  70
    32
  0
VERTEX
  8
0
  5
10C92
 10
184.146
 20
-2.97744
 30
0.000000
  70
    32
  0
VERTEX
  8
0
  5
10C93
 10
184.109
 20
-2.98555
 30
0.000000
  70
    32
  0
VERTEX
  8
0
  5
10C94
 10
184.073
 20
-2.99187
 30
0.000000
  70
    32
  0
VERTEX
  8
0
  5
10C95
 10
184.036
 20
-2.99639
 30
0.000000
  70
    32
  0
VERTEX
  8
0
  5
10C96
 10
183.999
 20
-2.99910
 30
0.000000
  70
    32
  0
VERTEX
  8
0
  5
10C97
 10
183.962
 20
-3.00000
 30
0.000000
  70
    32
  0
SEQEND
  8
0
  5
10C98
  0
LINE
  5
FF7B
  8
0
 10
183.96223642455331
 20
-8.0000099999999748
 30
0.0
 11
178.46223642455331
 21
-8.0000100000002021
 31
0.0
  0
LINE
  5
FF7C
  8
0
 10
181.96223642455331
 20
-6.0000099999999739
 30
0.0
 11
176.46223642455331
 21
-6.0000099999999739
 31
0.0
  0
LINE
  5
FF7D
  8
0
 10
181.96223642455331
 20
-6.0000099999999739
 30
0.0
 11
181.96223642455331
 21
6.0000199999999486
 31
0.0
  0
LINE
  5
FF7E
  8
0
 10
183.96223642455331
 20
-8.0000099999999748
 30
0.0
 11
183.96223642455331
 21
6.0000199999999486
 31
0.0
  0
LINE
  5
FF80
  8
0
 10
176.46223642455331
 20
-8.0000099999999748
 30
0.0
 11
176.46223642455331
 21
-6.0000099999999739
 31
0.0
  0
LINE
  5
FF83
  8
0
 10
191.21223642455331
 20
-53.0
 30
0.0
 11
191.21223642455331
 21
-14.142116583077719
 31
0.0
  0
LINE
  5
FF84
  8
0
 10
183.96223642455331
 20
-8.0000099999999748
 30
0.0
 11
191.21223642455331
 21
-14.142116583077719
 31
0.0
  0
LINE
  5
FF85
  8
0
 10
178.46223642455331
 20
-52.915026221292003
 30
0.0
 11
178.46223642455331
 21
-8.0000100000002021
 31
0.0
  0
LINE
  5
FF8A
  8
0
 10
152.96223642455331
 20
6.0000099999999739
 30
0.0
 11
163.46223642455419
 21
6.0000099999999739
 31
0.0
  0
LINE
  5
FFD7
  8
0
  6
CENTER
 10
169.96223642455331
 20
-83.128358707660695
 30
0.0
 11
169.96223642455331
 21
61.035967630948342
 31
0.0
  0
LINE
  5
1002C
  8
0
 10
178.46223642455331
 20
8.0000199999997221
 30
0.0
 11
178.46223642455331
 21
55.0
 31
0.0
  0
LINE
  5
1002D
  8
0
 10
161.46223642455419
 20
8.0000199999997221
 30
0.0
 11
161.46223642455419
 21
55.000000000000227
 31
0.0
  0
LINE
  5
1002E
  8
0
 10
186.96223642455331
 20
6.0000199999997221
 30
0.0
 11
186.96223642455331
 21
53.0
 31
0.0
  0
LINE
  5
1002F
  8
0
 10
152.96223642455331
 20
6.0000099999999739
 30
0.0
 11
152.96223642455331
 21
53.0
 31
0.0
  0
LINE
  5
10042
  8
0
 10
163.46223642455419
 20
6.0000099999999739
 30
0.0
 11
163.46223642455419
 21
8.0000199999999495
 31
0.0
  0
LINE
  5
10043
  8
0
 10
176.46223642455331
 20
6.0000199999999486
 30
0.0
 11
176.46223642455331
 21
8.0000199999999495
 31
0.0
  0
LINE
  5
10070
  8
0
 10
165.71223642455331
 20
10.000019999999941
 30
0.0
 11
165.71223642455331
 21
8.0000199999999495
 31
0.0
  0
LINE
  5
10071
  8
0
 10
174.21223642455331
 20
10.000019999999941
 30
0.0
 11
174.21223642455331
 21
8.0000199999999495
 31
0.0
  0
LINE
  5
10072
  8
0
 10
174.21223642455331
 20
8.0000199999999495
 30
0.0
 11
176.46223642455331
 21
8.0000199999999495
 31
0.0
  0
LINE
  5
10079
  8
0
  6
CENTER
 10
154.24288920825711
 20
0.0000000000002274
 30
0.0
 11
185.68158364084951
 21
0.0000000000002274
 31
0.0
  0
CIRCLE
  5
100A0
  8
0
 10
67.0
 20
117.3590331153288
 30
0.0
 40
4.0
  0
CIRCLE
  5
100A1
  8
0
 10
67.0
 20
117.3590331153288
 30
0.0
 40
5.5
  0
CIRCLE
  5
100A2
  8
0
 10
67.0
 20
117.3590331153288
 30
0.0
 40
3.0
  0
CIRCLE
  5
100A3
  8
0
 10
67.0
 20
0.0
 30
0.0
 40
2.9999998999996929
  0
CIRCLE
  5
100A4
  8
0
 10
-65.0
 20
0.0
 30
0.0
 40
2.9999998999996929
  0
TEXT
  5
100BB
  8
0
 10
-152.997803163752
 20
210.24503542364181
 30
0.0
 40
30.0
  1
P-HANGER(S) 4S
 72
     4
 11
41.002196836247997
 21
223.1021782807847
 31
0.0
  0
ENDSEC
  0
EOF
