  0
SECTION
  2
HEADER
  9
$ACADVER
  1
AC1009
  9
$INSBASE
 10
0.0
 20
0.0
 30
0.0
  9
$EXTMIN
 10
-168.71208887803729
 20
-60.012312000000058
 30
0.0
  9
$EXTMAX
 10
250.71648255053401
 20
223.26244209987891
 30
0.0
  9
$LIMMIN
 10
0.0
 20
0.0
  9
$LIMMAX
 10
420.0
 20
297.0
  9
$ORTHOMODE
 70
     0
  9
$REGENMODE
 70
     1
  9
$FILLMODE
 70
     1
  9
$QTEXTMODE
 70
     0
  9
$MIRRTEXT
 70
     1
  9
$DRAGMODE
 70
     2
  9
$LTSCALE
 40
1.0
  9
$OSMODE
 70
    37
  9
$ATTMODE
 70
     1
  9
$TEXTSIZE
 40
73.985717453579113
  9
$TRACEWID
 40
1.0
  9
$TEXTSTYLE
  7
STANDARD
  9
$CLAYER
  8
0
  9
$CELTYPE
  6
BYLAYER
  9
$CECOLOR
 62
   256
  9
$DIMSCALE
 40
1.0
  9
$DIMASZ
 40
0.18
  9
$DIMEXO
 40
0.0625
  9
$DIMDLI
 40
0.38
  9
$DIMRND
 40
0.0
  9
$DIMDLE
 40
0.0
  9
$DIMEXE
 40
0.18
  9
$DIMTP
 40
0.0
  9
$DIMTM
 40
0.0
  9
$DIMTXT
 40
0.18
  9
$DIMCEN
 40
0.09
  9
$DIMTSZ
 40
0.0
  9
$DIMTOL
 70
     0
  9
$DIMLIM
 70
     0
  9
$DIMTIH
 70
     1
  9
$DIMTOH
 70
     1
  9
$DIMSE1
 70
     0
  9
$DIMSE2
 70
     0
  9
$DIMTAD
 70
     0
  9
$DIMZIN
 70
     0
  9
$DIMBLK
  1

  9
$DIMASO
 70
     1
  9
$DIMSHO
 70
     1
  9
$DIMPOST
  1

  9
$DIMAPOST
  1

  9
$DIMALT
 70
     0
  9
$DIMALTD
 70
     2
  9
$DIMALTF
 40
25.399999999999999
  9
$DIMLFAC
 40
1.0
  9
$DIMTOFL
 70
     0
  9
$DIMTVP
 40
0.0
  9
$DIMTIX
 70
     0
  9
$DIMSOXD
 70
     0
  9
$DIMSAH
 70
     0
  9
$DIMBLK1
  1

  9
$DIMBLK2
  1

  9
$DIMSTYLE
  2
STANDARD
  9
$DIMCLRD
 70
     0
  9
$DIMCLRE
 70
     0
  9
$DIMCLRT
 70
     0
  9
$DIMTFAC
 40
1.0
  9
$DIMGAP
 40
0.09
  9
$LUNITS
 70
     2
  9
$LUPREC
 70
     8
  9
$SKETCHINC
 40
1.0
  9
$FILLETRAD
 40
0.0
  9
$AUNITS
 70
     0
  9
$AUPREC
 70
     8
  9
$MENU
  1
.
  9
$ELEVATION
 40
0.0
  9
$PELEVATION
 40
0.0
  9
$THICKNESS
 40
0.0
  9
$LIMCHECK
 70
     0
  9
$BLIPMODE
 70
     0
  9
$CHAMFERA
 40
2.5
  9
$CHAMFERB
 40
2.5
  9
$SKPOLY
 70
     0
  9
$TDCREATE
 40
2454749.4701119331
  9
$TDUPDATE
 40
2454749.7564326501
  9
$TDINDWG
 40
0.1760442014
  9
$TDUSRTIMER
 40
0.176043669
  9
$USRTIMER
 70
     1
  9
$ANGBASE
 50
0.0
  9
$ANGDIR
 70
     1
  9
$PDMODE
 70
     0
  9
$PDSIZE
 40
0.0
  9
$PLINEWID
 40
0.0
  9
$COORDS
 70
     1
  9
$SPLFRAME
 70
     0
  9
$SPLINETYPE
 70
     6
  9
$SPLINESEGS
 70
     8
  9
$ATTDIA
 70
     0
  9
$ATTREQ
 70
     1
  9
$HANDLING
 70
 22529
  9
$HANDSEED
  5
10CC7
  9
$SURFTAB1
 70
     6
  9
$SURFTAB2
 70
     6
  9
$SURFTYPE
 70
     6
  9
$SURFU
 70
     6
  9
$SURFV
 70
     6
  9
$UCSNAME
  2

  9
$UCSORG
 10
0.0
 20
0.0
 30
0.0
  9
$UCSXDIR
 10
1.0
 20
0.0
 30
0.0
  9
$UCSYDIR
 10
0.0
 20
1.0
 30
0.0
  9
$PUCSNAME
  2

  9
$PUCSORG
 10
0.0
 20
0.0
 30
0.0
  9
$PUCSXDIR
 10
1.0
 20
0.0
 30
0.0
  9
$PUCSYDIR
 10
0.0
 20
1.0
 30
0.0
  9
$USERI1
 70
     0
  9
$USERI2
 70
     0
  9
$USERI3
 70
     0
  9
$USERI4
 70
     0
  9
$USERI5
 70
     0
  9
$USERR1
 40
0.0
  9
$USERR2
 40
0.0
  9
$USERR3
 40
0.0
  9
$USERR4
 40
0.0
  9
$USERR5
 40
0.0
  9
$WORLDVIEW
 70
     1
  9
$SHADEDGE
 70
     3
  9
$SHADEDIF
 70
    70
  9
$TILEMODE
 70
     1
  9
$MAXACTVP
 70
    48
  9
$PLIMCHECK
 70
     0
  9
$PEXTMIN
 10
1.0000000000000000E+020
 20
1.0000000000000000E+020
 30
1.0000000000000000E+020
  9
$PEXTMAX
 10
-1.0000000000000000E+020
 20
-1.0000000000000000E+020
 30
-1.0000000000000000E+020
  9
$PLIMMIN
 10
0.0
 20
0.0
  9
$PLIMMAX
 10
420.0
 20
297.0
  9
$UNITMODE
 70
     0
  9
$VISRETAIN
 70
     1
  9
$PLINEGEN
 70
     0
  9
$PSLTSCALE
 70
     1
  0
ENDSEC
  0
SECTION
  2
TABLES
  0
TABLE
  2
VPORT
 70
     2
  0
VPORT
  2
*ACTIVE
 70
     0
 10
0.0
 20
0.0
 11
1.0
 21
1.0
 12
41.001322899837866
 22
81.627377175706044
 13
0.0
 23
0.0
 14
2.5
 24
2.5
 15
10.0
 25
10.0
 16
0.0
 26
0.0
 36
1.0
 17
0.0
 27
0.0
 37
0.0
 40
285.52890774150359
 41
1.531806615776081
 42
50.0
 43
0.0
 44
0.0
 50
0.0
 51
0.0
 71
     0
 72
   100
 73
     1
 74
     3
 75
     0
 76
     0
 77
     0
 78
     0
  0
ENDTAB
  0
TABLE
  2
LTYPE
 70
     2
  0
LTYPE
  2
CONTINUOUS
 70
     0
  3
Solid line
 72
    65
 73
     0
 40
0.0
  0
LTYPE
  2
CENTER
 70
     0
  3
__ . __
 72
    65
 73
     4
 40
7.0
 49
4.0
 49
-1.0
 49
1.0
 49
-1.0
  0
ENDTAB
  0
TABLE
  2
LAYER
 70
     1
  0
LAYER
  2
0
 70
     0
 62
     7
  6
CONTINUOUS
  0
ENDTAB
  0
TABLE
  2
STYLE
 70
     2
  0
STYLE
  2
STANDARD
 70
     0
 40
0.0
 41
0.7
 50
0.0
 71
     0
 42
73.985717453579113
  3
romans.shx
  4
bigfont.shx
  0
STYLE
  2
TSKDIM
 70
     0
 40
0.0
 41
0.75
 50
0.0
 71
     0
 42
4.0
  3
romans.shx
  4
EXTFONT.SHX
  0
ENDTAB
  0
TABLE
  2
VIEW
 70
     0
  0
ENDTAB
  0
TABLE
  2
UCS
 70
     0
  0
ENDTAB
  0
TABLE
  2
APPID
 70
    43
  0
APPID
  2
ACAD
 70
     0
  0
APPID
  2
MCAD_NO_VIS
 70
     0
  0
APPID
  2
ACAD_TEMP_GRAPHIC
 70
     0
  0
APPID
  2
ACATTRIBSERVICES
 70
     0
  0
APPID
  2
AD_DRAW
 70
     0
  0
APPID
  2
DESIGNERASSEMBLIES
 70
     0
  0
APPID
  2
ASURF_PCURVE_APPNAME
 70
     0
  0
APPID
  2
ACADM_DIM_EDIT
 70
     0
  0
APPID
  2
GENIUS_GENDIM_13
 70
     0
  0
APPID
  2
GENIUS_GENDTOL_13
 70
     0
  0
APPID
  2
GENIUS_GE3DTOL_13
 70
     0
  0
APPID
  2
AMG_3D2D_5_0
 70
     0
  0
APPID
  2
AMDT_DM_ADJ
 70
     0
  0
APPID
  2
CK_MATE-SERIES
 70
     0
  0
APPID
  2
GEVID1042077799
 70
     0
  0
APPID
  2
GEVMK
 70
     0
  0
APPID
  2
GEVDC
 70
     0
  0
APPID
  2
GENIUS_GENBH_13
 70
     0
  0
APPID
  2
GENIUS_GENOLIS_13
 70
     0
  0
APPID
  2
GENIUS_GENOENT_13
 70
     0
  0
APPID
  2
GENIUS_GENODEF_13
 70
     0
  0
APPID
  2
GENIUS_GENOBJ-NBEHI-BHF_13
 70
     0
  0
APPID
  2
GENIUS_GENOREF_13
 70
     0
  0
APPID
  2
GENIUS_GENOBJ-NBEHI-BHB_13
 70
     0
  0
APPID
  2
GEVID1042183772
 70
     0
  0
APPID
  2
GEVID1042183773
 70
     0
  0
APPID
  2
GEVID1042183774
 70
     0
  0
APPID
  2
DCO15
 70
     0
  0
APPID
  2
ACAD_DSTYLE_DIMARC_LENGTH_
 70
     0
  0
APPID
  2
ACAD_DSTYLE_DIMJOGGED_JOGA
 70
     0
  0
APPID
  2
ACAD_MLEADERVER
 70
     0
  0
APPID
  2
ACAD_DSTYLE_DIMJAG
 70
     0
  0
APPID
  2
ACAD_DSTYLE_DIMTALN
 70
     0
  0
APPID
  2
ACAD_PSEXT
 70
     0
  0
APPID
  2
ACAD_EXEMPT_FROM_CAD_STANDARDS
 70
     0
  0
APPID
  2
ACAECLAYERSTANDARD
 70
     0
  0
APPID
  2
ACAD_DSTYLE_DIMINSPECT
 70
     0
  0
APPID
  2
ACAD_DSTYLE_DIM_LINETYPE
 70
     0
  0
APPID
  2
ACAD_DSTYLE_DIM_EXT1_LINETYPE
 70
     0
  0
APPID
  2
ACAD_DSTYLE_DIM_EXT2_LINETYPE
 70
     0
  0
APPID
  2
ACADANNOTATIVE
 70
     0
  0
APPID
  2
ACAD_DSTYLE_DIMANGULAR_EXT
 70
     0
  0
APPID
  2
GENIUS_GENOBJ-N-FIL_13
 70
     0
  0
ENDTAB
  0
TABLE
  2
DIMSTYLE
 70
     1
  0
DIMSTYLE
  2
STANDARD
 70
     0
  3

  4

  5

  6

  7

 40
1.0
 41
0.18
 42
0.0625
 43
0.38
 44
0.18
 45
0.0
 46
0.0
 47
0.0
 48
0.0
140
0.18
141
0.09
142
0.0
143
25.399999999999999
144
1.0
145
0.0
146
1.0
147
0.09
 71
     0
 72
     0
 73
     1
 74
     1
 75
     0
 76
     0
 77
     0
 78
     0
170
     0
171
     2
172
     0
173
     0
174
     0
175
     0
176
     0
177
     0
178
     0
  0
ENDTAB
  0
ENDSEC
  0
SECTION
  2
BLOCKS
  0
BLOCK
  8
0
  2
$MODEL_SPACE
 70
     0
 10
0.0
 20
0.0
 30
0.0
  3
$MODEL_SPACE
  1

  0
ENDBLK
  5
21
  8
0
  0
BLOCK
 67
     1
  8
0
  2
$PAPER_SPACE
 70
     0
 10
0.0
 20
0.0
 30
0.0
  3
$PAPER_SPACE
  1

  0
ENDBLK
  5
1D
 67
     1
  8
0
  0
BLOCK
  8
0
  2
_OPEN
 70
     0
 10
0.0
 20
0.0
 30
0.0
  3
_OPEN
  1

  0
LINE
  5
15A
  8
0
  6
BYBLOCK
 62
     0
 10
-1.0
 20
0.1666666666666666
 30
0.0
 11
0.0
 21
0.0
 31
0.0
  0
LINE
  5
15B
  8
0
  6
BYBLOCK
 62
     0
 10
-1.0
 20
-0.1666666666666666
 30
0.0
 11
0.0
 21
0.0
 31
0.0
  0
LINE
  5
15C
  8
0
  6
BYBLOCK
 62
     0
 10
0.0
 20
0.0
 30
0.0
 11
-1.0
 21
0.0
 31
0.0
  0
ENDBLK
  5
15E
  8
0
  0
ENDSEC
  0
SECTION
  2
ENTITIES
  0
LINE
  5
1262
  8
0
  6
CENTER
 10
54.096919999999493
 20
0.0
 30
0.0
 11
-52.019620000000032
 21
0.0
 31
0.0
  0
LINE
  5
1263
  8
0
 10
-12.0
 20
-35.40000300000019
 30
0.0
 11
11.99999999999954
 21
-35.40000300000019
 31
0.0
  0
LINE
  5
1266
  8
0
 10
-13.000000000000449
 20
-31.416556144809871
 30
0.0
 11
-13.0
 21
-34.40000300000019
 31
0.0
  0
LINE
  5
1267
  8
0
 10
12.99999999999954
 20
-31.416556144810102
 30
0.0
 11
12.99999999999954
 21
-34.40000300000019
 31
0.0
  0
LINE
  5
126B
  8
0
 10
52.499999999999538
 20
4.5
 30
0.0
 11
52.499999999999538
 21
-10.0
 31
0.0
  0
LINE
  5
126C
  8
0
 10
36.055509999999678
 20
-6.0
 30
0.0
 11
39.499999999999538
 21
-6.0
 31
0.0
  0
LINE
  5
126D
  8
0
  6
CENTER
 10
-44.00000999999974
 20
-13.080000000000149
 30
0.0
 11
-44.0
 21
11.826713000000151
 31
0.0
  0
LINE
  5
126E
  8
0
 10
39.499999999999538
 20
4.5
 30
0.0
 11
39.499999999999538
 21
-8.0
 31
0.0
  0
LINE
  5
126F
  8
0
 10
40.999999999999538
 20
6.0000099999999739
 30
0.0
 11
50.999999999999552
 21
6.0000099999999739
 31
0.0
  0
LINE
  5
1270
  8
0
 10
-38.000009999999747
 20
-6.0
 30
0.0
 11
-36.05553000000009
 21
-6.0
 31
0.0
  0
LINE
  5
1288
  8
0
  6
CENTER
 10
0.0
 20
-60.012312000000058
 30
0.0
 11
0.0
 21
37.821427999999969
 31
0.0
  0
LINE
  5
128B
  8
0
 10
-50.000009999999747
 20
-10.0
 30
0.0
 11
-50.0
 21
10.5
 31
0.0
  0
LINE
  5
128C
  8
0
 10
-38.000009999999747
 20
-8.0
 30
0.0
 11
-38.0
 21
8.5
 31
0.0
  0
LINE
  5
1296
  8
0
 10
-11.0
 20
-56.400003000000197
 30
0.0
 11
10.99999999999954
 21
-56.400003000000197
 31
0.0
  0
LINE
  5
129C
  8
0
 10
10.99999999999954
 20
-35.40000300000019
 30
0.0
 11
10.99999999999954
 21
-56.400003000000197
 31
0.0
  0
LINE
  5
129D
  8
0
 10
-11.0
 20
-35.40000300000019
 30
0.0
 11
-11.0
 21
-56.400003000000197
 31
0.0
  0
LINE
  5
12DB
  8
0
  6
CENTER
 10
45.999999999999538
 20
-12.039160000000029
 30
0.0
 11
45.999999999999538
 21
29.469209999999968
 31
0.0
  0
LINE
  5
12DC
  8
0
 10
36.055509999999678
 20
-8.0
 30
0.0
 11
52.499999999999538
 21
-8.0
 31
0.0
  0
LINE
  5
12DD
  8
0
 10
36.055509999999678
 20
-10.0
 30
0.0
 11
52.499999999999538
 21
-10.0
 31
0.0
  0
LINE
  5
12DE
  8
0
 10
-50.000009999999747
 20
-8.0
 30
0.0
 11
-36.05553000000009
 21
-8.0
 31
0.0
  0
LINE
  5
12DF
  8
0
 10
-50.000009999999747
 20
-10.0
 30
0.0
 11
-36.05553000000009
 21
-10.0
 31
0.0
  0
ARC
  5
12E7
  8
0
 10
-12.0
 20
-34.40000300000019
 30
0.0
 40
1.0
 50
179.99998999999889
 51
270.0
  0
ARC
  5
12E8
  8
0
 10
11.99999999999954
 20
-34.40000300000019
 30
0.0
 40
1.0
 50
270.0
 51
0.0
  0
ARC
  5
12FD
  8
0
 10
0.0
 20
0.0
 30
0.0
 40
36.0
 50
198.4084699999998
 51
248.83154999998939
  0
ARC
  5
12FE
  8
0
 10
0.0
 20
0.0
 30
0.0
 40
34.0
 50
198.4084699999998
 51
341.5915199999979
  0
ARC
  5
12FF
  8
0
 10
0.0
 20
0.0
 30
0.0
 40
32.0
 50
198.4084699999998
 51
341.5915199999979
  0
ARC
  5
1301
  8
0
 10
0.0
 20
0.0
 30
0.0
 40
36.0
 50
291.16845000001058
 51
341.5915199999979
  0
ARC
  5
1302
  8
0
 10
36.055509999999678
 20
-12.0
 30
0.0
 40
2.0
 50
90.000003000010722
 51
161.59153000000009
  0
ARC
  5
1303
  8
0
 10
36.055509999999678
 20
-12.0
 30
0.0
 40
4.0
 50
90.000003000010722
 51
161.59153000000009
  0
ARC
  5
1304
  8
0
 10
36.055509999999678
 20
-12.0
 30
0.0
 40
6.0
 50
90.000003000010722
 51
161.59153000000009
  0
ARC
  5
1305
  8
0
 10
-36.05553000000009
 20
-12.0
 30
0.0
 40
6.0
 50
18.408480000002029
 51
90.000003000010722
  0
ARC
  5
1306
  8
0
 10
-36.05553000000009
 20
-12.0
 30
0.0
 40
4.0
 50
18.408480000002029
 51
90.000003000010722
  0
ARC
  5
1307
  8
0
 10
-36.05553000000009
 20
-12.0
 30
0.0
 40
2.0
 50
18.408480000002029
 51
90.000003000010722
  0
ARC
  5
1308
  8
0
 10
40.999999999999538
 20
4.5
 30
0.0
 40
1.5
 50
90.000003000010722
 51
180.000010000001
  0
ARC
  5
1309
  8
0
 10
50.999999999999552
 20
4.5
 30
0.0
 40
1.5
 50
0.0
 51
90.000003000010722
  0
LINE
  5
3840
  8
0
  6
CENTER
 10
0.0
 20
113.2651340459153
 30
0.0
 11
0.0
 21
79.473794045915156
 31
0.0
  0
LINE
  5
3843
  8
0
 10
34.113789999998971
 20
7.5
 30
0.0
 11
54.999999999999538
 21
7.5
 31
0.0
  0
LINE
  5
3844
  8
0
  6
CENTER
 10
-53.516540000000532
 20
96.662154045915244
 30
0.0
 11
57.446519999999062
 21
96.662154045915244
 31
0.0
  0
LINE
  5
3845
  8
0
 10
-31.934720000000191
 20
81.662154045915244
 30
0.0
 11
54.999999999999538
 21
81.662154045915244
 31
0.0
  0
LINE
  5
3846
  8
0
 10
-31.934720000000191
 20
111.6621540459152
 30
0.0
 11
54.999999999999538
 21
111.6621540459152
 31
0.0
  0
LINE
  5
3847
  8
0
 10
54.999999999999538
 20
111.6621540459152
 30
0.0
 11
54.999999999999538
 21
100.9121540459152
 31
0.0
  0
LINE
  5
3848
  8
0
 10
51.562153647646021
 20
100.9121540459152
 30
0.0
 11
54.999999999999538
 21
100.9121540459152
 31
0.0
  0
LINE
  5
3849
  8
0
 10
51.562153647646021
 20
92.412154045915258
 30
0.0
 11
54.999999999999538
 21
92.412154045915258
 31
0.0
  0
LINE
  5
384A
  8
0
 10
54.999999999999538
 20
92.412154045915258
 30
0.0
 11
54.999999999999538
 21
81.662154045915244
 31
0.0
  0
LINE
  5
384B
  8
0
 10
-50.0
 20
111.1621540459152
 30
0.0
 11
-50.0
 21
82.162154045915258
 31
0.0
  0
LINE
  5
384C
  8
0
 10
-50.0
 20
82.162154045915258
 30
0.0
 11
-38.0
 21
82.162154045915258
 31
0.0
  0
LINE
  5
384D
  8
0
 10
-38.0
 20
6.5
 30
0.0
 11
-34.434720000000191
 21
6.5
 31
0.0
  0
LINE
  5
3851
  8
0
 10
-34.468520000000353
 20
102.57885404591519
 30
0.0
 11
-34.468520000000353
 21
90.583514045915308
 31
0.0
  0
LINE
  5
3854
  8
0
 10
-50.0
 20
104.1621540459152
 30
0.0
 11
54.999999999999538
 21
104.1621540459152
 31
0.0
  0
LINE
  5
3855
  8
0
 10
-50.0
 20
89.162154045915244
 30
0.0
 11
54.999999999999538
 21
89.162154045915244
 31
0.0
  0
LINE
  5
3857
  8
0
 10
-50.0
 20
8.5
 30
0.0
 11
-34.434720000000191
 21
8.5
 31
0.0
  0
LINE
  5
3858
  8
0
 10
-50.0
 20
10.5
 30
0.0
 11
-35.885240000000522
 21
10.5
 31
0.0
  0
LINE
  5
3859
  8
0
 10
34.113789999998971
 20
9.5
 30
0.0
 11
54.999999999999538
 21
9.5
 31
0.0
  0
LINE
  5
385A
  8
0
 10
35.521119999998973
 20
11.5
 30
0.0
 11
54.999999999999538
 21
11.5
 31
0.0
  0
LINE
  5
385B
  8
0
 10
-34.434720000000191
 20
109.1621540459152
 30
0.0
 11
-31.934720000000191
 21
111.6621540459152
 31
0.0
  0
LINE
  5
385C
  8
0
 10
-34.434720000000191
 20
84.162154045915244
 30
0.0
 11
-31.934720000000191
 21
81.662164045915233
 31
0.0
  0
LINE
  5
385D
  8
0
 10
-32.467150000000402
 20
110.2041040459152
 30
0.0
 11
-32.467150000000402
 21
105.2541040459152
 31
0.0
  0
LINE
  5
385E
  8
0
 10
-32.467150000000402
 20
88.300214045915254
 30
0.0
 11
-32.467150000000402
 21
83.391554045915214
 31
0.0
  0
LINE
  5
385F
  8
0
 10
32.46714999999994
 20
110.2041040459152
 30
0.0
 11
32.46714999999994
 21
105.2541040459152
 31
0.0
  0
LINE
  5
3860
  8
0
 10
34.468519999999899
 20
102.57885404591519
 30
0.0
 11
34.468519999998982
 21
98.912154045915045
 31
0.0
  0
LINE
  5
3861
  8
0
 10
32.46714999999994
 20
88.300214045915254
 30
0.0
 11
32.46714999999994
 21
83.391554045915214
 31
0.0
  0
LINE
  5
3863
  8
0
 10
54.999999999999538
 20
11.5
 30
0.0
 11
54.999999999999538
 21
7.5
 31
0.0
  0
LINE
  5
3866
  8
0
 10
-38.0
 20
84.162154045915244
 30
0.0
 11
-34.434720000000191
 21
84.162154045915244
 31
0.0
  0
LINE
  5
3867
  8
0
 10
-38.0
 20
109.1621540459152
 30
0.0
 11
-34.434720000000191
 21
109.1621540459152
 31
0.0
  0
LINE
  5
386B
  8
0
 10
-38.0
 20
84.162154045915244
 30
0.0
 11
-38.0
 21
82.162154045915258
 31
0.0
  0
LINE
  5
386E
  8
0
 10
-50.0
 20
111.1621540459152
 30
0.0
 11
-38.0
 21
111.1621540459152
 31
0.0
  0
LINE
  5
386F
  8
0
  6
CENTER
 10
-44.0
 20
80.795734045915196
 30
0.0
 11
-44.0
 21
112.5285840459153
 31
0.0
  0
LINE
  5
3871
  8
0
 10
-38.0
 20
109.1621540459152
 30
0.0
 11
-38.0
 21
111.1621540459152
 31
0.0
  0
ARC
  5
3873
  8
0
 10
-44.0
 20
0.0
 30
0.0
 40
6.0
 50
179.99998999999889
 51
0.0
  0
ARC
  5
3875
  8
0
 10
0.0
 20
0.0
 30
0.0
 40
32.0
 50
18.629330999982731
 51
163.0422300000038
  0
ARC
  5
3876
  8
0
 10
0.0
 20
0.0
 30
0.0
 40
34.0
 50
18.629330999982731
 51
163.0422300000038
  0
ARC
  5
3877
  8
0
 10
0.0
 20
0.0
 30
0.0
 40
36.0
 50
20.80957299999908
 51
160.7950999999909
  0
ARC
  5
3878
  8
0
 10
-34.434720000000191
 20
10.5
 30
0.0
 40
4.0
 50
270.0
 51
343.04224000000312
  0
ARC
  5
3879
  8
0
 10
-34.434720000000191
 20
10.5
 30
0.0
 40
2.0
 50
270.0
 51
343.04224000000312
  0
ARC
  5
387A
  8
0
 10
-35.885240000000522
 20
12.5
 30
0.0
 40
2.0
 50
270.0
 51
340.7950999999909
  0
ARC
  5
387B
  8
0
 10
34.113789999998971
 20
11.5
 30
0.0
 40
4.0
 50
198.62933999999709
 51
270.0
  0
ARC
  5
387C
  8
0
 10
34.113789999998971
 20
11.5
 30
0.0
 40
2.0
 50
198.62933999999709
 51
270.0
  0
ARC
  5
387D
  8
0
 10
35.521119999998973
 20
13.5
 30
0.0
 40
2.0
 50
200.80957000000211
 51
270.0
  0
LINE
  5
F800
  8
0
 10
51.499999999999552
 20
17.5
 30
0.0
 11
40.499999999999538
 21
17.5
 31
0.0
  0
LINE
  5
F801
  8
0
 10
51.500043999999889
 20
17.500019999999939
 30
0.0
 11
53.000045000000227
 21
11.50001999999995
 31
0.0
  0
LINE
  5
F802
  8
0
 10
55.328972999999223
 20
26.02635000000009
 30
0.0
 11
60.765666999999212
 21
22.919669999999989
 31
0.0
  0
LINE
  5
F803
  8
0
 10
49.999999999999538
 20
26.72545000000013
 30
0.0
 11
49.999999999999538
 21
17.5
 31
0.0
  0
LINE
  5
F804
  8
0
 10
49.999999999999538
 20
7.5000000000002274
 30
0.0
 11
49.999999999999538
 21
6.0000099999999739
 31
0.0
  0
LINE
  5
F805
  8
0
 10
48.999999999999552
 20
27.72545000000013
 30
0.0
 11
42.999999999999538
 21
27.72545000000013
 31
0.0
  0
LINE
  5
F806
  8
0
 10
49.000035999999
 20
27.725490000000029
 30
0.0
 11
50.000036999999331
 21
26.725490000000029
 31
0.0
  0
ARC
  5
F807
  8
0
 10
54.832518999999131
 20
25.157570000000071
 30
0.0
 40
1.0
 50
60.255116000012798
 51
149.14714999999811
  0
ARC
  5
F808
  8
0
 10
60.26953900000035
 20
22.05146000000013
 30
0.0
 40
1.0
 50
338.7236600000021
 51
60.255116000012798
  0
POLYLINE
  8
0
  5
10533
  66
     1
 10
0.000000
 20
0.000000
 30
0.000000
  70
     8
  0
VERTEX
  8
0
  5
10534
 10
51.5000
 20
17.5000
 30
0.000000
  70
    32
  0
VERTEX
  8
0
  5
10535
 10
51.5016
 20
17.5300
 30
0.000000
  70
    32
  0
VERTEX
  8
0
  5
10536
 10
51.5032
 20
17.5600
 30
0.000000
  70
    32
  0
VERTEX
  8
0
  5
10537
 10
51.5049
 20
17.5900
 30
0.000000
  70
    32
  0
VERTEX
  8
0
  5
10538
 10
51.5066
 20
17.6200
 30
0.000000
  70
    32
  0
VERTEX
  8
0
  5
10539
 10
51.5084
 20
17.6500
 30
0.000000
  70
    32
  0
VERTEX
  8
0
  5
1053A
 10
51.5102
 20
17.6800
 30
0.000000
  70
    32
  0
VERTEX
  8
0
  5
1053B
 10
51.5121
 20
17.7100
 30
0.000000
  70
    32
  0
VERTEX
  8
0
  5
1053C
 10
51.5140
 20
17.7399
 30
0.000000
  70
    32
  0
VERTEX
  8
0
  5
1053D
 10
51.5160
 20
17.7699
 30
0.000000
  70
    32
  0
VERTEX
  8
0
  5
1053E
 10
51.5180
 20
17.7999
 30
0.000000
  70
    32
  0
VERTEX
  8
0
  5
1053F
 10
51.5200
 20
17.8299
 30
0.000000
  70
    32
  0
VERTEX
  8
0
  5
10540
 10
51.5221
 20
17.8598
 30
0.000000
  70
    32
  0
VERTEX
  8
0
  5
10541
 10
51.5243
 20
17.8898
 30
0.000000
  70
    32
  0
VERTEX
  8
0
  5
10542
 10
51.5265
 20
17.9198
 30
0.000000
  70
    32
  0
VERTEX
  8
0
  5
10543
 10
51.5288
 20
17.9497
 30
0.000000
  70
    32
  0
VERTEX
  8
0
  5
10544
 10
51.5311
 20
17.9797
 30
0.000000
  70
    32
  0
VERTEX
  8
0
  5
10545
 10
51.5334
 20
18.0096
 30
0.000000
  70
    32
  0
VERTEX
  8
0
  5
10546
 10
51.5358
 20
18.0396
 30
0.000000
  70
    32
  0
VERTEX
  8
0
  5
10547
 10
51.5383
 20
18.0695
 30
0.000000
  70
    32
  0
VERTEX
  8
0
  5
10548
 10
51.5408
 20
18.0995
 30
0.000000
  70
    32
  0
VERTEX
  8
0
  5
10549
 10
51.5433
 20
18.1294
 30
0.000000
  70
    32
  0
VERTEX
  8
0
  5
1054A
 10
51.5459
 20
18.1594
 30
0.000000
  70
    32
  0
VERTEX
  8
0
  5
1054B
 10
51.5486
 20
18.1893
 30
0.000000
  70
    32
  0
VERTEX
  8
0
  5
1054C
 10
51.5513
 20
18.2192
 30
0.000000
  70
    32
  0
VERTEX
  8
0
  5
1054D
 10
51.5540
 20
18.2492
 30
0.000000
  70
    32
  0
VERTEX
  8
0
  5
1054E
 10
51.5568
 20
18.2791
 30
0.000000
  70
    32
  0
VERTEX
  8
0
  5
1054F
 10
51.5597
 20
18.3090
 30
0.000000
  70
    32
  0
VERTEX
  8
0
  5
10550
 10
51.5625
 20
18.3389
 30
0.000000
  70
    32
  0
VERTEX
  8
0
  5
10551
 10
51.5655
 20
18.3688
 30
0.000000
  70
    32
  0
VERTEX
  8
0
  5
10552
 10
51.5685
 20
18.3987
 30
0.000000
  70
    32
  0
VERTEX
  8
0
  5
10553
 10
51.5715
 20
18.4286
 30
0.000000
  70
    32
  0
VERTEX
  8
0
  5
10554
 10
51.5746
 20
18.4585
 30
0.000000
  70
    32
  0
VERTEX
  8
0
  5
10555
 10
51.5777
 20
18.4884
 30
0.000000
  70
    32
  0
VERTEX
  8
0
  5
10556
 10
51.5809
 20
18.5183
 30
0.000000
  70
    32
  0
VERTEX
  8
0
  5
10557
 10
51.5842
 20
18.5481
 30
0.000000
  70
    32
  0
VERTEX
  8
0
  5
10558
 10
51.5874
 20
18.5780
 30
0.000000
  70
    32
  0
VERTEX
  8
0
  5
10559
 10
51.5908
 20
18.6079
 30
0.000000
  70
    32
  0
VERTEX
  8
0
  5
1055A
 10
51.5941
 20
18.6377
 30
0.000000
  70
    32
  0
VERTEX
  8
0
  5
1055B
 10
51.5976
 20
18.6676
 30
0.000000
  70
    32
  0
VERTEX
  8
0
  5
1055C
 10
51.6010
 20
18.6974
 30
0.000000
  70
    32
  0
VERTEX
  8
0
  5
1055D
 10
51.6046
 20
18.7273
 30
0.000000
  70
    32
  0
VERTEX
  8
0
  5
1055E
 10
51.6081
 20
18.7571
 30
0.000000
  70
    32
  0
VERTEX
  8
0
  5
1055F
 10
51.6118
 20
18.7870
 30
0.000000
  70
    32
  0
VERTEX
  8
0
  5
10560
 10
51.6154
 20
18.8168
 30
0.000000
  70
    32
  0
VERTEX
  8
0
  5
10561
 10
51.6192
 20
18.8466
 30
0.000000
  70
    32
  0
VERTEX
  8
0
  5
10562
 10
51.6229
 20
18.8764
 30
0.000000
  70
    32
  0
VERTEX
  8
0
  5
10563
 10
51.6268
 20
18.9062
 30
0.000000
  70
    32
  0
VERTEX
  8
0
  5
10564
 10
51.6306
 20
18.9360
 30
0.000000
  70
    32
  0
VERTEX
  8
0
  5
10565
 10
51.6345
 20
18.9658
 30
0.000000
  70
    32
  0
VERTEX
  8
0
  5
10566
 10
51.6385
 20
18.9956
 30
0.000000
  70
    32
  0
VERTEX
  8
0
  5
10567
 10
51.6425
 20
19.0254
 30
0.000000
  70
    32
  0
VERTEX
  8
0
  5
10568
 10
51.6466
 20
19.0552
 30
0.000000
  70
    32
  0
VERTEX
  8
0
  5
10569
 10
51.6507
 20
19.0849
 30
0.000000
  70
    32
  0
VERTEX
  8
0
  5
1056A
 10
51.6549
 20
19.1147
 30
0.000000
  70
    32
  0
VERTEX
  8
0
  5
1056B
 10
51.6591
 20
19.1444
 30
0.000000
  70
    32
  0
VERTEX
  8
0
  5
1056C
 10
51.6633
 20
19.1742
 30
0.000000
  70
    32
  0
VERTEX
  8
0
  5
1056D
 10
51.6677
 20
19.2039
 30
0.000000
  70
    32
  0
VERTEX
  8
0
  5
1056E
 10
51.6720
 20
19.2337
 30
0.000000
  70
    32
  0
VERTEX
  8
0
  5
1056F
 10
51.6764
 20
19.2634
 30
0.000000
  70
    32
  0
VERTEX
  8
0
  5
10570
 10
51.6809
 20
19.2931
 30
0.000000
  70
    32
  0
VERTEX
  8
0
  5
10571
 10
51.6854
 20
19.3228
 30
0.000000
  70
    32
  0
VERTEX
  8
0
  5
10572
 10
51.6900
 20
19.3525
 30
0.000000
  70
    32
  0
VERTEX
  8
0
  5
10573
 10
51.6946
 20
19.3822
 30
0.000000
  70
    32
  0
VERTEX
  8
0
  5
10574
 10
51.6992
 20
19.4119
 30
0.000000
  70
    32
  0
VERTEX
  8
0
  5
10575
 10
51.7039
 20
19.4416
 30
0.000000
  70
    32
  0
VERTEX
  8
0
  5
10576
 10
51.7087
 20
19.4712
 30
0.000000
  70
    32
  0
VERTEX
  8
0
  5
10577
 10
51.7135
 20
19.5009
 30
0.000000
  70
    32
  0
VERTEX
  8
0
  5
10578
 10
51.7183
 20
19.5305
 30
0.000000
  70
    32
  0
VERTEX
  8
0
  5
10579
 10
51.7232
 20
19.5602
 30
0.000000
  70
    32
  0
VERTEX
  8
0
  5
1057A
 10
51.7282
 20
19.5898
 30
0.000000
  70
    32
  0
VERTEX
  8
0
  5
1057B
 10
51.7332
 20
19.6195
 30
0.000000
  70
    32
  0
VERTEX
  8
0
  5
1057C
 10
51.7382
 20
19.6491
 30
0.000000
  70
    32
  0
VERTEX
  8
0
  5
1057D
 10
51.7434
 20
19.6787
 30
0.000000
  70
    32
  0
VERTEX
  8
0
  5
1057E
 10
51.7485
 20
19.7083
 30
0.000000
  70
    32
  0
VERTEX
  8
0
  5
1057F
 10
51.7537
 20
19.7379
 30
0.000000
  70
    32
  0
VERTEX
  8
0
  5
10580
 10
51.7590
 20
19.7675
 30
0.000000
  70
    32
  0
VERTEX
  8
0
  5
10581
 10
51.7643
 20
19.7971
 30
0.000000
  70
    32
  0
VERTEX
  8
0
  5
10582
 10
51.7696
 20
19.8266
 30
0.000000
  70
    32
  0
VERTEX
  8
0
  5
10583
 10
51.7750
 20
19.8562
 30
0.000000
  70
    32
  0
VERTEX
  8
0
  5
10584
 10
51.7804
 20
19.8857
 30
0.000000
  70
    32
  0
VERTEX
  8
0
  5
10585
 10
51.7859
 20
19.9153
 30
0.000000
  70
    32
  0
VERTEX
  8
0
  5
10586
 10
51.7915
 20
19.9448
 30
0.000000
  70
    32
  0
VERTEX
  8
0
  5
10587
 10
51.7971
 20
19.9743
 30
0.000000
  70
    32
  0
VERTEX
  8
0
  5
10588
 10
51.8027
 20
20.0038
 30
0.000000
  70
    32
  0
VERTEX
  8
0
  5
10589
 10
51.8084
 20
20.0333
 30
0.000000
  70
    32
  0
VERTEX
  8
0
  5
1058A
 10
51.8142
 20
20.0628
 30
0.000000
  70
    32
  0
VERTEX
  8
0
  5
1058B
 10
51.8200
 20
20.0923
 30
0.000000
  70
    32
  0
VERTEX
  8
0
  5
1058C
 10
51.8258
 20
20.1218
 30
0.000000
  70
    32
  0
VERTEX
  8
0
  5
1058D
 10
51.8317
 20
20.1513
 30
0.000000
  70
    32
  0
VERTEX
  8
0
  5
1058E
 10
51.8377
 20
20.1807
 30
0.000000
  70
    32
  0
VERTEX
  8
0
  5
1058F
 10
51.8437
 20
20.2102
 30
0.000000
  70
    32
  0
VERTEX
  8
0
  5
10590
 10
51.8497
 20
20.2396
 30
0.000000
  70
    32
  0
VERTEX
  8
0
  5
10591
 10
51.8558
 20
20.2690
 30
0.000000
  70
    32
  0
VERTEX
  8
0
  5
10592
 10
51.8619
 20
20.2984
 30
0.000000
  70
    32
  0
VERTEX
  8
0
  5
10593
 10
51.8681
 20
20.3278
 30
0.000000
  70
    32
  0
VERTEX
  8
0
  5
10594
 10
51.8744
 20
20.3572
 30
0.000000
  70
    32
  0
VERTEX
  8
0
  5
10595
 10
51.8807
 20
20.3866
 30
0.000000
  70
    32
  0
VERTEX
  8
0
  5
10596
 10
51.8870
 20
20.4160
 30
0.000000
  70
    32
  0
VERTEX
  8
0
  5
10597
 10
51.8934
 20
20.4453
 30
0.000000
  70
    32
  0
VERTEX
  8
0
  5
10598
 10
51.8999
 20
20.4747
 30
0.000000
  70
    32
  0
VERTEX
  8
0
  5
10599
 10
51.9064
 20
20.5040
 30
0.000000
  70
    32
  0
VERTEX
  8
0
  5
1059A
 10
51.9129
 20
20.5334
 30
0.000000
  70
    32
  0
VERTEX
  8
0
  5
1059B
 10
51.9195
 20
20.5627
 30
0.000000
  70
    32
  0
VERTEX
  8
0
  5
1059C
 10
51.9261
 20
20.5920
 30
0.000000
  70
    32
  0
VERTEX
  8
0
  5
1059D
 10
51.9328
 20
20.6213
 30
0.000000
  70
    32
  0
VERTEX
  8
0
  5
1059E
 10
51.9396
 20
20.6506
 30
0.000000
  70
    32
  0
VERTEX
  8
0
  5
1059F
 10
51.9464
 20
20.6798
 30
0.000000
  70
    32
  0
VERTEX
  8
0
  5
105A0
 10
51.9532
 20
20.7091
 30
0.000000
  70
    32
  0
VERTEX
  8
0
  5
105A1
 10
51.9601
 20
20.7383
 30
0.000000
  70
    32
  0
VERTEX
  8
0
  5
105A2
 10
51.9671
 20
20.7676
 30
0.000000
  70
    32
  0
VERTEX
  8
0
  5
105A3
 10
51.9741
 20
20.7968
 30
0.000000
  70
    32
  0
VERTEX
  8
0
  5
105A4
 10
51.9811
 20
20.8260
 30
0.000000
  70
    32
  0
VERTEX
  8
0
  5
105A5
 10
51.9882
 20
20.8552
 30
0.000000
  70
    32
  0
VERTEX
  8
0
  5
105A6
 10
51.9954
 20
20.8844
 30
0.000000
  70
    32
  0
VERTEX
  8
0
  5
105A7
 10
52.0026
 20
20.9136
 30
0.000000
  70
    32
  0
VERTEX
  8
0
  5
105A8
 10
52.0098
 20
20.9427
 30
0.000000
  70
    32
  0
VERTEX
  8
0
  5
105A9
 10
52.0171
 20
20.9719
 30
0.000000
  70
    32
  0
VERTEX
  8
0
  5
105AA
 10
52.0245
 20
21.0010
 30
0.000000
  70
    32
  0
VERTEX
  8
0
  5
105AB
 10
52.0319
 20
21.0301
 30
0.000000
  70
    32
  0
VERTEX
  8
0
  5
105AC
 10
52.0393
 20
21.0592
 30
0.000000
  70
    32
  0
VERTEX
  8
0
  5
105AD
 10
52.0468
 20
21.0883
 30
0.000000
  70
    32
  0
VERTEX
  8
0
  5
105AE
 10
52.0544
 20
21.1174
 30
0.000000
  70
    32
  0
VERTEX
  8
0
  5
105AF
 10
52.0620
 20
21.1465
 30
0.000000
  70
    32
  0
VERTEX
  8
0
  5
105B0
 10
52.0696
 20
21.1756
 30
0.000000
  70
    32
  0
VERTEX
  8
0
  5
105B1
 10
52.0773
 20
21.2046
 30
0.000000
  70
    32
  0
VERTEX
  8
0
  5
105B2
 10
52.0851
 20
21.2336
 30
0.000000
  70
    32
  0
VERTEX
  8
0
  5
105B3
 10
52.0929
 20
21.2627
 30
0.000000
  70
    32
  0
VERTEX
  8
0
  5
105B4
 10
52.1008
 20
21.2917
 30
0.000000
  70
    32
  0
VERTEX
  8
0
  5
105B5
 10
52.1087
 20
21.3206
 30
0.000000
  70
    32
  0
VERTEX
  8
0
  5
105B6
 10
52.1166
 20
21.3496
 30
0.000000
  70
    32
  0
VERTEX
  8
0
  5
105B7
 10
52.1246
 20
21.3786
 30
0.000000
  70
    32
  0
VERTEX
  8
0
  5
105B8
 10
52.1327
 20
21.4075
 30
0.000000
  70
    32
  0
VERTEX
  8
0
  5
105B9
 10
52.1408
 20
21.4365
 30
0.000000
  70
    32
  0
VERTEX
  8
0
  5
105BA
 10
52.1490
 20
21.4654
 30
0.000000
  70
    32
  0
VERTEX
  8
0
  5
105BB
 10
52.1572
 20
21.4943
 30
0.000000
  70
    32
  0
VERTEX
  8
0
  5
105BC
 10
52.1655
 20
21.5232
 30
0.000000
  70
    32
  0
VERTEX
  8
0
  5
105BD
 10
52.1738
 20
21.5521
 30
0.000000
  70
    32
  0
VERTEX
  8
0
  5
105BE
 10
52.1822
 20
21.5809
 30
0.000000
  70
    32
  0
VERTEX
  8
0
  5
105BF
 10
52.1906
 20
21.6098
 30
0.000000
  70
    32
  0
VERTEX
  8
0
  5
105C0
 10
52.1990
 20
21.6386
 30
0.000000
  70
    32
  0
VERTEX
  8
0
  5
105C1
 10
52.2076
 20
21.6674
 30
0.000000
  70
    32
  0
VERTEX
  8
0
  5
105C2
 10
52.2161
 20
21.6962
 30
0.000000
  70
    32
  0
VERTEX
  8
0
  5
105C3
 10
52.2248
 20
21.7250
 30
0.000000
  70
    32
  0
VERTEX
  8
0
  5
105C4
 10
52.2334
 20
21.7538
 30
0.000000
  70
    32
  0
VERTEX
  8
0
  5
105C5
 10
52.2422
 20
21.7825
 30
0.000000
  70
    32
  0
VERTEX
  8
0
  5
105C6
 10
52.2510
 20
21.8112
 30
0.000000
  70
    32
  0
VERTEX
  8
0
  5
105C7
 10
52.2598
 20
21.8400
 30
0.000000
  70
    32
  0
VERTEX
  8
0
  5
105C8
 10
52.2687
 20
21.8687
 30
0.000000
  70
    32
  0
VERTEX
  8
0
  5
105C9
 10
52.2776
 20
21.8974
 30
0.000000
  70
    32
  0
VERTEX
  8
0
  5
105CA
 10
52.2866
 20
21.9260
 30
0.000000
  70
    32
  0
VERTEX
  8
0
  5
105CB
 10
52.2956
 20
21.9547
 30
0.000000
  70
    32
  0
VERTEX
  8
0
  5
105CC
 10
52.3047
 20
21.9833
 30
0.000000
  70
    32
  0
VERTEX
  8
0
  5
105CD
 10
52.3138
 20
22.0120
 30
0.000000
  70
    32
  0
VERTEX
  8
0
  5
105CE
 10
52.3230
 20
22.0406
 30
0.000000
  70
    32
  0
VERTEX
  8
0
  5
105CF
 10
52.3323
 20
22.0692
 30
0.000000
  70
    32
  0
VERTEX
  8
0
  5
105D0
 10
52.3416
 20
22.0978
 30
0.000000
  70
    32
  0
VERTEX
  8
0
  5
105D1
 10
52.3509
 20
22.1263
 30
0.000000
  70
    32
  0
VERTEX
  8
0
  5
105D2
 10
52.3603
 20
22.1549
 30
0.000000
  70
    32
  0
VERTEX
  8
0
  5
105D3
 10
52.3697
 20
22.1834
 30
0.000000
  70
    32
  0
VERTEX
  8
0
  5
105D4
 10
52.3792
 20
22.2119
 30
0.000000
  70
    32
  0
VERTEX
  8
0
  5
105D5
 10
52.3888
 20
22.2404
 30
0.000000
  70
    32
  0
VERTEX
  8
0
  5
105D6
 10
52.3984
 20
22.2689
 30
0.000000
  70
    32
  0
VERTEX
  8
0
  5
105D7
 10
52.4080
 20
22.2973
 30
0.000000
  70
    32
  0
VERTEX
  8
0
  5
105D8
 10
52.4177
 20
22.3258
 30
0.000000
  70
    32
  0
VERTEX
  8
0
  5
105D9
 10
52.4275
 20
22.3542
 30
0.000000
  70
    32
  0
VERTEX
  8
0
  5
105DA
 10
52.4373
 20
22.3826
 30
0.000000
  70
    32
  0
VERTEX
  8
0
  5
105DB
 10
52.4471
 20
22.4110
 30
0.000000
  70
    32
  0
VERTEX
  8
0
  5
105DC
 10
52.4570
 20
22.4394
 30
0.000000
  70
    32
  0
VERTEX
  8
0
  5
105DD
 10
52.4669
 20
22.4677
 30
0.000000
  70
    32
  0
VERTEX
  8
0
  5
105DE
 10
52.4769
 20
22.4961
 30
0.000000
  70
    32
  0
VERTEX
  8
0
  5
105DF
 10
52.4870
 20
22.5244
 30
0.000000
  70
    32
  0
VERTEX
  8
0
  5
105E0
 10
52.4971
 20
22.5527
 30
0.000000
  70
    32
  0
VERTEX
  8
0
  5
105E1
 10
52.5072
 20
22.5810
 30
0.000000
  70
    32
  0
VERTEX
  8
0
  5
105E2
 10
52.5174
 20
22.6092
 30
0.000000
  70
    32
  0
VERTEX
  8
0
  5
105E3
 10
52.5277
 20
22.6375
 30
0.000000
  70
    32
  0
VERTEX
  8
0
  5
105E4
 10
52.5380
 20
22.6657
 30
0.000000
  70
    32
  0
VERTEX
  8
0
  5
105E5
 10
52.5483
 20
22.6939
 30
0.000000
  70
    32
  0
VERTEX
  8
0
  5
105E6
 10
52.5587
 20
22.7221
 30
0.000000
  70
    32
  0
VERTEX
  8
0
  5
105E7
 10
52.5692
 20
22.7503
 30
0.000000
  70
    32
  0
VERTEX
  8
0
  5
105E8
 10
52.5796
 20
22.7785
 30
0.000000
  70
    32
  0
VERTEX
  8
0
  5
105E9
 10
52.5902
 20
22.8066
 30
0.000000
  70
    32
  0
VERTEX
  8
0
  5
105EA
 10
52.6008
 20
22.8347
 30
0.000000
  70
    32
  0
VERTEX
  8
0
  5
105EB
 10
52.6114
 20
22.8628
 30
0.000000
  70
    32
  0
VERTEX
  8
0
  5
105EC
 10
52.6221
 20
22.8909
 30
0.000000
  70
    32
  0
VERTEX
  8
0
  5
105ED
 10
52.6329
 20
22.9190
 30
0.000000
  70
    32
  0
VERTEX
  8
0
  5
105EE
 10
52.6437
 20
22.9470
 30
0.000000
  70
    32
  0
VERTEX
  8
0
  5
105EF
 10
52.6545
 20
22.9750
 30
0.000000
  70
    32
  0
VERTEX
  8
0
  5
105F0
 10
52.6654
 20
23.0030
 30
0.000000
  70
    32
  0
VERTEX
  8
0
  5
105F1
 10
52.6763
 20
23.0310
 30
0.000000
  70
    32
  0
VERTEX
  8
0
  5
105F2
 10
52.6873
 20
23.0590
 30
0.000000
  70
    32
  0
VERTEX
  8
0
  5
105F3
 10
52.6983
 20
23.0870
 30
0.000000
  70
    32
  0
VERTEX
  8
0
  5
105F4
 10
52.7094
 20
23.1149
 30
0.000000
  70
    32
  0
VERTEX
  8
0
  5
105F5
 10
52.7206
 20
23.1428
 30
0.000000
  70
    32
  0
VERTEX
  8
0
  5
105F6
 10
52.7317
 20
23.1707
 30
0.000000
  70
    32
  0
VERTEX
  8
0
  5
105F7
 10
52.7430
 20
23.1986
 30
0.000000
  70
    32
  0
VERTEX
  8
0
  5
105F8
 10
52.7543
 20
23.2264
 30
0.000000
  70
    32
  0
VERTEX
  8
0
  5
105F9
 10
52.7656
 20
23.2542
 30
0.000000
  70
    32
  0
VERTEX
  8
0
  5
105FA
 10
52.7770
 20
23.2820
 30
0.000000
  70
    32
  0
VERTEX
  8
0
  5
105FB
 10
52.7884
 20
23.3098
 30
0.000000
  70
    32
  0
VERTEX
  8
0
  5
105FC
 10
52.7999
 20
23.3376
 30
0.000000
  70
    32
  0
VERTEX
  8
0
  5
105FD
 10
52.8114
 20
23.3654
 30
0.000000
  70
    32
  0
VERTEX
  8
0
  5
105FE
 10
52.8229
 20
23.3931
 30
0.000000
  70
    32
  0
VERTEX
  8
0
  5
105FF
 10
52.8346
 20
23.4208
 30
0.000000
  70
    32
  0
VERTEX
  8
0
  5
10600
 10
52.8462
 20
23.4485
 30
0.000000
  70
    32
  0
VERTEX
  8
0
  5
10601
 10
52.8579
 20
23.4762
 30
0.000000
  70
    32
  0
VERTEX
  8
0
  5
10602
 10
52.8697
 20
23.5038
 30
0.000000
  70
    32
  0
VERTEX
  8
0
  5
10603
 10
52.8815
 20
23.5315
 30
0.000000
  70
    32
  0
VERTEX
  8
0
  5
10604
 10
52.8934
 20
23.5591
 30
0.000000
  70
    32
  0
VERTEX
  8
0
  5
10605
 10
52.9053
 20
23.5867
 30
0.000000
  70
    32
  0
VERTEX
  8
0
  5
10606
 10
52.9172
 20
23.6142
 30
0.000000
  70
    32
  0
VERTEX
  8
0
  5
10607
 10
52.9292
 20
23.6418
 30
0.000000
  70
    32
  0
VERTEX
  8
0
  5
10608
 10
52.9413
 20
23.6693
 30
0.000000
  70
    32
  0
VERTEX
  8
0
  5
10609
 10
52.9534
 20
23.6968
 30
0.000000
  70
    32
  0
VERTEX
  8
0
  5
1060A
 10
52.9655
 20
23.7243
 30
0.000000
  70
    32
  0
VERTEX
  8
0
  5
1060B
 10
52.9777
 20
23.7518
 30
0.000000
  70
    32
  0
VERTEX
  8
0
  5
1060C
 10
52.9899
 20
23.7792
 30
0.000000
  70
    32
  0
VERTEX
  8
0
  5
1060D
 10
53.0022
 20
23.8066
 30
0.000000
  70
    32
  0
VERTEX
  8
0
  5
1060E
 10
53.0145
 20
23.8340
 30
0.000000
  70
    32
  0
VERTEX
  8
0
  5
1060F
 10
53.0269
 20
23.8614
 30
0.000000
  70
    32
  0
VERTEX
  8
0
  5
10610
 10
53.0393
 20
23.8888
 30
0.000000
  70
    32
  0
VERTEX
  8
0
  5
10611
 10
53.0518
 20
23.9161
 30
0.000000
  70
    32
  0
VERTEX
  8
0
  5
10612
 10
53.0643
 20
23.9434
 30
0.000000
  70
    32
  0
VERTEX
  8
0
  5
10613
 10
53.0769
 20
23.9707
 30
0.000000
  70
    32
  0
VERTEX
  8
0
  5
10614
 10
53.0895
 20
23.9980
 30
0.000000
  70
    32
  0
VERTEX
  8
0
  5
10615
 10
53.1022
 20
24.0253
 30
0.000000
  70
    32
  0
VERTEX
  8
0
  5
10616
 10
53.1149
 20
24.0525
 30
0.000000
  70
    32
  0
VERTEX
  8
0
  5
10617
 10
53.1276
 20
24.0797
 30
0.000000
  70
    32
  0
VERTEX
  8
0
  5
10618
 10
53.1404
 20
24.1069
 30
0.000000
  70
    32
  0
VERTEX
  8
0
  5
10619
 10
53.1532
 20
24.1341
 30
0.000000
  70
    32
  0
VERTEX
  8
0
  5
1061A
 10
53.1661
 20
24.1612
 30
0.000000
  70
    32
  0
VERTEX
  8
0
  5
1061B
 10
53.1791
 20
24.1883
 30
0.000000
  70
    32
  0
VERTEX
  8
0
  5
1061C
 10
53.1920
 20
24.2154
 30
0.000000
  70
    32
  0
VERTEX
  8
0
  5
1061D
 10
53.2051
 20
24.2425
 30
0.000000
  70
    32
  0
VERTEX
  8
0
  5
1061E
 10
53.2181
 20
24.2696
 30
0.000000
  70
    32
  0
VERTEX
  8
0
  5
1061F
 10
53.2312
 20
24.2966
 30
0.000000
  70
    32
  0
VERTEX
  8
0
  5
10620
 10
53.2444
 20
24.3236
 30
0.000000
  70
    32
  0
VERTEX
  8
0
  5
10621
 10
53.2576
 20
24.3506
 30
0.000000
  70
    32
  0
VERTEX
  8
0
  5
10622
 10
53.2709
 20
24.3776
 30
0.000000
  70
    32
  0
VERTEX
  8
0
  5
10623
 10
53.2842
 20
24.4045
 30
0.000000
  70
    32
  0
VERTEX
  8
0
  5
10624
 10
53.2975
 20
24.4315
 30
0.000000
  70
    32
  0
VERTEX
  8
0
  5
10625
 10
53.3109
 20
24.4584
 30
0.000000
  70
    32
  0
VERTEX
  8
0
  5
10626
 10
53.3243
 20
24.4853
 30
0.000000
  70
    32
  0
VERTEX
  8
0
  5
10627
 10
53.3378
 20
24.5121
 30
0.000000
  70
    32
  0
VERTEX
  8
0
  5
10628
 10
53.3513
 20
24.5390
 30
0.000000
  70
    32
  0
VERTEX
  8
0
  5
10629
 10
53.3649
 20
24.5658
 30
0.000000
  70
    32
  0
VERTEX
  8
0
  5
1062A
 10
53.3785
 20
24.5926
 30
0.000000
  70
    32
  0
VERTEX
  8
0
  5
1062B
 10
53.3921
 20
24.6193
 30
0.000000
  70
    32
  0
VERTEX
  8
0
  5
1062C
 10
53.4058
 20
24.6461
 30
0.000000
  70
    32
  0
VERTEX
  8
0
  5
1062D
 10
53.4196
 20
24.6728
 30
0.000000
  70
    32
  0
VERTEX
  8
0
  5
1062E
 10
53.4334
 20
24.6995
 30
0.000000
  70
    32
  0
VERTEX
  8
0
  5
1062F
 10
53.4472
 20
24.7262
 30
0.000000
  70
    32
  0
VERTEX
  8
0
  5
10630
 10
53.4611
 20
24.7528
 30
0.000000
  70
    32
  0
VERTEX
  8
0
  5
10631
 10
53.4750
 20
24.7795
 30
0.000000
  70
    32
  0
VERTEX
  8
0
  5
10632
 10
53.4890
 20
24.8061
 30
0.000000
  70
    32
  0
VERTEX
  8
0
  5
10633
 10
53.5030
 20
24.8327
 30
0.000000
  70
    32
  0
VERTEX
  8
0
  5
10634
 10
53.5170
 20
24.8592
 30
0.000000
  70
    32
  0
VERTEX
  8
0
  5
10635
 10
53.5311
 20
24.8858
 30
0.000000
  70
    32
  0
VERTEX
  8
0
  5
10636
 10
53.5453
 20
24.9123
 30
0.000000
  70
    32
  0
VERTEX
  8
0
  5
10637
 10
53.5595
 20
24.9388
 30
0.000000
  70
    32
  0
VERTEX
  8
0
  5
10638
 10
53.5737
 20
24.9652
 30
0.000000
  70
    32
  0
VERTEX
  8
0
  5
10639
 10
53.5880
 20
24.9917
 30
0.000000
  70
    32
  0
VERTEX
  8
0
  5
1063A
 10
53.6023
 20
25.0181
 30
0.000000
  70
    32
  0
VERTEX
  8
0
  5
1063B
 10
53.6167
 20
25.0445
 30
0.000000
  70
    32
  0
VERTEX
  8
0
  5
1063C
 10
53.6311
 20
25.0709
 30
0.000000
  70
    32
  0
VERTEX
  8
0
  5
1063D
 10
53.6455
 20
25.0972
 30
0.000000
  70
    32
  0
VERTEX
  8
0
  5
1063E
 10
53.6600
 20
25.1235
 30
0.000000
  70
    32
  0
VERTEX
  8
0
  5
1063F
 10
53.6745
 20
25.1498
 30
0.000000
  70
    32
  0
VERTEX
  8
0
  5
10640
 10
53.6891
 20
25.1761
 30
0.000000
  70
    32
  0
VERTEX
  8
0
  5
10641
 10
53.7037
 20
25.2024
 30
0.000000
  70
    32
  0
VERTEX
  8
0
  5
10642
 10
53.7184
 20
25.2286
 30
0.000000
  70
    32
  0
VERTEX
  8
0
  5
10643
 10
53.7331
 20
25.2548
 30
0.000000
  70
    32
  0
VERTEX
  8
0
  5
10644
 10
53.7478
 20
25.2810
 30
0.000000
  70
    32
  0
VERTEX
  8
0
  5
10645
 10
53.7626
 20
25.3071
 30
0.000000
  70
    32
  0
VERTEX
  8
0
  5
10646
 10
53.7775
 20
25.3333
 30
0.000000
  70
    32
  0
VERTEX
  8
0
  5
10647
 10
53.7924
 20
25.3594
 30
0.000000
  70
    32
  0
VERTEX
  8
0
  5
10648
 10
53.8073
 20
25.3855
 30
0.000000
  70
    32
  0
VERTEX
  8
0
  5
10649
 10
53.8222
 20
25.4115
 30
0.000000
  70
    32
  0
VERTEX
  8
0
  5
1064A
 10
53.8372
 20
25.4375
 30
0.000000
  70
    32
  0
VERTEX
  8
0
  5
1064B
 10
53.8523
 20
25.4635
 30
0.000000
  70
    32
  0
VERTEX
  8
0
  5
1064C
 10
53.8674
 20
25.4895
 30
0.000000
  70
    32
  0
VERTEX
  8
0
  5
1064D
 10
53.8825
 20
25.5155
 30
0.000000
  70
    32
  0
VERTEX
  8
0
  5
1064E
 10
53.8977
 20
25.5414
 30
0.000000
  70
    32
  0
VERTEX
  8
0
  5
1064F
 10
53.9129
 20
25.5673
 30
0.000000
  70
    32
  0
VERTEX
  8
0
  5
10650
 10
53.9282
 20
25.5932
 30
0.000000
  70
    32
  0
VERTEX
  8
0
  5
10651
 10
53.9435
 20
25.6190
 30
0.000000
  70
    32
  0
VERTEX
  8
0
  5
10652
 10
53.9588
 20
25.6449
 30
0.000000
  70
    32
  0
VERTEX
  8
0
  5
10653
 10
53.9742
 20
25.6707
 30
0.000000
  70
    32
  0
SEQEND
  8
0
  5
10654
  0
POLYLINE
  8
0
  5
10655
  66
     1
 10
0.000000
 20
0.000000
 30
0.000000
  70
     8
  0
VERTEX
  8
0
  5
10656
 10
53.0000
 20
11.5000
 30
0.000000
  70
    32
  0
VERTEX
  8
0
  5
10657
 10
53.0387
 20
11.5255
 30
0.000000
  70
    32
  0
VERTEX
  8
0
  5
10658
 10
53.0773
 20
11.5510
 30
0.000000
  70
    32
  0
VERTEX
  8
0
  5
10659
 10
53.1159
 20
11.5766
 30
0.000000
  70
    32
  0
VERTEX
  8
0
  5
1065A
 10
53.1544
 20
11.6023
 30
0.000000
  70
    32
  0
VERTEX
  8
0
  5
1065B
 10
53.1929
 20
11.6281
 30
0.000000
  70
    32
  0
VERTEX
  8
0
  5
1065C
 10
53.2313
 20
11.6539
 30
0.000000
  70
    32
  0
VERTEX
  8
0
  5
1065D
 10
53.2697
 20
11.6799
 30
0.000000
  70
    32
  0
VERTEX
  8
0
  5
1065E
 10
53.3080
 20
11.7059
 30
0.000000
  70
    32
  0
VERTEX
  8
0
  5
1065F
 10
53.3463
 20
11.7320
 30
0.000000
  70
    32
  0
VERTEX
  8
0
  5
10660
 10
53.3845
 20
11.7581
 30
0.000000
  70
    32
  0
VERTEX
  8
0
  5
10661
 10
53.4227
 20
11.7844
 30
0.000000
  70
    32
  0
VERTEX
  8
0
  5
10662
 10
53.4608
 20
11.8107
 30
0.000000
  70
    32
  0
VERTEX
  8
0
  5
10663
 10
53.4989
 20
11.8371
 30
0.000000
  70
    32
  0
VERTEX
  8
0
  5
10664
 10
53.5369
 20
11.8636
 30
0.000000
  70
    32
  0
VERTEX
  8
0
  5
10665
 10
53.5749
 20
11.8901
 30
0.000000
  70
    32
  0
VERTEX
  8
0
  5
10666
 10
53.6128
 20
11.9168
 30
0.000000
  70
    32
  0
VERTEX
  8
0
  5
10667
 10
53.6506
 20
11.9435
 30
0.000000
  70
    32
  0
VERTEX
  8
0
  5
10668
 10
53.6884
 20
11.9703
 30
0.000000
  70
    32
  0
VERTEX
  8
0
  5
10669
 10
53.7261
 20
11.9971
 30
0.000000
  70
    32
  0
VERTEX
  8
0
  5
1066A
 10
53.7638
 20
12.0241
 30
0.000000
  70
    32
  0
VERTEX
  8
0
  5
1066B
 10
53.8015
 20
12.0511
 30
0.000000
  70
    32
  0
VERTEX
  8
0
  5
1066C
 10
53.8390
 20
12.0782
 30
0.000000
  70
    32
  0
VERTEX
  8
0
  5
1066D
 10
53.8766
 20
12.1054
 30
0.000000
  70
    32
  0
VERTEX
  8
0
  5
1066E
 10
53.9140
 20
12.1326
 30
0.000000
  70
    32
  0
VERTEX
  8
0
  5
1066F
 10
53.9514
 20
12.1600
 30
0.000000
  70
    32
  0
VERTEX
  8
0
  5
10670
 10
53.9888
 20
12.1874
 30
0.000000
  70
    32
  0
VERTEX
  8
0
  5
10671
 10
54.0261
 20
12.2149
 30
0.000000
  70
    32
  0
VERTEX
  8
0
  5
10672
 10
54.0633
 20
12.2424
 30
0.000000
  70
    32
  0
VERTEX
  8
0
  5
10673
 10
54.1005
 20
12.2701
 30
0.000000
  70
    32
  0
VERTEX
  8
0
  5
10674
 10
54.1376
 20
12.2978
 30
0.000000
  70
    32
  0
VERTEX
  8
0
  5
10675
 10
54.1747
 20
12.3256
 30
0.000000
  70
    32
  0
VERTEX
  8
0
  5
10676
 10
54.2117
 20
12.3535
 30
0.000000
  70
    32
  0
VERTEX
  8
0
  5
10677
 10
54.2487
 20
12.3814
 30
0.000000
  70
    32
  0
VERTEX
  8
0
  5
10678
 10
54.2856
 20
12.4094
 30
0.000000
  70
    32
  0
VERTEX
  8
0
  5
10679
 10
54.3224
 20
12.4375
 30
0.000000
  70
    32
  0
VERTEX
  8
0
  5
1067A
 10
54.3592
 20
12.4657
 30
0.000000
  70
    32
  0
VERTEX
  8
0
  5
1067B
 10
54.3959
 20
12.4940
 30
0.000000
  70
    32
  0
VERTEX
  8
0
  5
1067C
 10
54.4326
 20
12.5223
 30
0.000000
  70
    32
  0
VERTEX
  8
0
  5
1067D
 10
54.4692
 20
12.5507
 30
0.000000
  70
    32
  0
VERTEX
  8
0
  5
1067E
 10
54.5057
 20
12.5792
 30
0.000000
  70
    32
  0
VERTEX
  8
0
  5
1067F
 10
54.5422
 20
12.6078
 30
0.000000
  70
    32
  0
VERTEX
  8
0
  5
10680
 10
54.5786
 20
12.6364
 30
0.000000
  70
    32
  0
VERTEX
  8
0
  5
10681
 10
54.6150
 20
12.6652
 30
0.000000
  70
    32
  0
VERTEX
  8
0
  5
10682
 10
54.6513
 20
12.6939
 30
0.000000
  70
    32
  0
VERTEX
  8
0
  5
10683
 10
54.6875
 20
12.7228
 30
0.000000
  70
    32
  0
VERTEX
  8
0
  5
10684
 10
54.7237
 20
12.7518
 30
0.000000
  70
    32
  0
VERTEX
  8
0
  5
10685
 10
54.7598
 20
12.7808
 30
0.000000
  70
    32
  0
VERTEX
  8
0
  5
10686
 10
54.7959
 20
12.8099
 30
0.000000
  70
    32
  0
VERTEX
  8
0
  5
10687
 10
54.8318
 20
12.8391
 30
0.000000
  70
    32
  0
VERTEX
  8
0
  5
10688
 10
54.8678
 20
12.8683
 30
0.000000
  70
    32
  0
VERTEX
  8
0
  5
10689
 10
54.9036
 20
12.8977
 30
0.000000
  70
    32
  0
VERTEX
  8
0
  5
1068A
 10
54.9395
 20
12.9271
 30
0.000000
  70
    32
  0
VERTEX
  8
0
  5
1068B
 10
54.9752
 20
12.9566
 30
0.000000
  70
    32
  0
VERTEX
  8
0
  5
1068C
 10
55.0109
 20
12.9861
 30
0.000000
  70
    32
  0
VERTEX
  8
0
  5
1068D
 10
55.0465
 20
13.0158
 30
0.000000
  70
    32
  0
VERTEX
  8
0
  5
1068E
 10
55.0820
 20
13.0455
 30
0.000000
  70
    32
  0
VERTEX
  8
0
  5
1068F
 10
55.1175
 20
13.0753
 30
0.000000
  70
    32
  0
VERTEX
  8
0
  5
10690
 10
55.1529
 20
13.1051
 30
0.000000
  70
    32
  0
VERTEX
  8
0
  5
10691
 10
55.1883
 20
13.1351
 30
0.000000
  70
    32
  0
VERTEX
  8
0
  5
10692
 10
55.2236
 20
13.1651
 30
0.000000
  70
    32
  0
VERTEX
  8
0
  5
10693
 10
55.2588
 20
13.1952
 30
0.000000
  70
    32
  0
VERTEX
  8
0
  5
10694
 10
55.2940
 20
13.2254
 30
0.000000
  70
    32
  0
VERTEX
  8
0
  5
10695
 10
55.3291
 20
13.2556
 30
0.000000
  70
    32
  0
VERTEX
  8
0
  5
10696
 10
55.3641
 20
13.2859
 30
0.000000
  70
    32
  0
VERTEX
  8
0
  5
10697
 10
55.3991
 20
13.3163
 30
0.000000
  70
    32
  0
VERTEX
  8
0
  5
10698
 10
55.4340
 20
13.3468
 30
0.000000
  70
    32
  0
VERTEX
  8
0
  5
10699
 10
55.4688
 20
13.3774
 30
0.000000
  70
    32
  0
VERTEX
  8
0
  5
1069A
 10
55.5036
 20
13.4080
 30
0.000000
  70
    32
  0
VERTEX
  8
0
  5
1069B
 10
55.5382
 20
13.4387
 30
0.000000
  70
    32
  0
VERTEX
  8
0
  5
1069C
 10
55.5729
 20
13.4695
 30
0.000000
  70
    32
  0
VERTEX
  8
0
  5
1069D
 10
55.6074
 20
13.5004
 30
0.000000
  70
    32
  0
VERTEX
  8
0
  5
1069E
 10
55.6419
 20
13.5313
 30
0.000000
  70
    32
  0
VERTEX
  8
0
  5
1069F
 10
55.6763
 20
13.5623
 30
0.000000
  70
    32
  0
VERTEX
  8
0
  5
106A0
 10
55.7107
 20
13.5934
 30
0.000000
  70
    32
  0
VERTEX
  8
0
  5
106A1
 10
55.7450
 20
13.6246
 30
0.000000
  70
    32
  0
VERTEX
  8
0
  5
106A2
 10
55.7792
 20
13.6558
 30
0.000000
  70
    32
  0
VERTEX
  8
0
  5
106A3
 10
55.8133
 20
13.6871
 30
0.000000
  70
    32
  0
VERTEX
  8
0
  5
106A4
 10
55.8474
 20
13.7185
 30
0.000000
  70
    32
  0
VERTEX
  8
0
  5
106A5
 10
55.8814
 20
13.7500
 30
0.000000
  70
    32
  0
VERTEX
  8
0
  5
106A6
 10
55.9153
 20
13.7815
 30
0.000000
  70
    32
  0
VERTEX
  8
0
  5
106A7
 10
55.9492
 20
13.8132
 30
0.000000
  70
    32
  0
VERTEX
  8
0
  5
106A8
 10
55.9830
 20
13.8449
 30
0.000000
  70
    32
  0
VERTEX
  8
0
  5
106A9
 10
56.0167
 20
13.8766
 30
0.000000
  70
    32
  0
VERTEX
  8
0
  5
106AA
 10
56.0503
 20
13.9085
 30
0.000000
  70
    32
  0
VERTEX
  8
0
  5
106AB
 10
56.0839
 20
13.9404
 30
0.000000
  70
    32
  0
VERTEX
  8
0
  5
106AC
 10
56.1174
 20
13.9724
 30
0.000000
  70
    32
  0
VERTEX
  8
0
  5
106AD
 10
56.1508
 20
14.0045
 30
0.000000
  70
    32
  0
VERTEX
  8
0
  5
106AE
 10
56.1842
 20
14.0367
 30
0.000000
  70
    32
  0
VERTEX
  8
0
  5
106AF
 10
56.2174
 20
14.0689
 30
0.000000
  70
    32
  0
VERTEX
  8
0
  5
106B0
 10
56.2506
 20
14.1012
 30
0.000000
  70
    32
  0
VERTEX
  8
0
  5
106B1
 10
56.2838
 20
14.1336
 30
0.000000
  70
    32
  0
VERTEX
  8
0
  5
106B2
 10
56.3168
 20
14.1660
 30
0.000000
  70
    32
  0
VERTEX
  8
0
  5
106B3
 10
56.3498
 20
14.1986
 30
0.000000
  70
    32
  0
VERTEX
  8
0
  5
106B4
 10
56.3827
 20
14.2312
 30
0.000000
  70
    32
  0
VERTEX
  8
0
  5
106B5
 10
56.4155
 20
14.2639
 30
0.000000
  70
    32
  0
VERTEX
  8
0
  5
106B6
 10
56.4483
 20
14.2966
 30
0.000000
  70
    32
  0
VERTEX
  8
0
  5
106B7
 10
56.4810
 20
14.3295
 30
0.000000
  70
    32
  0
VERTEX
  8
0
  5
106B8
 10
56.5136
 20
14.3624
 30
0.000000
  70
    32
  0
VERTEX
  8
0
  5
106B9
 10
56.5461
 20
14.3954
 30
0.000000
  70
    32
  0
VERTEX
  8
0
  5
106BA
 10
56.5785
 20
14.4285
 30
0.000000
  70
    32
  0
VERTEX
  8
0
  5
106BB
 10
56.6109
 20
14.4616
 30
0.000000
  70
    32
  0
VERTEX
  8
0
  5
106BC
 10
56.6432
 20
14.4948
 30
0.000000
  70
    32
  0
VERTEX
  8
0
  5
106BD
 10
56.6754
 20
14.5281
 30
0.000000
  70
    32
  0
VERTEX
  8
0
  5
106BE
 10
56.7076
 20
14.5615
 30
0.000000
  70
    32
  0
VERTEX
  8
0
  5
106BF
 10
56.7396
 20
14.5949
 30
0.000000
  70
    32
  0
VERTEX
  8
0
  5
106C0
 10
56.7716
 20
14.6284
 30
0.000000
  70
    32
  0
VERTEX
  8
0
  5
106C1
 10
56.8035
 20
14.6620
 30
0.000000
  70
    32
  0
VERTEX
  8
0
  5
106C2
 10
56.8354
 20
14.6957
 30
0.000000
  70
    32
  0
VERTEX
  8
0
  5
106C3
 10
56.8671
 20
14.7294
 30
0.000000
  70
    32
  0
VERTEX
  8
0
  5
106C4
 10
56.8988
 20
14.7632
 30
0.000000
  70
    32
  0
VERTEX
  8
0
  5
106C5
 10
56.9304
 20
14.7971
 30
0.000000
  70
    32
  0
VERTEX
  8
0
  5
106C6
 10
56.9619
 20
14.8311
 30
0.000000
  70
    32
  0
VERTEX
  8
0
  5
106C7
 10
56.9934
 20
14.8651
 30
0.000000
  70
    32
  0
VERTEX
  8
0
  5
106C8
 10
57.0247
 20
14.8992
 30
0.000000
  70
    32
  0
VERTEX
  8
0
  5
106C9
 10
57.0560
 20
14.9334
 30
0.000000
  70
    32
  0
VERTEX
  8
0
  5
106CA
 10
57.0872
 20
14.9676
 30
0.000000
  70
    32
  0
VERTEX
  8
0
  5
106CB
 10
57.1184
 20
15.0020
 30
0.000000
  70
    32
  0
VERTEX
  8
0
  5
106CC
 10
57.1494
 20
15.0364
 30
0.000000
  70
    32
  0
VERTEX
  8
0
  5
106CD
 10
57.1804
 20
15.0708
 30
0.000000
  70
    32
  0
VERTEX
  8
0
  5
106CE
 10
57.2113
 20
15.1054
 30
0.000000
  70
    32
  0
VERTEX
  8
0
  5
106CF
 10
57.2421
 20
15.1400
 30
0.000000
  70
    32
  0
VERTEX
  8
0
  5
106D0
 10
57.2728
 20
15.1746
 30
0.000000
  70
    32
  0
VERTEX
  8
0
  5
106D1
 10
57.3034
 20
15.2094
 30
0.000000
  70
    32
  0
VERTEX
  8
0
  5
106D2
 10
57.3340
 20
15.2442
 30
0.000000
  70
    32
  0
VERTEX
  8
0
  5
106D3
 10
57.3645
 20
15.2791
 30
0.000000
  70
    32
  0
VERTEX
  8
0
  5
106D4
 10
57.3949
 20
15.3141
 30
0.000000
  70
    32
  0
VERTEX
  8
0
  5
106D5
 10
57.4252
 20
15.3491
 30
0.000000
  70
    32
  0
VERTEX
  8
0
  5
106D6
 10
57.4555
 20
15.3842
 30
0.000000
  70
    32
  0
VERTEX
  8
0
  5
106D7
 10
57.4856
 20
15.4194
 30
0.000000
  70
    32
  0
VERTEX
  8
0
  5
106D8
 10
57.5157
 20
15.4546
 30
0.000000
  70
    32
  0
VERTEX
  8
0
  5
106D9
 10
57.5457
 20
15.4899
 30
0.000000
  70
    32
  0
VERTEX
  8
0
  5
106DA
 10
57.5756
 20
15.5253
 30
0.000000
  70
    32
  0
VERTEX
  8
0
  5
106DB
 10
57.6055
 20
15.5607
 30
0.000000
  70
    32
  0
VERTEX
  8
0
  5
106DC
 10
57.6352
 20
15.5962
 30
0.000000
  70
    32
  0
VERTEX
  8
0
  5
106DD
 10
57.6649
 20
15.6318
 30
0.000000
  70
    32
  0
VERTEX
  8
0
  5
106DE
 10
57.6945
 20
15.6675
 30
0.000000
  70
    32
  0
VERTEX
  8
0
  5
106DF
 10
57.7240
 20
15.7032
 30
0.000000
  70
    32
  0
VERTEX
  8
0
  5
106E0
 10
57.7534
 20
15.7390
 30
0.000000
  70
    32
  0
VERTEX
  8
0
  5
106E1
 10
57.7828
 20
15.7748
 30
0.000000
  70
    32
  0
VERTEX
  8
0
  5
106E2
 10
57.8120
 20
15.8108
 30
0.000000
  70
    32
  0
VERTEX
  8
0
  5
106E3
 10
57.8412
 20
15.8468
 30
0.000000
  70
    32
  0
VERTEX
  8
0
  5
106E4
 10
57.8703
 20
15.8828
 30
0.000000
  70
    32
  0
VERTEX
  8
0
  5
106E5
 10
57.8993
 20
15.9189
 30
0.000000
  70
    32
  0
VERTEX
  8
0
  5
106E6
 10
57.9283
 20
15.9551
 30
0.000000
  70
    32
  0
VERTEX
  8
0
  5
106E7
 10
57.9571
 20
15.9914
 30
0.000000
  70
    32
  0
VERTEX
  8
0
  5
106E8
 10
57.9859
 20
16.0277
 30
0.000000
  70
    32
  0
VERTEX
  8
0
  5
106E9
 10
58.0145
 20
16.0641
 30
0.000000
  70
    32
  0
VERTEX
  8
0
  5
106EA
 10
58.0431
 20
16.1006
 30
0.000000
  70
    32
  0
VERTEX
  8
0
  5
106EB
 10
58.0716
 20
16.1371
 30
0.000000
  70
    32
  0
VERTEX
  8
0
  5
106EC
 10
58.1001
 20
16.1737
 30
0.000000
  70
    32
  0
VERTEX
  8
0
  5
106ED
 10
58.1284
 20
16.2103
 30
0.000000
  70
    32
  0
VERTEX
  8
0
  5
106EE
 10
58.1567
 20
16.2470
 30
0.000000
  70
    32
  0
VERTEX
  8
0
  5
106EF
 10
58.1848
 20
16.2838
 30
0.000000
  70
    32
  0
VERTEX
  8
0
  5
106F0
 10
58.2129
 20
16.3207
 30
0.000000
  70
    32
  0
VERTEX
  8
0
  5
106F1
 10
58.2409
 20
16.3576
 30
0.000000
  70
    32
  0
VERTEX
  8
0
  5
106F2
 10
58.2689
 20
16.3945
 30
0.000000
  70
    32
  0
VERTEX
  8
0
  5
106F3
 10
58.2967
 20
16.4316
 30
0.000000
  70
    32
  0
VERTEX
  8
0
  5
106F4
 10
58.3244
 20
16.4687
 30
0.000000
  70
    32
  0
VERTEX
  8
0
  5
106F5
 10
58.3521
 20
16.5058
 30
0.000000
  70
    32
  0
VERTEX
  8
0
  5
106F6
 10
58.3797
 20
16.5431
 30
0.000000
  70
    32
  0
VERTEX
  8
0
  5
106F7
 10
58.4072
 20
16.5803
 30
0.000000
  70
    32
  0
VERTEX
  8
0
  5
106F8
 10
58.4346
 20
16.6177
 30
0.000000
  70
    32
  0
VERTEX
  8
0
  5
106F9
 10
58.4620
 20
16.6551
 30
0.000000
  70
    32
  0
VERTEX
  8
0
  5
106FA
 10
58.4892
 20
16.6926
 30
0.000000
  70
    32
  0
VERTEX
  8
0
  5
106FB
 10
58.5164
 20
16.7301
 30
0.000000
  70
    32
  0
VERTEX
  8
0
  5
106FC
 10
58.5435
 20
16.7677
 30
0.000000
  70
    32
  0
VERTEX
  8
0
  5
106FD
 10
58.5705
 20
16.8053
 30
0.000000
  70
    32
  0
VERTEX
  8
0
  5
106FE
 10
58.5974
 20
16.8430
 30
0.000000
  70
    32
  0
VERTEX
  8
0
  5
106FF
 10
58.6242
 20
16.8808
 30
0.000000
  70
    32
  0
VERTEX
  8
0
  5
10700
 10
58.6510
 20
16.9186
 30
0.000000
  70
    32
  0
VERTEX
  8
0
  5
10701
 10
58.6776
 20
16.9565
 30
0.000000
  70
    32
  0
VERTEX
  8
0
  5
10702
 10
58.7042
 20
16.9945
 30
0.000000
  70
    32
  0
VERTEX
  8
0
  5
10703
 10
58.7307
 20
17.0325
 30
0.000000
  70
    32
  0
VERTEX
  8
0
  5
10704
 10
58.7572
 20
17.0705
 30
0.000000
  70
    32
  0
VERTEX
  8
0
  5
10705
 10
58.7835
 20
17.1086
 30
0.000000
  70
    32
  0
VERTEX
  8
0
  5
10706
 10
58.8097
 20
17.1468
 30
0.000000
  70
    32
  0
VERTEX
  8
0
  5
10707
 10
58.8359
 20
17.1851
 30
0.000000
  70
    32
  0
VERTEX
  8
0
  5
10708
 10
58.8620
 20
17.2233
 30
0.000000
  70
    32
  0
VERTEX
  8
0
  5
10709
 10
58.8880
 20
17.2617
 30
0.000000
  70
    32
  0
VERTEX
  8
0
  5
1070A
 10
58.9139
 20
17.3001
 30
0.000000
  70
    32
  0
VERTEX
  8
0
  5
1070B
 10
58.9397
 20
17.3386
 30
0.000000
  70
    32
  0
VERTEX
  8
0
  5
1070C
 10
58.9655
 20
17.3771
 30
0.000000
  70
    32
  0
VERTEX
  8
0
  5
1070D
 10
58.9911
 20
17.4157
 30
0.000000
  70
    32
  0
VERTEX
  8
0
  5
1070E
 10
59.0167
 20
17.4543
 30
0.000000
  70
    32
  0
VERTEX
  8
0
  5
1070F
 10
59.0422
 20
17.4930
 30
0.000000
  70
    32
  0
VERTEX
  8
0
  5
10710
 10
59.0676
 20
17.5317
 30
0.000000
  70
    32
  0
VERTEX
  8
0
  5
10711
 10
59.0930
 20
17.5705
 30
0.000000
  70
    32
  0
VERTEX
  8
0
  5
10712
 10
59.1182
 20
17.6093
 30
0.000000
  70
    32
  0
VERTEX
  8
0
  5
10713
 10
59.1434
 20
17.6482
 30
0.000000
  70
    32
  0
VERTEX
  8
0
  5
10714
 10
59.1685
 20
17.6872
 30
0.000000
  70
    32
  0
VERTEX
  8
0
  5
10715
 10
59.1935
 20
17.7262
 30
0.000000
  70
    32
  0
VERTEX
  8
0
  5
10716
 10
59.2184
 20
17.7653
 30
0.000000
  70
    32
  0
VERTEX
  8
0
  5
10717
 10
59.2432
 20
17.8044
 30
0.000000
  70
    32
  0
VERTEX
  8
0
  5
10718
 10
59.2680
 20
17.8435
 30
0.000000
  70
    32
  0
VERTEX
  8
0
  5
10719
 10
59.2926
 20
17.8828
 30
0.000000
  70
    32
  0
VERTEX
  8
0
  5
1071A
 10
59.3172
 20
17.9220
 30
0.000000
  70
    32
  0
VERTEX
  8
0
  5
1071B
 10
59.3417
 20
17.9613
 30
0.000000
  70
    32
  0
VERTEX
  8
0
  5
1071C
 10
59.3661
 20
18.0007
 30
0.000000
  70
    32
  0
VERTEX
  8
0
  5
1071D
 10
59.3904
 20
18.0401
 30
0.000000
  70
    32
  0
VERTEX
  8
0
  5
1071E
 10
59.4147
 20
18.0796
 30
0.000000
  70
    32
  0
VERTEX
  8
0
  5
1071F
 10
59.4388
 20
18.1191
 30
0.000000
  70
    32
  0
VERTEX
  8
0
  5
10720
 10
59.4629
 20
18.1587
 30
0.000000
  70
    32
  0
VERTEX
  8
0
  5
10721
 10
59.4869
 20
18.1984
 30
0.000000
  70
    32
  0
VERTEX
  8
0
  5
10722
 10
59.5108
 20
18.2380
 30
0.000000
  70
    32
  0
VERTEX
  8
0
  5
10723
 10
59.5346
 20
18.2778
 30
0.000000
  70
    32
  0
VERTEX
  8
0
  5
10724
 10
59.5584
 20
18.3175
 30
0.000000
  70
    32
  0
VERTEX
  8
0
  5
10725
 10
59.5820
 20
18.3574
 30
0.000000
  70
    32
  0
VERTEX
  8
0
  5
10726
 10
59.6056
 20
18.3973
 30
0.000000
  70
    32
  0
VERTEX
  8
0
  5
10727
 10
59.6291
 20
18.4372
 30
0.000000
  70
    32
  0
VERTEX
  8
0
  5
10728
 10
59.6525
 20
18.4772
 30
0.000000
  70
    32
  0
VERTEX
  8
0
  5
10729
 10
59.6758
 20
18.5172
 30
0.000000
  70
    32
  0
VERTEX
  8
0
  5
1072A
 10
59.6991
 20
18.5573
 30
0.000000
  70
    32
  0
VERTEX
  8
0
  5
1072B
 10
59.7222
 20
18.5974
 30
0.000000
  70
    32
  0
VERTEX
  8
0
  5
1072C
 10
59.7453
 20
18.6376
 30
0.000000
  70
    32
  0
VERTEX
  8
0
  5
1072D
 10
59.7683
 20
18.6778
 30
0.000000
  70
    32
  0
VERTEX
  8
0
  5
1072E
 10
59.7912
 20
18.7181
 30
0.000000
  70
    32
  0
VERTEX
  8
0
  5
1072F
 10
59.8140
 20
18.7584
 30
0.000000
  70
    32
  0
VERTEX
  8
0
  5
10730
 10
59.8368
 20
18.7987
 30
0.000000
  70
    32
  0
VERTEX
  8
0
  5
10731
 10
59.8594
 20
18.8391
 30
0.000000
  70
    32
  0
VERTEX
  8
0
  5
10732
 10
59.8820
 20
18.8796
 30
0.000000
  70
    32
  0
VERTEX
  8
0
  5
10733
 10
59.9045
 20
18.9201
 30
0.000000
  70
    32
  0
VERTEX
  8
0
  5
10734
 10
59.9269
 20
18.9607
 30
0.000000
  70
    32
  0
VERTEX
  8
0
  5
10735
 10
59.9492
 20
19.0013
 30
0.000000
  70
    32
  0
VERTEX
  8
0
  5
10736
 10
59.9714
 20
19.0419
 30
0.000000
  70
    32
  0
VERTEX
  8
0
  5
10737
 10
59.9935
 20
19.0826
 30
0.000000
  70
    32
  0
VERTEX
  8
0
  5
10738
 10
60.0156
 20
19.1233
 30
0.000000
  70
    32
  0
VERTEX
  8
0
  5
10739
 10
60.0376
 20
19.1641
 30
0.000000
  70
    32
  0
VERTEX
  8
0
  5
1073A
 10
60.0595
 20
19.2050
 30
0.000000
  70
    32
  0
VERTEX
  8
0
  5
1073B
 10
60.0813
 20
19.2458
 30
0.000000
  70
    32
  0
VERTEX
  8
0
  5
1073C
 10
60.1030
 20
19.2868
 30
0.000000
  70
    32
  0
VERTEX
  8
0
  5
1073D
 10
60.1247
 20
19.3277
 30
0.000000
  70
    32
  0
VERTEX
  8
0
  5
1073E
 10
60.1462
 20
19.3687
 30
0.000000
  70
    32
  0
VERTEX
  8
0
  5
1073F
 10
60.1677
 20
19.4098
 30
0.000000
  70
    32
  0
VERTEX
  8
0
  5
10740
 10
60.1891
 20
19.4509
 30
0.000000
  70
    32
  0
VERTEX
  8
0
  5
10741
 10
60.2104
 20
19.4920
 30
0.000000
  70
    32
  0
VERTEX
  8
0
  5
10742
 10
60.2316
 20
19.5332
 30
0.000000
  70
    32
  0
VERTEX
  8
0
  5
10743
 10
60.2527
 20
19.5744
 30
0.000000
  70
    32
  0
VERTEX
  8
0
  5
10744
 10
60.2738
 20
19.6157
 30
0.000000
  70
    32
  0
VERTEX
  8
0
  5
10745
 10
60.2947
 20
19.6570
 30
0.000000
  70
    32
  0
VERTEX
  8
0
  5
10746
 10
60.3156
 20
19.6984
 30
0.000000
  70
    32
  0
VERTEX
  8
0
  5
10747
 10
60.3364
 20
19.7398
 30
0.000000
  70
    32
  0
VERTEX
  8
0
  5
10748
 10
60.3571
 20
19.7812
 30
0.000000
  70
    32
  0
VERTEX
  8
0
  5
10749
 10
60.3778
 20
19.8227
 30
0.000000
  70
    32
  0
VERTEX
  8
0
  5
1074A
 10
60.3983
 20
19.8643
 30
0.000000
  70
    32
  0
VERTEX
  8
0
  5
1074B
 10
60.4188
 20
19.9058
 30
0.000000
  70
    32
  0
VERTEX
  8
0
  5
1074C
 10
60.4391
 20
19.9474
 30
0.000000
  70
    32
  0
VERTEX
  8
0
  5
1074D
 10
60.4594
 20
19.9891
 30
0.000000
  70
    32
  0
VERTEX
  8
0
  5
1074E
 10
60.4796
 20
20.0308
 30
0.000000
  70
    32
  0
VERTEX
  8
0
  5
1074F
 10
60.4997
 20
20.0725
 30
0.000000
  70
    32
  0
VERTEX
  8
0
  5
10750
 10
60.5198
 20
20.1143
 30
0.000000
  70
    32
  0
VERTEX
  8
0
  5
10751
 10
60.5397
 20
20.1561
 30
0.000000
  70
    32
  0
VERTEX
  8
0
  5
10752
 10
60.5596
 20
20.1980
 30
0.000000
  70
    32
  0
VERTEX
  8
0
  5
10753
 10
60.5793
 20
20.2399
 30
0.000000
  70
    32
  0
VERTEX
  8
0
  5
10754
 10
60.5990
 20
20.2818
 30
0.000000
  70
    32
  0
VERTEX
  8
0
  5
10755
 10
60.6186
 20
20.3238
 30
0.000000
  70
    32
  0
VERTEX
  8
0
  5
10756
 10
60.6382
 20
20.3658
 30
0.000000
  70
    32
  0
VERTEX
  8
0
  5
10757
 10
60.6576
 20
20.4079
 30
0.000000
  70
    32
  0
VERTEX
  8
0
  5
10758
 10
60.6769
 20
20.4500
 30
0.000000
  70
    32
  0
VERTEX
  8
0
  5
10759
 10
60.6962
 20
20.4921
 30
0.000000
  70
    32
  0
VERTEX
  8
0
  5
1075A
 10
60.7154
 20
20.5343
 30
0.000000
  70
    32
  0
VERTEX
  8
0
  5
1075B
 10
60.7345
 20
20.5765
 30
0.000000
  70
    32
  0
VERTEX
  8
0
  5
1075C
 10
60.7535
 20
20.6188
 30
0.000000
  70
    32
  0
VERTEX
  8
0
  5
1075D
 10
60.7724
 20
20.6611
 30
0.000000
  70
    32
  0
VERTEX
  8
0
  5
1075E
 10
60.7913
 20
20.7034
 30
0.000000
  70
    32
  0
VERTEX
  8
0
  5
1075F
 10
60.8100
 20
20.7458
 30
0.000000
  70
    32
  0
VERTEX
  8
0
  5
10760
 10
60.8287
 20
20.7882
 30
0.000000
  70
    32
  0
VERTEX
  8
0
  5
10761
 10
60.8472
 20
20.8306
 30
0.000000
  70
    32
  0
VERTEX
  8
0
  5
10762
 10
60.8657
 20
20.8731
 30
0.000000
  70
    32
  0
VERTEX
  8
0
  5
10763
 10
60.8841
 20
20.9156
 30
0.000000
  70
    32
  0
VERTEX
  8
0
  5
10764
 10
60.9025
 20
20.9581
 30
0.000000
  70
    32
  0
VERTEX
  8
0
  5
10765
 10
60.9207
 20
21.0007
 30
0.000000
  70
    32
  0
VERTEX
  8
0
  5
10766
 10
60.9388
 20
21.0434
 30
0.000000
  70
    32
  0
VERTEX
  8
0
  5
10767
 10
60.9569
 20
21.0860
 30
0.000000
  70
    32
  0
VERTEX
  8
0
  5
10768
 10
60.9749
 20
21.1287
 30
0.000000
  70
    32
  0
VERTEX
  8
0
  5
10769
 10
60.9928
 20
21.1714
 30
0.000000
  70
    32
  0
VERTEX
  8
0
  5
1076A
 10
61.0106
 20
21.2142
 30
0.000000
  70
    32
  0
VERTEX
  8
0
  5
1076B
 10
61.0283
 20
21.2570
 30
0.000000
  70
    32
  0
VERTEX
  8
0
  5
1076C
 10
61.0459
 20
21.2998
 30
0.000000
  70
    32
  0
VERTEX
  8
0
  5
1076D
 10
61.0635
 20
21.3427
 30
0.000000
  70
    32
  0
VERTEX
  8
0
  5
1076E
 10
61.0809
 20
21.3856
 30
0.000000
  70
    32
  0
VERTEX
  8
0
  5
1076F
 10
61.0983
 20
21.4285
 30
0.000000
  70
    32
  0
VERTEX
  8
0
  5
10770
 10
61.1156
 20
21.4715
 30
0.000000
  70
    32
  0
VERTEX
  8
0
  5
10771
 10
61.1328
 20
21.5145
 30
0.000000
  70
    32
  0
VERTEX
  8
0
  5
10772
 10
61.1499
 20
21.5575
 30
0.000000
  70
    32
  0
VERTEX
  8
0
  5
10773
 10
61.1669
 20
21.6006
 30
0.000000
  70
    32
  0
VERTEX
  8
0
  5
10774
 10
61.1839
 20
21.6437
 30
0.000000
  70
    32
  0
VERTEX
  8
0
  5
10775
 10
61.2007
 20
21.6868
 30
0.000000
  70
    32
  0
SEQEND
  8
0
  5
10776
  0
LINE
  5
F80B
  8
0
 10
40.499955999999187
 20
17.500019999999939
 30
0.0
 11
38.999954999998863
 21
11.50001999999995
 31
0.0
  0
LINE
  5
F80C
  8
0
 10
36.67102699999986
 20
26.02635000000009
 30
0.0
 11
31.234332999999872
 21
22.919669999999989
 31
0.0
  0
LINE
  5
F80D
  8
0
 10
41.999999999999538
 20
26.72545000000013
 30
0.0
 11
41.999999999999538
 21
17.5
 31
0.0
  0
LINE
  5
F80E
  8
0
 10
41.999999999999538
 20
7.5000000000002274
 30
0.0
 11
41.999999999999538
 21
6.0000099999999739
 31
0.0
  0
LINE
  5
F80F
  8
0
 10
42.999964000000091
 20
27.725490000000029
 30
0.0
 11
41.999962999999752
 21
26.725490000000029
 31
0.0
  0
ARC
  5
F810
  8
0
 10
37.167480999999952
 20
25.157570000000071
 30
0.0
 40
1.0
 50
30.852850000001808
 51
119.7448839999871
  0
ARC
  5
F811
  8
0
 10
31.73046100000056
 20
22.05146000000013
 30
0.0
 40
1.0
 50
119.7448839999871
 51
201.27633999998571
  0
POLYLINE
  8
0
  5
10777
  66
     1
 10
0.000000
 20
0.000000
 30
0.000000
  70
     8
  0
VERTEX
  8
0
  5
10778
 10
40.5000
 20
17.5000
 30
0.000000
  70
    32
  0
VERTEX
  8
0
  5
10779
 10
40.4984
 20
17.5300
 30
0.000000
  70
    32
  0
VERTEX
  8
0
  5
1077A
 10
40.4968
 20
17.5600
 30
0.000000
  70
    32
  0
VERTEX
  8
0
  5
1077B
 10
40.4951
 20
17.5900
 30
0.000000
  70
    32
  0
VERTEX
  8
0
  5
1077C
 10
40.4934
 20
17.6200
 30
0.000000
  70
    32
  0
VERTEX
  8
0
  5
1077D
 10
40.4916
 20
17.6500
 30
0.000000
  70
    32
  0
VERTEX
  8
0
  5
1077E
 10
40.4898
 20
17.6800
 30
0.000000
  70
    32
  0
VERTEX
  8
0
  5
1077F
 10
40.4879
 20
17.7100
 30
0.000000
  70
    32
  0
VERTEX
  8
0
  5
10780
 10
40.4860
 20
17.7399
 30
0.000000
  70
    32
  0
VERTEX
  8
0
  5
10781
 10
40.4840
 20
17.7699
 30
0.000000
  70
    32
  0
VERTEX
  8
0
  5
10782
 10
40.4820
 20
17.7999
 30
0.000000
  70
    32
  0
VERTEX
  8
0
  5
10783
 10
40.4800
 20
17.8299
 30
0.000000
  70
    32
  0
VERTEX
  8
0
  5
10784
 10
40.4779
 20
17.8598
 30
0.000000
  70
    32
  0
VERTEX
  8
0
  5
10785
 10
40.4757
 20
17.8898
 30
0.000000
  70
    32
  0
VERTEX
  8
0
  5
10786
 10
40.4735
 20
17.9198
 30
0.000000
  70
    32
  0
VERTEX
  8
0
  5
10787
 10
40.4712
 20
17.9497
 30
0.000000
  70
    32
  0
VERTEX
  8
0
  5
10788
 10
40.4689
 20
17.9797
 30
0.000000
  70
    32
  0
VERTEX
  8
0
  5
10789
 10
40.4666
 20
18.0096
 30
0.000000
  70
    32
  0
VERTEX
  8
0
  5
1078A
 10
40.4642
 20
18.0396
 30
0.000000
  70
    32
  0
VERTEX
  8
0
  5
1078B
 10
40.4617
 20
18.0695
 30
0.000000
  70
    32
  0
VERTEX
  8
0
  5
1078C
 10
40.4592
 20
18.0995
 30
0.000000
  70
    32
  0
VERTEX
  8
0
  5
1078D
 10
40.4567
 20
18.1294
 30
0.000000
  70
    32
  0
VERTEX
  8
0
  5
1078E
 10
40.4541
 20
18.1594
 30
0.000000
  70
    32
  0
VERTEX
  8
0
  5
1078F
 10
40.4514
 20
18.1893
 30
0.000000
  70
    32
  0
VERTEX
  8
0
  5
10790
 10
40.4487
 20
18.2192
 30
0.000000
  70
    32
  0
VERTEX
  8
0
  5
10791
 10
40.4460
 20
18.2492
 30
0.000000
  70
    32
  0
VERTEX
  8
0
  5
10792
 10
40.4432
 20
18.2791
 30
0.000000
  70
    32
  0
VERTEX
  8
0
  5
10793
 10
40.4403
 20
18.3090
 30
0.000000
  70
    32
  0
VERTEX
  8
0
  5
10794
 10
40.4375
 20
18.3389
 30
0.000000
  70
    32
  0
VERTEX
  8
0
  5
10795
 10
40.4345
 20
18.3688
 30
0.000000
  70
    32
  0
VERTEX
  8
0
  5
10796
 10
40.4315
 20
18.3987
 30
0.000000
  70
    32
  0
VERTEX
  8
0
  5
10797
 10
40.4285
 20
18.4286
 30
0.000000
  70
    32
  0
VERTEX
  8
0
  5
10798
 10
40.4254
 20
18.4585
 30
0.000000
  70
    32
  0
VERTEX
  8
0
  5
10799
 10
40.4223
 20
18.4884
 30
0.000000
  70
    32
  0
VERTEX
  8
0
  5
1079A
 10
40.4191
 20
18.5183
 30
0.000000
  70
    32
  0
VERTEX
  8
0
  5
1079B
 10
40.4158
 20
18.5481
 30
0.000000
  70
    32
  0
VERTEX
  8
0
  5
1079C
 10
40.4126
 20
18.5780
 30
0.000000
  70
    32
  0
VERTEX
  8
0
  5
1079D
 10
40.4092
 20
18.6079
 30
0.000000
  70
    32
  0
VERTEX
  8
0
  5
1079E
 10
40.4059
 20
18.6377
 30
0.000000
  70
    32
  0
VERTEX
  8
0
  5
1079F
 10
40.4024
 20
18.6676
 30
0.000000
  70
    32
  0
VERTEX
  8
0
  5
107A0
 10
40.3990
 20
18.6974
 30
0.000000
  70
    32
  0
VERTEX
  8
0
  5
107A1
 10
40.3954
 20
18.7273
 30
0.000000
  70
    32
  0
VERTEX
  8
0
  5
107A2
 10
40.3919
 20
18.7571
 30
0.000000
  70
    32
  0
VERTEX
  8
0
  5
107A3
 10
40.3882
 20
18.7870
 30
0.000000
  70
    32
  0
VERTEX
  8
0
  5
107A4
 10
40.3846
 20
18.8168
 30
0.000000
  70
    32
  0
VERTEX
  8
0
  5
107A5
 10
40.3808
 20
18.8466
 30
0.000000
  70
    32
  0
VERTEX
  8
0
  5
107A6
 10
40.3771
 20
18.8764
 30
0.000000
  70
    32
  0
VERTEX
  8
0
  5
107A7
 10
40.3732
 20
18.9062
 30
0.000000
  70
    32
  0
VERTEX
  8
0
  5
107A8
 10
40.3694
 20
18.9360
 30
0.000000
  70
    32
  0
VERTEX
  8
0
  5
107A9
 10
40.3655
 20
18.9658
 30
0.000000
  70
    32
  0
VERTEX
  8
0
  5
107AA
 10
40.3615
 20
18.9956
 30
0.000000
  70
    32
  0
VERTEX
  8
0
  5
107AB
 10
40.3575
 20
19.0254
 30
0.000000
  70
    32
  0
VERTEX
  8
0
  5
107AC
 10
40.3534
 20
19.0552
 30
0.000000
  70
    32
  0
VERTEX
  8
0
  5
107AD
 10
40.3493
 20
19.0849
 30
0.000000
  70
    32
  0
VERTEX
  8
0
  5
107AE
 10
40.3451
 20
19.1147
 30
0.000000
  70
    32
  0
VERTEX
  8
0
  5
107AF
 10
40.3409
 20
19.1444
 30
0.000000
  70
    32
  0
VERTEX
  8
0
  5
107B0
 10
40.3367
 20
19.1742
 30
0.000000
  70
    32
  0
VERTEX
  8
0
  5
107B1
 10
40.3323
 20
19.2039
 30
0.000000
  70
    32
  0
VERTEX
  8
0
  5
107B2
 10
40.3280
 20
19.2337
 30
0.000000
  70
    32
  0
VERTEX
  8
0
  5
107B3
 10
40.3236
 20
19.2634
 30
0.000000
  70
    32
  0
VERTEX
  8
0
  5
107B4
 10
40.3191
 20
19.2931
 30
0.000000
  70
    32
  0
VERTEX
  8
0
  5
107B5
 10
40.3146
 20
19.3228
 30
0.000000
  70
    32
  0
VERTEX
  8
0
  5
107B6
 10
40.3100
 20
19.3525
 30
0.000000
  70
    32
  0
VERTEX
  8
0
  5
107B7
 10
40.3054
 20
19.3822
 30
0.000000
  70
    32
  0
VERTEX
  8
0
  5
107B8
 10
40.3008
 20
19.4119
 30
0.000000
  70
    32
  0
VERTEX
  8
0
  5
107B9
 10
40.2961
 20
19.4416
 30
0.000000
  70
    32
  0
VERTEX
  8
0
  5
107BA
 10
40.2913
 20
19.4712
 30
0.000000
  70
    32
  0
VERTEX
  8
0
  5
107BB
 10
40.2865
 20
19.5009
 30
0.000000
  70
    32
  0
VERTEX
  8
0
  5
107BC
 10
40.2817
 20
19.5305
 30
0.000000
  70
    32
  0
VERTEX
  8
0
  5
107BD
 10
40.2768
 20
19.5602
 30
0.000000
  70
    32
  0
VERTEX
  8
0
  5
107BE
 10
40.2718
 20
19.5898
 30
0.000000
  70
    32
  0
VERTEX
  8
0
  5
107BF
 10
40.2668
 20
19.6195
 30
0.000000
  70
    32
  0
VERTEX
  8
0
  5
107C0
 10
40.2618
 20
19.6491
 30
0.000000
  70
    32
  0
VERTEX
  8
0
  5
107C1
 10
40.2566
 20
19.6787
 30
0.000000
  70
    32
  0
VERTEX
  8
0
  5
107C2
 10
40.2515
 20
19.7083
 30
0.000000
  70
    32
  0
VERTEX
  8
0
  5
107C3
 10
40.2463
 20
19.7379
 30
0.000000
  70
    32
  0
VERTEX
  8
0
  5
107C4
 10
40.2410
 20
19.7675
 30
0.000000
  70
    32
  0
VERTEX
  8
0
  5
107C5
 10
40.2357
 20
19.7971
 30
0.000000
  70
    32
  0
VERTEX
  8
0
  5
107C6
 10
40.2304
 20
19.8266
 30
0.000000
  70
    32
  0
VERTEX
  8
0
  5
107C7
 10
40.2250
 20
19.8562
 30
0.000000
  70
    32
  0
VERTEX
  8
0
  5
107C8
 10
40.2196
 20
19.8857
 30
0.000000
  70
    32
  0
VERTEX
  8
0
  5
107C9
 10
40.2141
 20
19.9153
 30
0.000000
  70
    32
  0
VERTEX
  8
0
  5
107CA
 10
40.2085
 20
19.9448
 30
0.000000
  70
    32
  0
VERTEX
  8
0
  5
107CB
 10
40.2029
 20
19.9743
 30
0.000000
  70
    32
  0
VERTEX
  8
0
  5
107CC
 10
40.1973
 20
20.0038
 30
0.000000
  70
    32
  0
VERTEX
  8
0
  5
107CD
 10
40.1916
 20
20.0333
 30
0.000000
  70
    32
  0
VERTEX
  8
0
  5
107CE
 10
40.1858
 20
20.0628
 30
0.000000
  70
    32
  0
VERTEX
  8
0
  5
107CF
 10
40.1800
 20
20.0923
 30
0.000000
  70
    32
  0
VERTEX
  8
0
  5
107D0
 10
40.1742
 20
20.1218
 30
0.000000
  70
    32
  0
VERTEX
  8
0
  5
107D1
 10
40.1683
 20
20.1513
 30
0.000000
  70
    32
  0
VERTEX
  8
0
  5
107D2
 10
40.1623
 20
20.1807
 30
0.000000
  70
    32
  0
VERTEX
  8
0
  5
107D3
 10
40.1563
 20
20.2102
 30
0.000000
  70
    32
  0
VERTEX
  8
0
  5
107D4
 10
40.1503
 20
20.2396
 30
0.000000
  70
    32
  0
VERTEX
  8
0
  5
107D5
 10
40.1442
 20
20.2690
 30
0.000000
  70
    32
  0
VERTEX
  8
0
  5
107D6
 10
40.1381
 20
20.2984
 30
0.000000
  70
    32
  0
VERTEX
  8
0
  5
107D7
 10
40.1319
 20
20.3278
 30
0.000000
  70
    32
  0
VERTEX
  8
0
  5
107D8
 10
40.1256
 20
20.3572
 30
0.000000
  70
    32
  0
VERTEX
  8
0
  5
107D9
 10
40.1193
 20
20.3866
 30
0.000000
  70
    32
  0
VERTEX
  8
0
  5
107DA
 10
40.1130
 20
20.4160
 30
0.000000
  70
    32
  0
VERTEX
  8
0
  5
107DB
 10
40.1066
 20
20.4453
 30
0.000000
  70
    32
  0
VERTEX
  8
0
  5
107DC
 10
40.1001
 20
20.4747
 30
0.000000
  70
    32
  0
VERTEX
  8
0
  5
107DD
 10
40.0936
 20
20.5040
 30
0.000000
  70
    32
  0
VERTEX
  8
0
  5
107DE
 10
40.0871
 20
20.5334
 30
0.000000
  70
    32
  0
VERTEX
  8
0
  5
107DF
 10
40.0805
 20
20.5627
 30
0.000000
  70
    32
  0
VERTEX
  8
0
  5
107E0
 10
40.0739
 20
20.5920
 30
0.000000
  70
    32
  0
VERTEX
  8
0
  5
107E1
 10
40.0672
 20
20.6213
 30
0.000000
  70
    32
  0
VERTEX
  8
0
  5
107E2
 10
40.0604
 20
20.6506
 30
0.000000
  70
    32
  0
VERTEX
  8
0
  5
107E3
 10
40.0536
 20
20.6798
 30
0.000000
  70
    32
  0
VERTEX
  8
0
  5
107E4
 10
40.0468
 20
20.7091
 30
0.000000
  70
    32
  0
VERTEX
  8
0
  5
107E5
 10
40.0399
 20
20.7383
 30
0.000000
  70
    32
  0
VERTEX
  8
0
  5
107E6
 10
40.0329
 20
20.7676
 30
0.000000
  70
    32
  0
VERTEX
  8
0
  5
107E7
 10
40.0259
 20
20.7968
 30
0.000000
  70
    32
  0
VERTEX
  8
0
  5
107E8
 10
40.0189
 20
20.8260
 30
0.000000
  70
    32
  0
VERTEX
  8
0
  5
107E9
 10
40.0118
 20
20.8552
 30
0.000000
  70
    32
  0
VERTEX
  8
0
  5
107EA
 10
40.0046
 20
20.8844
 30
0.000000
  70
    32
  0
VERTEX
  8
0
  5
107EB
 10
39.9974
 20
20.9136
 30
0.000000
  70
    32
  0
VERTEX
  8
0
  5
107EC
 10
39.9902
 20
20.9427
 30
0.000000
  70
    32
  0
VERTEX
  8
0
  5
107ED
 10
39.9829
 20
20.9719
 30
0.000000
  70
    32
  0
VERTEX
  8
0
  5
107EE
 10
39.9755
 20
21.0010
 30
0.000000
  70
    32
  0
VERTEX
  8
0
  5
107EF
 10
39.9681
 20
21.0301
 30
0.000000
  70
    32
  0
VERTEX
  8
0
  5
107F0
 10
39.9607
 20
21.0592
 30
0.000000
  70
    32
  0
VERTEX
  8
0
  5
107F1
 10
39.9532
 20
21.0883
 30
0.000000
  70
    32
  0
VERTEX
  8
0
  5
107F2
 10
39.9456
 20
21.1174
 30
0.000000
  70
    32
  0
VERTEX
  8
0
  5
107F3
 10
39.9380
 20
21.1465
 30
0.000000
  70
    32
  0
VERTEX
  8
0
  5
107F4
 10
39.9304
 20
21.1756
 30
0.000000
  70
    32
  0
VERTEX
  8
0
  5
107F5
 10
39.9227
 20
21.2046
 30
0.000000
  70
    32
  0
VERTEX
  8
0
  5
107F6
 10
39.9149
 20
21.2336
 30
0.000000
  70
    32
  0
VERTEX
  8
0
  5
107F7
 10
39.9071
 20
21.2627
 30
0.000000
  70
    32
  0
VERTEX
  8
0
  5
107F8
 10
39.8992
 20
21.2917
 30
0.000000
  70
    32
  0
VERTEX
  8
0
  5
107F9
 10
39.8913
 20
21.3206
 30
0.000000
  70
    32
  0
VERTEX
  8
0
  5
107FA
 10
39.8834
 20
21.3496
 30
0.000000
  70
    32
  0
VERTEX
  8
0
  5
107FB
 10
39.8754
 20
21.3786
 30
0.000000
  70
    32
  0
VERTEX
  8
0
  5
107FC
 10
39.8673
 20
21.4075
 30
0.000000
  70
    32
  0
VERTEX
  8
0
  5
107FD
 10
39.8592
 20
21.4365
 30
0.000000
  70
    32
  0
VERTEX
  8
0
  5
107FE
 10
39.8510
 20
21.4654
 30
0.000000
  70
    32
  0
VERTEX
  8
0
  5
107FF
 10
39.8428
 20
21.4943
 30
0.000000
  70
    32
  0
VERTEX
  8
0
  5
10800
 10
39.8345
 20
21.5232
 30
0.000000
  70
    32
  0
VERTEX
  8
0
  5
10801
 10
39.8262
 20
21.5521
 30
0.000000
  70
    32
  0
VERTEX
  8
0
  5
10802
 10
39.8178
 20
21.5809
 30
0.000000
  70
    32
  0
VERTEX
  8
0
  5
10803
 10
39.8094
 20
21.6098
 30
0.000000
  70
    32
  0
VERTEX
  8
0
  5
10804
 10
39.8010
 20
21.6386
 30
0.000000
  70
    32
  0
VERTEX
  8
0
  5
10805
 10
39.7924
 20
21.6674
 30
0.000000
  70
    32
  0
VERTEX
  8
0
  5
10806
 10
39.7839
 20
21.6962
 30
0.000000
  70
    32
  0
VERTEX
  8
0
  5
10807
 10
39.7752
 20
21.7250
 30
0.000000
  70
    32
  0
VERTEX
  8
0
  5
10808
 10
39.7666
 20
21.7538
 30
0.000000
  70
    32
  0
VERTEX
  8
0
  5
10809
 10
39.7578
 20
21.7825
 30
0.000000
  70
    32
  0
VERTEX
  8
0
  5
1080A
 10
39.7490
 20
21.8112
 30
0.000000
  70
    32
  0
VERTEX
  8
0
  5
1080B
 10
39.7402
 20
21.8400
 30
0.000000
  70
    32
  0
VERTEX
  8
0
  5
1080C
 10
39.7313
 20
21.8687
 30
0.000000
  70
    32
  0
VERTEX
  8
0
  5
1080D
 10
39.7224
 20
21.8974
 30
0.000000
  70
    32
  0
VERTEX
  8
0
  5
1080E
 10
39.7134
 20
21.9260
 30
0.000000
  70
    32
  0
VERTEX
  8
0
  5
1080F
 10
39.7044
 20
21.9547
 30
0.000000
  70
    32
  0
VERTEX
  8
0
  5
10810
 10
39.6953
 20
21.9833
 30
0.000000
  70
    32
  0
VERTEX
  8
0
  5
10811
 10
39.6862
 20
22.0120
 30
0.000000
  70
    32
  0
VERTEX
  8
0
  5
10812
 10
39.6770
 20
22.0406
 30
0.000000
  70
    32
  0
VERTEX
  8
0
  5
10813
 10
39.6677
 20
22.0692
 30
0.000000
  70
    32
  0
VERTEX
  8
0
  5
10814
 10
39.6584
 20
22.0978
 30
0.000000
  70
    32
  0
VERTEX
  8
0
  5
10815
 10
39.6491
 20
22.1263
 30
0.000000
  70
    32
  0
VERTEX
  8
0
  5
10816
 10
39.6397
 20
22.1549
 30
0.000000
  70
    32
  0
VERTEX
  8
0
  5
10817
 10
39.6303
 20
22.1834
 30
0.000000
  70
    32
  0
VERTEX
  8
0
  5
10818
 10
39.6208
 20
22.2119
 30
0.000000
  70
    32
  0
VERTEX
  8
0
  5
10819
 10
39.6112
 20
22.2404
 30
0.000000
  70
    32
  0
VERTEX
  8
0
  5
1081A
 10
39.6016
 20
22.2689
 30
0.000000
  70
    32
  0
VERTEX
  8
0
  5
1081B
 10
39.5920
 20
22.2973
 30
0.000000
  70
    32
  0
VERTEX
  8
0
  5
1081C
 10
39.5823
 20
22.3258
 30
0.000000
  70
    32
  0
VERTEX
  8
0
  5
1081D
 10
39.5725
 20
22.3542
 30
0.000000
  70
    32
  0
VERTEX
  8
0
  5
1081E
 10
39.5627
 20
22.3826
 30
0.000000
  70
    32
  0
VERTEX
  8
0
  5
1081F
 10
39.5529
 20
22.4110
 30
0.000000
  70
    32
  0
VERTEX
  8
0
  5
10820
 10
39.5430
 20
22.4394
 30
0.000000
  70
    32
  0
VERTEX
  8
0
  5
10821
 10
39.5331
 20
22.4677
 30
0.000000
  70
    32
  0
VERTEX
  8
0
  5
10822
 10
39.5231
 20
22.4961
 30
0.000000
  70
    32
  0
VERTEX
  8
0
  5
10823
 10
39.5130
 20
22.5244
 30
0.000000
  70
    32
  0
VERTEX
  8
0
  5
10824
 10
39.5029
 20
22.5527
 30
0.000000
  70
    32
  0
VERTEX
  8
0
  5
10825
 10
39.4928
 20
22.5810
 30
0.000000
  70
    32
  0
VERTEX
  8
0
  5
10826
 10
39.4826
 20
22.6092
 30
0.000000
  70
    32
  0
VERTEX
  8
0
  5
10827
 10
39.4723
 20
22.6375
 30
0.000000
  70
    32
  0
VERTEX
  8
0
  5
10828
 10
39.4620
 20
22.6657
 30
0.000000
  70
    32
  0
VERTEX
  8
0
  5
10829
 10
39.4517
 20
22.6939
 30
0.000000
  70
    32
  0
VERTEX
  8
0
  5
1082A
 10
39.4413
 20
22.7221
 30
0.000000
  70
    32
  0
VERTEX
  8
0
  5
1082B
 10
39.4308
 20
22.7503
 30
0.000000
  70
    32
  0
VERTEX
  8
0
  5
1082C
 10
39.4204
 20
22.7785
 30
0.000000
  70
    32
  0
VERTEX
  8
0
  5
1082D
 10
39.4098
 20
22.8066
 30
0.000000
  70
    32
  0
VERTEX
  8
0
  5
1082E
 10
39.3992
 20
22.8347
 30
0.000000
  70
    32
  0
VERTEX
  8
0
  5
1082F
 10
39.3886
 20
22.8628
 30
0.000000
  70
    32
  0
VERTEX
  8
0
  5
10830
 10
39.3779
 20
22.8909
 30
0.000000
  70
    32
  0
VERTEX
  8
0
  5
10831
 10
39.3671
 20
22.9190
 30
0.000000
  70
    32
  0
VERTEX
  8
0
  5
10832
 10
39.3563
 20
22.9470
 30
0.000000
  70
    32
  0
VERTEX
  8
0
  5
10833
 10
39.3455
 20
22.9750
 30
0.000000
  70
    32
  0
VERTEX
  8
0
  5
10834
 10
39.3346
 20
23.0030
 30
0.000000
  70
    32
  0
VERTEX
  8
0
  5
10835
 10
39.3237
 20
23.0310
 30
0.000000
  70
    32
  0
VERTEX
  8
0
  5
10836
 10
39.3127
 20
23.0590
 30
0.000000
  70
    32
  0
VERTEX
  8
0
  5
10837
 10
39.3017
 20
23.0870
 30
0.000000
  70
    32
  0
VERTEX
  8
0
  5
10838
 10
39.2906
 20
23.1149
 30
0.000000
  70
    32
  0
VERTEX
  8
0
  5
10839
 10
39.2794
 20
23.1428
 30
0.000000
  70
    32
  0
VERTEX
  8
0
  5
1083A
 10
39.2683
 20
23.1707
 30
0.000000
  70
    32
  0
VERTEX
  8
0
  5
1083B
 10
39.2570
 20
23.1986
 30
0.000000
  70
    32
  0
VERTEX
  8
0
  5
1083C
 10
39.2457
 20
23.2264
 30
0.000000
  70
    32
  0
VERTEX
  8
0
  5
1083D
 10
39.2344
 20
23.2542
 30
0.000000
  70
    32
  0
VERTEX
  8
0
  5
1083E
 10
39.2230
 20
23.2820
 30
0.000000
  70
    32
  0
VERTEX
  8
0
  5
1083F
 10
39.2116
 20
23.3098
 30
0.000000
  70
    32
  0
VERTEX
  8
0
  5
10840
 10
39.2001
 20
23.3376
 30
0.000000
  70
    32
  0
VERTEX
  8
0
  5
10841
 10
39.1886
 20
23.3654
 30
0.000000
  70
    32
  0
VERTEX
  8
0
  5
10842
 10
39.1771
 20
23.3931
 30
0.000000
  70
    32
  0
VERTEX
  8
0
  5
10843
 10
39.1654
 20
23.4208
 30
0.000000
  70
    32
  0
VERTEX
  8
0
  5
10844
 10
39.1538
 20
23.4485
 30
0.000000
  70
    32
  0
VERTEX
  8
0
  5
10845
 10
39.1421
 20
23.4762
 30
0.000000
  70
    32
  0
VERTEX
  8
0
  5
10846
 10
39.1303
 20
23.5038
 30
0.000000
  70
    32
  0
VERTEX
  8
0
  5
10847
 10
39.1185
 20
23.5315
 30
0.000000
  70
    32
  0
VERTEX
  8
0
  5
10848
 10
39.1066
 20
23.5591
 30
0.000000
  70
    32
  0
VERTEX
  8
0
  5
10849
 10
39.0947
 20
23.5867
 30
0.000000
  70
    32
  0
VERTEX
  8
0
  5
1084A
 10
39.0828
 20
23.6142
 30
0.000000
  70
    32
  0
VERTEX
  8
0
  5
1084B
 10
39.0708
 20
23.6418
 30
0.000000
  70
    32
  0
VERTEX
  8
0
  5
1084C
 10
39.0587
 20
23.6693
 30
0.000000
  70
    32
  0
VERTEX
  8
0
  5
1084D
 10
39.0466
 20
23.6968
 30
0.000000
  70
    32
  0
VERTEX
  8
0
  5
1084E
 10
39.0345
 20
23.7243
 30
0.000000
  70
    32
  0
VERTEX
  8
0
  5
1084F
 10
39.0223
 20
23.7518
 30
0.000000
  70
    32
  0
VERTEX
  8
0
  5
10850
 10
39.0101
 20
23.7792
 30
0.000000
  70
    32
  0
VERTEX
  8
0
  5
10851
 10
38.9978
 20
23.8066
 30
0.000000
  70
    32
  0
VERTEX
  8
0
  5
10852
 10
38.9855
 20
23.8340
 30
0.000000
  70
    32
  0
VERTEX
  8
0
  5
10853
 10
38.9731
 20
23.8614
 30
0.000000
  70
    32
  0
VERTEX
  8
0
  5
10854
 10
38.9607
 20
23.8888
 30
0.000000
  70
    32
  0
VERTEX
  8
0
  5
10855
 10
38.9482
 20
23.9161
 30
0.000000
  70
    32
  0
VERTEX
  8
0
  5
10856
 10
38.9357
 20
23.9434
 30
0.000000
  70
    32
  0
VERTEX
  8
0
  5
10857
 10
38.9231
 20
23.9707
 30
0.000000
  70
    32
  0
VERTEX
  8
0
  5
10858
 10
38.9105
 20
23.9980
 30
0.000000
  70
    32
  0
VERTEX
  8
0
  5
10859
 10
38.8978
 20
24.0253
 30
0.000000
  70
    32
  0
VERTEX
  8
0
  5
1085A
 10
38.8851
 20
24.0525
 30
0.000000
  70
    32
  0
VERTEX
  8
0
  5
1085B
 10
38.8724
 20
24.0797
 30
0.000000
  70
    32
  0
VERTEX
  8
0
  5
1085C
 10
38.8596
 20
24.1069
 30
0.000000
  70
    32
  0
VERTEX
  8
0
  5
1085D
 10
38.8468
 20
24.1341
 30
0.000000
  70
    32
  0
VERTEX
  8
0
  5
1085E
 10
38.8339
 20
24.1612
 30
0.000000
  70
    32
  0
VERTEX
  8
0
  5
1085F
 10
38.8209
 20
24.1883
 30
0.000000
  70
    32
  0
VERTEX
  8
0
  5
10860
 10
38.8080
 20
24.2154
 30
0.000000
  70
    32
  0
VERTEX
  8
0
  5
10861
 10
38.7949
 20
24.2425
 30
0.000000
  70
    32
  0
VERTEX
  8
0
  5
10862
 10
38.7819
 20
24.2696
 30
0.000000
  70
    32
  0
VERTEX
  8
0
  5
10863
 10
38.7688
 20
24.2966
 30
0.000000
  70
    32
  0
VERTEX
  8
0
  5
10864
 10
38.7556
 20
24.3236
 30
0.000000
  70
    32
  0
VERTEX
  8
0
  5
10865
 10
38.7424
 20
24.3506
 30
0.000000
  70
    32
  0
VERTEX
  8
0
  5
10866
 10
38.7291
 20
24.3776
 30
0.000000
  70
    32
  0
VERTEX
  8
0
  5
10867
 10
38.7158
 20
24.4045
 30
0.000000
  70
    32
  0
VERTEX
  8
0
  5
10868
 10
38.7025
 20
24.4315
 30
0.000000
  70
    32
  0
VERTEX
  8
0
  5
10869
 10
38.6891
 20
24.4584
 30
0.000000
  70
    32
  0
VERTEX
  8
0
  5
1086A
 10
38.6757
 20
24.4853
 30
0.000000
  70
    32
  0
VERTEX
  8
0
  5
1086B
 10
38.6622
 20
24.5121
 30
0.000000
  70
    32
  0
VERTEX
  8
0
  5
1086C
 10
38.6487
 20
24.5390
 30
0.000000
  70
    32
  0
VERTEX
  8
0
  5
1086D
 10
38.6351
 20
24.5658
 30
0.000000
  70
    32
  0
VERTEX
  8
0
  5
1086E
 10
38.6215
 20
24.5926
 30
0.000000
  70
    32
  0
VERTEX
  8
0
  5
1086F
 10
38.6079
 20
24.6193
 30
0.000000
  70
    32
  0
VERTEX
  8
0
  5
10870
 10
38.5942
 20
24.6461
 30
0.000000
  70
    32
  0
VERTEX
  8
0
  5
10871
 10
38.5804
 20
24.6728
 30
0.000000
  70
    32
  0
VERTEX
  8
0
  5
10872
 10
38.5666
 20
24.6995
 30
0.000000
  70
    32
  0
VERTEX
  8
0
  5
10873
 10
38.5528
 20
24.7262
 30
0.000000
  70
    32
  0
VERTEX
  8
0
  5
10874
 10
38.5389
 20
24.7528
 30
0.000000
  70
    32
  0
VERTEX
  8
0
  5
10875
 10
38.5250
 20
24.7795
 30
0.000000
  70
    32
  0
VERTEX
  8
0
  5
10876
 10
38.5110
 20
24.8061
 30
0.000000
  70
    32
  0
VERTEX
  8
0
  5
10877
 10
38.4970
 20
24.8327
 30
0.000000
  70
    32
  0
VERTEX
  8
0
  5
10878
 10
38.4830
 20
24.8592
 30
0.000000
  70
    32
  0
VERTEX
  8
0
  5
10879
 10
38.4689
 20
24.8858
 30
0.000000
  70
    32
  0
VERTEX
  8
0
  5
1087A
 10
38.4547
 20
24.9123
 30
0.000000
  70
    32
  0
VERTEX
  8
0
  5
1087B
 10
38.4405
 20
24.9388
 30
0.000000
  70
    32
  0
VERTEX
  8
0
  5
1087C
 10
38.4263
 20
24.9652
 30
0.000000
  70
    32
  0
VERTEX
  8
0
  5
1087D
 10
38.4120
 20
24.9917
 30
0.000000
  70
    32
  0
VERTEX
  8
0
  5
1087E
 10
38.3977
 20
25.0181
 30
0.000000
  70
    32
  0
VERTEX
  8
0
  5
1087F
 10
38.3833
 20
25.0445
 30
0.000000
  70
    32
  0
VERTEX
  8
0
  5
10880
 10
38.3689
 20
25.0709
 30
0.000000
  70
    32
  0
VERTEX
  8
0
  5
10881
 10
38.3545
 20
25.0972
 30
0.000000
  70
    32
  0
VERTEX
  8
0
  5
10882
 10
38.3400
 20
25.1235
 30
0.000000
  70
    32
  0
VERTEX
  8
0
  5
10883
 10
38.3255
 20
25.1498
 30
0.000000
  70
    32
  0
VERTEX
  8
0
  5
10884
 10
38.3109
 20
25.1761
 30
0.000000
  70
    32
  0
VERTEX
  8
0
  5
10885
 10
38.2963
 20
25.2024
 30
0.000000
  70
    32
  0
VERTEX
  8
0
  5
10886
 10
38.2816
 20
25.2286
 30
0.000000
  70
    32
  0
VERTEX
  8
0
  5
10887
 10
38.2669
 20
25.2548
 30
0.000000
  70
    32
  0
VERTEX
  8
0
  5
10888
 10
38.2522
 20
25.2810
 30
0.000000
  70
    32
  0
VERTEX
  8
0
  5
10889
 10
38.2374
 20
25.3071
 30
0.000000
  70
    32
  0
VERTEX
  8
0
  5
1088A
 10
38.2225
 20
25.3333
 30
0.000000
  70
    32
  0
VERTEX
  8
0
  5
1088B
 10
38.2076
 20
25.3594
 30
0.000000
  70
    32
  0
VERTEX
  8
0
  5
1088C
 10
38.1927
 20
25.3855
 30
0.000000
  70
    32
  0
VERTEX
  8
0
  5
1088D
 10
38.1778
 20
25.4115
 30
0.000000
  70
    32
  0
VERTEX
  8
0
  5
1088E
 10
38.1628
 20
25.4375
 30
0.000000
  70
    32
  0
VERTEX
  8
0
  5
1088F
 10
38.1477
 20
25.4635
 30
0.000000
  70
    32
  0
VERTEX
  8
0
  5
10890
 10
38.1326
 20
25.4895
 30
0.000000
  70
    32
  0
VERTEX
  8
0
  5
10891
 10
38.1175
 20
25.5155
 30
0.000000
  70
    32
  0
VERTEX
  8
0
  5
10892
 10
38.1023
 20
25.5414
 30
0.000000
  70
    32
  0
VERTEX
  8
0
  5
10893
 10
38.0871
 20
25.5673
 30
0.000000
  70
    32
  0
VERTEX
  8
0
  5
10894
 10
38.0718
 20
25.5932
 30
0.000000
  70
    32
  0
VERTEX
  8
0
  5
10895
 10
38.0565
 20
25.6190
 30
0.000000
  70
    32
  0
VERTEX
  8
0
  5
10896
 10
38.0412
 20
25.6449
 30
0.000000
  70
    32
  0
VERTEX
  8
0
  5
10897
 10
38.0258
 20
25.6707
 30
0.000000
  70
    32
  0
SEQEND
  8
0
  5
10898
  0
POLYLINE
  8
0
  5
10899
  66
     1
 10
0.000000
 20
0.000000
 30
0.000000
  70
     8
  0
VERTEX
  8
0
  5
1089A
 10
39.0000
 20
11.5000
 30
0.000000
  70
    32
  0
VERTEX
  8
0
  5
1089B
 10
38.9613
 20
11.5255
 30
0.000000
  70
    32
  0
VERTEX
  8
0
  5
1089C
 10
38.9227
 20
11.5510
 30
0.000000
  70
    32
  0
VERTEX
  8
0
  5
1089D
 10
38.8841
 20
11.5766
 30
0.000000
  70
    32
  0
VERTEX
  8
0
  5
1089E
 10
38.8456
 20
11.6023
 30
0.000000
  70
    32
  0
VERTEX
  8
0
  5
1089F
 10
38.8071
 20
11.6281
 30
0.000000
  70
    32
  0
VERTEX
  8
0
  5
108A0
 10
38.7687
 20
11.6539
 30
0.000000
  70
    32
  0
VERTEX
  8
0
  5
108A1
 10
38.7303
 20
11.6799
 30
0.000000
  70
    32
  0
VERTEX
  8
0
  5
108A2
 10
38.6920
 20
11.7059
 30
0.000000
  70
    32
  0
VERTEX
  8
0
  5
108A3
 10
38.6537
 20
11.7320
 30
0.000000
  70
    32
  0
VERTEX
  8
0
  5
108A4
 10
38.6155
 20
11.7581
 30
0.000000
  70
    32
  0
VERTEX
  8
0
  5
108A5
 10
38.5773
 20
11.7844
 30
0.000000
  70
    32
  0
VERTEX
  8
0
  5
108A6
 10
38.5392
 20
11.8107
 30
0.000000
  70
    32
  0
VERTEX
  8
0
  5
108A7
 10
38.5011
 20
11.8371
 30
0.000000
  70
    32
  0
VERTEX
  8
0
  5
108A8
 10
38.4631
 20
11.8636
 30
0.000000
  70
    32
  0
VERTEX
  8
0
  5
108A9
 10
38.4251
 20
11.8901
 30
0.000000
  70
    32
  0
VERTEX
  8
0
  5
108AA
 10
38.3872
 20
11.9168
 30
0.000000
  70
    32
  0
VERTEX
  8
0
  5
108AB
 10
38.3494
 20
11.9435
 30
0.000000
  70
    32
  0
VERTEX
  8
0
  5
108AC
 10
38.3116
 20
11.9703
 30
0.000000
  70
    32
  0
VERTEX
  8
0
  5
108AD
 10
38.2739
 20
11.9971
 30
0.000000
  70
    32
  0
VERTEX
  8
0
  5
108AE
 10
38.2362
 20
12.0241
 30
0.000000
  70
    32
  0
VERTEX
  8
0
  5
108AF
 10
38.1985
 20
12.0511
 30
0.000000
  70
    32
  0
VERTEX
  8
0
  5
108B0
 10
38.1610
 20
12.0782
 30
0.000000
  70
    32
  0
VERTEX
  8
0
  5
108B1
 10
38.1234
 20
12.1054
 30
0.000000
  70
    32
  0
VERTEX
  8
0
  5
108B2
 10
38.0860
 20
12.1326
 30
0.000000
  70
    32
  0
VERTEX
  8
0
  5
108B3
 10
38.0486
 20
12.1600
 30
0.000000
  70
    32
  0
VERTEX
  8
0
  5
108B4
 10
38.0112
 20
12.1874
 30
0.000000
  70
    32
  0
VERTEX
  8
0
  5
108B5
 10
37.9739
 20
12.2149
 30
0.000000
  70
    32
  0
VERTEX
  8
0
  5
108B6
 10
37.9367
 20
12.2424
 30
0.000000
  70
    32
  0
VERTEX
  8
0
  5
108B7
 10
37.8995
 20
12.2701
 30
0.000000
  70
    32
  0
VERTEX
  8
0
  5
108B8
 10
37.8624
 20
12.2978
 30
0.000000
  70
    32
  0
VERTEX
  8
0
  5
108B9
 10
37.8253
 20
12.3256
 30
0.000000
  70
    32
  0
VERTEX
  8
0
  5
108BA
 10
37.7883
 20
12.3535
 30
0.000000
  70
    32
  0
VERTEX
  8
0
  5
108BB
 10
37.7513
 20
12.3814
 30
0.000000
  70
    32
  0
VERTEX
  8
0
  5
108BC
 10
37.7144
 20
12.4094
 30
0.000000
  70
    32
  0
VERTEX
  8
0
  5
108BD
 10
37.6776
 20
12.4375
 30
0.000000
  70
    32
  0
VERTEX
  8
0
  5
108BE
 10
37.6408
 20
12.4657
 30
0.000000
  70
    32
  0
VERTEX
  8
0
  5
108BF
 10
37.6041
 20
12.4940
 30
0.000000
  70
    32
  0
VERTEX
  8
0
  5
108C0
 10
37.5674
 20
12.5223
 30
0.000000
  70
    32
  0
VERTEX
  8
0
  5
108C1
 10
37.5308
 20
12.5507
 30
0.000000
  70
    32
  0
VERTEX
  8
0
  5
108C2
 10
37.4943
 20
12.5792
 30
0.000000
  70
    32
  0
VERTEX
  8
0
  5
108C3
 10
37.4578
 20
12.6078
 30
0.000000
  70
    32
  0
VERTEX
  8
0
  5
108C4
 10
37.4214
 20
12.6364
 30
0.000000
  70
    32
  0
VERTEX
  8
0
  5
108C5
 10
37.3850
 20
12.6652
 30
0.000000
  70
    32
  0
VERTEX
  8
0
  5
108C6
 10
37.3487
 20
12.6939
 30
0.000000
  70
    32
  0
VERTEX
  8
0
  5
108C7
 10
37.3125
 20
12.7228
 30
0.000000
  70
    32
  0
VERTEX
  8
0
  5
108C8
 10
37.2763
 20
12.7518
 30
0.000000
  70
    32
  0
VERTEX
  8
0
  5
108C9
 10
37.2402
 20
12.7808
 30
0.000000
  70
    32
  0
VERTEX
  8
0
  5
108CA
 10
37.2041
 20
12.8099
 30
0.000000
  70
    32
  0
VERTEX
  8
0
  5
108CB
 10
37.1682
 20
12.8391
 30
0.000000
  70
    32
  0
VERTEX
  8
0
  5
108CC
 10
37.1322
 20
12.8683
 30
0.000000
  70
    32
  0
VERTEX
  8
0
  5
108CD
 10
37.0964
 20
12.8977
 30
0.000000
  70
    32
  0
VERTEX
  8
0
  5
108CE
 10
37.0605
 20
12.9271
 30
0.000000
  70
    32
  0
VERTEX
  8
0
  5
108CF
 10
37.0248
 20
12.9566
 30
0.000000
  70
    32
  0
VERTEX
  8
0
  5
108D0
 10
36.9891
 20
12.9861
 30
0.000000
  70
    32
  0
VERTEX
  8
0
  5
108D1
 10
36.9535
 20
13.0158
 30
0.000000
  70
    32
  0
VERTEX
  8
0
  5
108D2
 10
36.9180
 20
13.0455
 30
0.000000
  70
    32
  0
VERTEX
  8
0
  5
108D3
 10
36.8825
 20
13.0753
 30
0.000000
  70
    32
  0
VERTEX
  8
0
  5
108D4
 10
36.8471
 20
13.1051
 30
0.000000
  70
    32
  0
VERTEX
  8
0
  5
108D5
 10
36.8117
 20
13.1351
 30
0.000000
  70
    32
  0
VERTEX
  8
0
  5
108D6
 10
36.7764
 20
13.1651
 30
0.000000
  70
    32
  0
VERTEX
  8
0
  5
108D7
 10
36.7412
 20
13.1952
 30
0.000000
  70
    32
  0
VERTEX
  8
0
  5
108D8
 10
36.7060
 20
13.2254
 30
0.000000
  70
    32
  0
VERTEX
  8
0
  5
108D9
 10
36.6709
 20
13.2556
 30
0.000000
  70
    32
  0
VERTEX
  8
0
  5
108DA
 10
36.6359
 20
13.2859
 30
0.000000
  70
    32
  0
VERTEX
  8
0
  5
108DB
 10
36.6009
 20
13.3163
 30
0.000000
  70
    32
  0
VERTEX
  8
0
  5
108DC
 10
36.5660
 20
13.3468
 30
0.000000
  70
    32
  0
VERTEX
  8
0
  5
108DD
 10
36.5312
 20
13.3774
 30
0.000000
  70
    32
  0
VERTEX
  8
0
  5
108DE
 10
36.4964
 20
13.4080
 30
0.000000
  70
    32
  0
VERTEX
  8
0
  5
108DF
 10
36.4618
 20
13.4387
 30
0.000000
  70
    32
  0
VERTEX
  8
0
  5
108E0
 10
36.4271
 20
13.4695
 30
0.000000
  70
    32
  0
VERTEX
  8
0
  5
108E1
 10
36.3926
 20
13.5004
 30
0.000000
  70
    32
  0
VERTEX
  8
0
  5
108E2
 10
36.3581
 20
13.5313
 30
0.000000
  70
    32
  0
VERTEX
  8
0
  5
108E3
 10
36.3237
 20
13.5623
 30
0.000000
  70
    32
  0
VERTEX
  8
0
  5
108E4
 10
36.2893
 20
13.5934
 30
0.000000
  70
    32
  0
VERTEX
  8
0
  5
108E5
 10
36.2550
 20
13.6246
 30
0.000000
  70
    32
  0
VERTEX
  8
0
  5
108E6
 10
36.2208
 20
13.6558
 30
0.000000
  70
    32
  0
VERTEX
  8
0
  5
108E7
 10
36.1867
 20
13.6871
 30
0.000000
  70
    32
  0
VERTEX
  8
0
  5
108E8
 10
36.1526
 20
13.7185
 30
0.000000
  70
    32
  0
VERTEX
  8
0
  5
108E9
 10
36.1186
 20
13.7500
 30
0.000000
  70
    32
  0
VERTEX
  8
0
  5
108EA
 10
36.0847
 20
13.7815
 30
0.000000
  70
    32
  0
VERTEX
  8
0
  5
108EB
 10
36.0508
 20
13.8132
 30
0.000000
  70
    32
  0
VERTEX
  8
0
  5
108EC
 10
36.0170
 20
13.8449
 30
0.000000
  70
    32
  0
VERTEX
  8
0
  5
108ED
 10
35.9833
 20
13.8766
 30
0.000000
  70
    32
  0
VERTEX
  8
0
  5
108EE
 10
35.9497
 20
13.9085
 30
0.000000
  70
    32
  0
VERTEX
  8
0
  5
108EF
 10
35.9161
 20
13.9404
 30
0.000000
  70
    32
  0
VERTEX
  8
0
  5
108F0
 10
35.8826
 20
13.9724
 30
0.000000
  70
    32
  0
VERTEX
  8
0
  5
108F1
 10
35.8492
 20
14.0045
 30
0.000000
  70
    32
  0
VERTEX
  8
0
  5
108F2
 10
35.8158
 20
14.0367
 30
0.000000
  70
    32
  0
VERTEX
  8
0
  5
108F3
 10
35.7826
 20
14.0689
 30
0.000000
  70
    32
  0
VERTEX
  8
0
  5
108F4
 10
35.7494
 20
14.1012
 30
0.000000
  70
    32
  0
VERTEX
  8
0
  5
108F5
 10
35.7162
 20
14.1336
 30
0.000000
  70
    32
  0
VERTEX
  8
0
  5
108F6
 10
35.6832
 20
14.1660
 30
0.000000
  70
    32
  0
VERTEX
  8
0
  5
108F7
 10
35.6502
 20
14.1986
 30
0.000000
  70
    32
  0
VERTEX
  8
0
  5
108F8
 10
35.6173
 20
14.2312
 30
0.000000
  70
    32
  0
VERTEX
  8
0
  5
108F9
 10
35.5845
 20
14.2639
 30
0.000000
  70
    32
  0
VERTEX
  8
0
  5
108FA
 10
35.5517
 20
14.2966
 30
0.000000
  70
    32
  0
VERTEX
  8
0
  5
108FB
 10
35.5190
 20
14.3295
 30
0.000000
  70
    32
  0
VERTEX
  8
0
  5
108FC
 10
35.4864
 20
14.3624
 30
0.000000
  70
    32
  0
VERTEX
  8
0
  5
108FD
 10
35.4539
 20
14.3954
 30
0.000000
  70
    32
  0
VERTEX
  8
0
  5
108FE
 10
35.4215
 20
14.4285
 30
0.000000
  70
    32
  0
VERTEX
  8
0
  5
108FF
 10
35.3891
 20
14.4616
 30
0.000000
  70
    32
  0
VERTEX
  8
0
  5
10900
 10
35.3568
 20
14.4948
 30
0.000000
  70
    32
  0
VERTEX
  8
0
  5
10901
 10
35.3246
 20
14.5281
 30
0.000000
  70
    32
  0
VERTEX
  8
0
  5
10902
 10
35.2924
 20
14.5615
 30
0.000000
  70
    32
  0
VERTEX
  8
0
  5
10903
 10
35.2604
 20
14.5949
 30
0.000000
  70
    32
  0
VERTEX
  8
0
  5
10904
 10
35.2284
 20
14.6284
 30
0.000000
  70
    32
  0
VERTEX
  8
0
  5
10905
 10
35.1965
 20
14.6620
 30
0.000000
  70
    32
  0
VERTEX
  8
0
  5
10906
 10
35.1646
 20
14.6957
 30
0.000000
  70
    32
  0
VERTEX
  8
0
  5
10907
 10
35.1329
 20
14.7294
 30
0.000000
  70
    32
  0
VERTEX
  8
0
  5
10908
 10
35.1012
 20
14.7632
 30
0.000000
  70
    32
  0
VERTEX
  8
0
  5
10909
 10
35.0696
 20
14.7971
 30
0.000000
  70
    32
  0
VERTEX
  8
0
  5
1090A
 10
35.0381
 20
14.8311
 30
0.000000
  70
    32
  0
VERTEX
  8
0
  5
1090B
 10
35.0066
 20
14.8651
 30
0.000000
  70
    32
  0
VERTEX
  8
0
  5
1090C
 10
34.9753
 20
14.8992
 30
0.000000
  70
    32
  0
VERTEX
  8
0
  5
1090D
 10
34.9440
 20
14.9334
 30
0.000000
  70
    32
  0
VERTEX
  8
0
  5
1090E
 10
34.9128
 20
14.9676
 30
0.000000
  70
    32
  0
VERTEX
  8
0
  5
1090F
 10
34.8816
 20
15.0020
 30
0.000000
  70
    32
  0
VERTEX
  8
0
  5
10910
 10
34.8506
 20
15.0364
 30
0.000000
  70
    32
  0
VERTEX
  8
0
  5
10911
 10
34.8196
 20
15.0708
 30
0.000000
  70
    32
  0
VERTEX
  8
0
  5
10912
 10
34.7887
 20
15.1054
 30
0.000000
  70
    32
  0
VERTEX
  8
0
  5
10913
 10
34.7579
 20
15.1400
 30
0.000000
  70
    32
  0
VERTEX
  8
0
  5
10914
 10
34.7272
 20
15.1746
 30
0.000000
  70
    32
  0
VERTEX
  8
0
  5
10915
 10
34.6966
 20
15.2094
 30
0.000000
  70
    32
  0
VERTEX
  8
0
  5
10916
 10
34.6660
 20
15.2442
 30
0.000000
  70
    32
  0
VERTEX
  8
0
  5
10917
 10
34.6355
 20
15.2791
 30
0.000000
  70
    32
  0
VERTEX
  8
0
  5
10918
 10
34.6051
 20
15.3141
 30
0.000000
  70
    32
  0
VERTEX
  8
0
  5
10919
 10
34.5748
 20
15.3491
 30
0.000000
  70
    32
  0
VERTEX
  8
0
  5
1091A
 10
34.5445
 20
15.3842
 30
0.000000
  70
    32
  0
VERTEX
  8
0
  5
1091B
 10
34.5144
 20
15.4194
 30
0.000000
  70
    32
  0
VERTEX
  8
0
  5
1091C
 10
34.4843
 20
15.4546
 30
0.000000
  70
    32
  0
VERTEX
  8
0
  5
1091D
 10
34.4543
 20
15.4899
 30
0.000000
  70
    32
  0
VERTEX
  8
0
  5
1091E
 10
34.4244
 20
15.5253
 30
0.000000
  70
    32
  0
VERTEX
  8
0
  5
1091F
 10
34.3945
 20
15.5607
 30
0.000000
  70
    32
  0
VERTEX
  8
0
  5
10920
 10
34.3648
 20
15.5962
 30
0.000000
  70
    32
  0
VERTEX
  8
0
  5
10921
 10
34.3351
 20
15.6318
 30
0.000000
  70
    32
  0
VERTEX
  8
0
  5
10922
 10
34.3055
 20
15.6675
 30
0.000000
  70
    32
  0
VERTEX
  8
0
  5
10923
 10
34.2760
 20
15.7032
 30
0.000000
  70
    32
  0
VERTEX
  8
0
  5
10924
 10
34.2466
 20
15.7390
 30
0.000000
  70
    32
  0
VERTEX
  8
0
  5
10925
 10
34.2172
 20
15.7748
 30
0.000000
  70
    32
  0
VERTEX
  8
0
  5
10926
 10
34.1880
 20
15.8108
 30
0.000000
  70
    32
  0
VERTEX
  8
0
  5
10927
 10
34.1588
 20
15.8468
 30
0.000000
  70
    32
  0
VERTEX
  8
0
  5
10928
 10
34.1297
 20
15.8828
 30
0.000000
  70
    32
  0
VERTEX
  8
0
  5
10929
 10
34.1007
 20
15.9189
 30
0.000000
  70
    32
  0
VERTEX
  8
0
  5
1092A
 10
34.0717
 20
15.9551
 30
0.000000
  70
    32
  0
VERTEX
  8
0
  5
1092B
 10
34.0429
 20
15.9914
 30
0.000000
  70
    32
  0
VERTEX
  8
0
  5
1092C
 10
34.0141
 20
16.0277
 30
0.000000
  70
    32
  0
VERTEX
  8
0
  5
1092D
 10
33.9855
 20
16.0641
 30
0.000000
  70
    32
  0
VERTEX
  8
0
  5
1092E
 10
33.9569
 20
16.1006
 30
0.000000
  70
    32
  0
VERTEX
  8
0
  5
1092F
 10
33.9284
 20
16.1371
 30
0.000000
  70
    32
  0
VERTEX
  8
0
  5
10930
 10
33.8999
 20
16.1737
 30
0.000000
  70
    32
  0
VERTEX
  8
0
  5
10931
 10
33.8716
 20
16.2103
 30
0.000000
  70
    32
  0
VERTEX
  8
0
  5
10932
 10
33.8433
 20
16.2470
 30
0.000000
  70
    32
  0
VERTEX
  8
0
  5
10933
 10
33.8152
 20
16.2838
 30
0.000000
  70
    32
  0
VERTEX
  8
0
  5
10934
 10
33.7871
 20
16.3207
 30
0.000000
  70
    32
  0
VERTEX
  8
0
  5
10935
 10
33.7591
 20
16.3576
 30
0.000000
  70
    32
  0
VERTEX
  8
0
  5
10936
 10
33.7311
 20
16.3945
 30
0.000000
  70
    32
  0
VERTEX
  8
0
  5
10937
 10
33.7033
 20
16.4316
 30
0.000000
  70
    32
  0
VERTEX
  8
0
  5
10938
 10
33.6756
 20
16.4687
 30
0.000000
  70
    32
  0
VERTEX
  8
0
  5
10939
 10
33.6479
 20
16.5058
 30
0.000000
  70
    32
  0
VERTEX
  8
0
  5
1093A
 10
33.6203
 20
16.5431
 30
0.000000
  70
    32
  0
VERTEX
  8
0
  5
1093B
 10
33.5928
 20
16.5803
 30
0.000000
  70
    32
  0
VERTEX
  8
0
  5
1093C
 10
33.5654
 20
16.6177
 30
0.000000
  70
    32
  0
VERTEX
  8
0
  5
1093D
 10
33.5380
 20
16.6551
 30
0.000000
  70
    32
  0
VERTEX
  8
0
  5
1093E
 10
33.5108
 20
16.6926
 30
0.000000
  70
    32
  0
VERTEX
  8
0
  5
1093F
 10
33.4836
 20
16.7301
 30
0.000000
  70
    32
  0
VERTEX
  8
0
  5
10940
 10
33.4565
 20
16.7677
 30
0.000000
  70
    32
  0
VERTEX
  8
0
  5
10941
 10
33.4295
 20
16.8053
 30
0.000000
  70
    32
  0
VERTEX
  8
0
  5
10942
 10
33.4026
 20
16.8430
 30
0.000000
  70
    32
  0
VERTEX
  8
0
  5
10943
 10
33.3758
 20
16.8808
 30
0.000000
  70
    32
  0
VERTEX
  8
0
  5
10944
 10
33.3490
 20
16.9186
 30
0.000000
  70
    32
  0
VERTEX
  8
0
  5
10945
 10
33.3224
 20
16.9565
 30
0.000000
  70
    32
  0
VERTEX
  8
0
  5
10946
 10
33.2958
 20
16.9945
 30
0.000000
  70
    32
  0
VERTEX
  8
0
  5
10947
 10
33.2693
 20
17.0325
 30
0.000000
  70
    32
  0
VERTEX
  8
0
  5
10948
 10
33.2428
 20
17.0705
 30
0.000000
  70
    32
  0
VERTEX
  8
0
  5
10949
 10
33.2165
 20
17.1086
 30
0.000000
  70
    32
  0
VERTEX
  8
0
  5
1094A
 10
33.1903
 20
17.1468
 30
0.000000
  70
    32
  0
VERTEX
  8
0
  5
1094B
 10
33.1641
 20
17.1851
 30
0.000000
  70
    32
  0
VERTEX
  8
0
  5
1094C
 10
33.1380
 20
17.2233
 30
0.000000
  70
    32
  0
VERTEX
  8
0
  5
1094D
 10
33.1120
 20
17.2617
 30
0.000000
  70
    32
  0
VERTEX
  8
0
  5
1094E
 10
33.0861
 20
17.3001
 30
0.000000
  70
    32
  0
VERTEX
  8
0
  5
1094F
 10
33.0603
 20
17.3386
 30
0.000000
  70
    32
  0
VERTEX
  8
0
  5
10950
 10
33.0345
 20
17.3771
 30
0.000000
  70
    32
  0
VERTEX
  8
0
  5
10951
 10
33.0089
 20
17.4157
 30
0.000000
  70
    32
  0
VERTEX
  8
0
  5
10952
 10
32.9833
 20
17.4543
 30
0.000000
  70
    32
  0
VERTEX
  8
0
  5
10953
 10
32.9578
 20
17.4930
 30
0.000000
  70
    32
  0
VERTEX
  8
0
  5
10954
 10
32.9324
 20
17.5317
 30
0.000000
  70
    32
  0
VERTEX
  8
0
  5
10955
 10
32.9070
 20
17.5705
 30
0.000000
  70
    32
  0
VERTEX
  8
0
  5
10956
 10
32.8818
 20
17.6093
 30
0.000000
  70
    32
  0
VERTEX
  8
0
  5
10957
 10
32.8566
 20
17.6482
 30
0.000000
  70
    32
  0
VERTEX
  8
0
  5
10958
 10
32.8315
 20
17.6872
 30
0.000000
  70
    32
  0
VERTEX
  8
0
  5
10959
 10
32.8065
 20
17.7262
 30
0.000000
  70
    32
  0
VERTEX
  8
0
  5
1095A
 10
32.7816
 20
17.7653
 30
0.000000
  70
    32
  0
VERTEX
  8
0
  5
1095B
 10
32.7568
 20
17.8044
 30
0.000000
  70
    32
  0
VERTEX
  8
0
  5
1095C
 10
32.7320
 20
17.8435
 30
0.000000
  70
    32
  0
VERTEX
  8
0
  5
1095D
 10
32.7074
 20
17.8828
 30
0.000000
  70
    32
  0
VERTEX
  8
0
  5
1095E
 10
32.6828
 20
17.9220
 30
0.000000
  70
    32
  0
VERTEX
  8
0
  5
1095F
 10
32.6583
 20
17.9613
 30
0.000000
  70
    32
  0
VERTEX
  8
0
  5
10960
 10
32.6339
 20
18.0007
 30
0.000000
  70
    32
  0
VERTEX
  8
0
  5
10961
 10
32.6096
 20
18.0401
 30
0.000000
  70
    32
  0
VERTEX
  8
0
  5
10962
 10
32.5853
 20
18.0796
 30
0.000000
  70
    32
  0
VERTEX
  8
0
  5
10963
 10
32.5612
 20
18.1191
 30
0.000000
  70
    32
  0
VERTEX
  8
0
  5
10964
 10
32.5371
 20
18.1587
 30
0.000000
  70
    32
  0
VERTEX
  8
0
  5
10965
 10
32.5131
 20
18.1984
 30
0.000000
  70
    32
  0
VERTEX
  8
0
  5
10966
 10
32.4892
 20
18.2380
 30
0.000000
  70
    32
  0
VERTEX
  8
0
  5
10967
 10
32.4654
 20
18.2778
 30
0.000000
  70
    32
  0
VERTEX
  8
0
  5
10968
 10
32.4416
 20
18.3175
 30
0.000000
  70
    32
  0
VERTEX
  8
0
  5
10969
 10
32.4180
 20
18.3574
 30
0.000000
  70
    32
  0
VERTEX
  8
0
  5
1096A
 10
32.3944
 20
18.3973
 30
0.000000
  70
    32
  0
VERTEX
  8
0
  5
1096B
 10
32.3709
 20
18.4372
 30
0.000000
  70
    32
  0
VERTEX
  8
0
  5
1096C
 10
32.3475
 20
18.4772
 30
0.000000
  70
    32
  0
VERTEX
  8
0
  5
1096D
 10
32.3242
 20
18.5172
 30
0.000000
  70
    32
  0
VERTEX
  8
0
  5
1096E
 10
32.3009
 20
18.5573
 30
0.000000
  70
    32
  0
VERTEX
  8
0
  5
1096F
 10
32.2778
 20
18.5974
 30
0.000000
  70
    32
  0
VERTEX
  8
0
  5
10970
 10
32.2547
 20
18.6376
 30
0.000000
  70
    32
  0
VERTEX
  8
0
  5
10971
 10
32.2317
 20
18.6778
 30
0.000000
  70
    32
  0
VERTEX
  8
0
  5
10972
 10
32.2088
 20
18.7181
 30
0.000000
  70
    32
  0
VERTEX
  8
0
  5
10973
 10
32.1860
 20
18.7584
 30
0.000000
  70
    32
  0
VERTEX
  8
0
  5
10974
 10
32.1632
 20
18.7987
 30
0.000000
  70
    32
  0
VERTEX
  8
0
  5
10975
 10
32.1406
 20
18.8391
 30
0.000000
  70
    32
  0
VERTEX
  8
0
  5
10976
 10
32.1180
 20
18.8796
 30
0.000000
  70
    32
  0
VERTEX
  8
0
  5
10977
 10
32.0955
 20
18.9201
 30
0.000000
  70
    32
  0
VERTEX
  8
0
  5
10978
 10
32.0731
 20
18.9607
 30
0.000000
  70
    32
  0
VERTEX
  8
0
  5
10979
 10
32.0508
 20
19.0013
 30
0.000000
  70
    32
  0
VERTEX
  8
0
  5
1097A
 10
32.0286
 20
19.0419
 30
0.000000
  70
    32
  0
VERTEX
  8
0
  5
1097B
 10
32.0065
 20
19.0826
 30
0.000000
  70
    32
  0
VERTEX
  8
0
  5
1097C
 10
31.9844
 20
19.1233
 30
0.000000
  70
    32
  0
VERTEX
  8
0
  5
1097D
 10
31.9624
 20
19.1641
 30
0.000000
  70
    32
  0
VERTEX
  8
0
  5
1097E
 10
31.9405
 20
19.2050
 30
0.000000
  70
    32
  0
VERTEX
  8
0
  5
1097F
 10
31.9187
 20
19.2458
 30
0.000000
  70
    32
  0
VERTEX
  8
0
  5
10980
 10
31.8970
 20
19.2868
 30
0.000000
  70
    32
  0
VERTEX
  8
0
  5
10981
 10
31.8753
 20
19.3277
 30
0.000000
  70
    32
  0
VERTEX
  8
0
  5
10982
 10
31.8538
 20
19.3687
 30
0.000000
  70
    32
  0
VERTEX
  8
0
  5
10983
 10
31.8323
 20
19.4098
 30
0.000000
  70
    32
  0
VERTEX
  8
0
  5
10984
 10
31.8109
 20
19.4509
 30
0.000000
  70
    32
  0
VERTEX
  8
0
  5
10985
 10
31.7896
 20
19.4920
 30
0.000000
  70
    32
  0
VERTEX
  8
0
  5
10986
 10
31.7684
 20
19.5332
 30
0.000000
  70
    32
  0
VERTEX
  8
0
  5
10987
 10
31.7473
 20
19.5744
 30
0.000000
  70
    32
  0
VERTEX
  8
0
  5
10988
 10
31.7262
 20
19.6157
 30
0.000000
  70
    32
  0
VERTEX
  8
0
  5
10989
 10
31.7053
 20
19.6570
 30
0.000000
  70
    32
  0
VERTEX
  8
0
  5
1098A
 10
31.6844
 20
19.6984
 30
0.000000
  70
    32
  0
VERTEX
  8
0
  5
1098B
 10
31.6636
 20
19.7398
 30
0.000000
  70
    32
  0
VERTEX
  8
0
  5
1098C
 10
31.6429
 20
19.7812
 30
0.000000
  70
    32
  0
VERTEX
  8
0
  5
1098D
 10
31.6222
 20
19.8227
 30
0.000000
  70
    32
  0
VERTEX
  8
0
  5
1098E
 10
31.6017
 20
19.8643
 30
0.000000
  70
    32
  0
VERTEX
  8
0
  5
1098F
 10
31.5812
 20
19.9058
 30
0.000000
  70
    32
  0
VERTEX
  8
0
  5
10990
 10
31.5609
 20
19.9474
 30
0.000000
  70
    32
  0
VERTEX
  8
0
  5
10991
 10
31.5406
 20
19.9891
 30
0.000000
  70
    32
  0
VERTEX
  8
0
  5
10992
 10
31.5204
 20
20.0308
 30
0.000000
  70
    32
  0
VERTEX
  8
0
  5
10993
 10
31.5003
 20
20.0725
 30
0.000000
  70
    32
  0
VERTEX
  8
0
  5
10994
 10
31.4802
 20
20.1143
 30
0.000000
  70
    32
  0
VERTEX
  8
0
  5
10995
 10
31.4603
 20
20.1561
 30
0.000000
  70
    32
  0
VERTEX
  8
0
  5
10996
 10
31.4404
 20
20.1980
 30
0.000000
  70
    32
  0
VERTEX
  8
0
  5
10997
 10
31.4207
 20
20.2399
 30
0.000000
  70
    32
  0
VERTEX
  8
0
  5
10998
 10
31.4010
 20
20.2818
 30
0.000000
  70
    32
  0
VERTEX
  8
0
  5
10999
 10
31.3814
 20
20.3238
 30
0.000000
  70
    32
  0
VERTEX
  8
0
  5
1099A
 10
31.3618
 20
20.3658
 30
0.000000
  70
    32
  0
VERTEX
  8
0
  5
1099B
 10
31.3424
 20
20.4079
 30
0.000000
  70
    32
  0
VERTEX
  8
0
  5
1099C
 10
31.3231
 20
20.4500
 30
0.000000
  70
    32
  0
VERTEX
  8
0
  5
1099D
 10
31.3038
 20
20.4921
 30
0.000000
  70
    32
  0
VERTEX
  8
0
  5
1099E
 10
31.2846
 20
20.5343
 30
0.000000
  70
    32
  0
VERTEX
  8
0
  5
1099F
 10
31.2655
 20
20.5765
 30
0.000000
  70
    32
  0
VERTEX
  8
0
  5
109A0
 10
31.2465
 20
20.6188
 30
0.000000
  70
    32
  0
VERTEX
  8
0
  5
109A1
 10
31.2276
 20
20.6611
 30
0.000000
  70
    32
  0
VERTEX
  8
0
  5
109A2
 10
31.2087
 20
20.7034
 30
0.000000
  70
    32
  0
VERTEX
  8
0
  5
109A3
 10
31.1900
 20
20.7458
 30
0.000000
  70
    32
  0
VERTEX
  8
0
  5
109A4
 10
31.1713
 20
20.7882
 30
0.000000
  70
    32
  0
VERTEX
  8
0
  5
109A5
 10
31.1528
 20
20.8306
 30
0.000000
  70
    32
  0
VERTEX
  8
0
  5
109A6
 10
31.1343
 20
20.8731
 30
0.000000
  70
    32
  0
VERTEX
  8
0
  5
109A7
 10
31.1159
 20
20.9156
 30
0.000000
  70
    32
  0
VERTEX
  8
0
  5
109A8
 10
31.0975
 20
20.9581
 30
0.000000
  70
    32
  0
VERTEX
  8
0
  5
109A9
 10
31.0793
 20
21.0007
 30
0.000000
  70
    32
  0
VERTEX
  8
0
  5
109AA
 10
31.0612
 20
21.0434
 30
0.000000
  70
    32
  0
VERTEX
  8
0
  5
109AB
 10
31.0431
 20
21.0860
 30
0.000000
  70
    32
  0
VERTEX
  8
0
  5
109AC
 10
31.0251
 20
21.1287
 30
0.000000
  70
    32
  0
VERTEX
  8
0
  5
109AD
 10
31.0072
 20
21.1714
 30
0.000000
  70
    32
  0
VERTEX
  8
0
  5
109AE
 10
30.9894
 20
21.2142
 30
0.000000
  70
    32
  0
VERTEX
  8
0
  5
109AF
 10
30.9717
 20
21.2570
 30
0.000000
  70
    32
  0
VERTEX
  8
0
  5
109B0
 10
30.9541
 20
21.2998
 30
0.000000
  70
    32
  0
VERTEX
  8
0
  5
109B1
 10
30.9365
 20
21.3427
 30
0.000000
  70
    32
  0
VERTEX
  8
0
  5
109B2
 10
30.9191
 20
21.3856
 30
0.000000
  70
    32
  0
VERTEX
  8
0
  5
109B3
 10
30.9017
 20
21.4285
 30
0.000000
  70
    32
  0
VERTEX
  8
0
  5
109B4
 10
30.8844
 20
21.4715
 30
0.000000
  70
    32
  0
VERTEX
  8
0
  5
109B5
 10
30.8672
 20
21.5145
 30
0.000000
  70
    32
  0
VERTEX
  8
0
  5
109B6
 10
30.8501
 20
21.5575
 30
0.000000
  70
    32
  0
VERTEX
  8
0
  5
109B7
 10
30.8331
 20
21.6006
 30
0.000000
  70
    32
  0
VERTEX
  8
0
  5
109B8
 10
30.8161
 20
21.6437
 30
0.000000
  70
    32
  0
VERTEX
  8
0
  5
109B9
 10
30.7993
 20
21.6868
 30
0.000000
  70
    32
  0
SEQEND
  8
0
  5
109BA
  0
LINE
  5
F8A7
  8
0
 10
31.387658000000101
 20
98.912154045915273
 30
0.0
 11
40.981285000000291
 21
98.912154045915273
 31
0.0
  0
LINE
  5
F8A8
  8
0
 10
31.387658000000101
 20
94.412154045915258
 30
0.0
 11
40.981285000000291
 21
94.412154045915258
 31
0.0
  0
LINE
  5
F8A9
  8
0
 10
51.018714999999702
 20
94.412154045915258
 30
0.0
 11
60.61234300000023
 21
94.412154045915258
 31
0.0
  0
LINE
  5
F8AA
  8
0
 10
51.018714999999702
 20
98.912154045915273
 30
0.0
 11
60.61234300000023
 21
98.912154045915273
 31
0.0
  0
ARC
  5
F8AB
  8
0
 10
45.999999999999538
 20
96.662154045915244
 30
0.0
 40
7.0000037999999991
 50
18.749331999995789
 51
161.25067000000399
  0
ARC
  5
F8AC
  8
0
 10
45.999999999999538
 20
96.662154045915244
 30
0.0
 40
7.0000037999999991
 50
198.74932999999589
 51
341.25067000000399
  0
POLYLINE
  5
F8AD
  8
0
 10
39.646107272318496
 20
94.229647646148436
 30
0.0
 66
     1
 70
     8
  0
VERTEX
  8
0
  5
109BB
 10
39.6461
 20
94.2296
 30
0.000000
  70
    32
  0
VERTEX
  8
0
  5
109BC
 10
39.6713
 20
94.2600
 30
0.000000
  70
    32
  0
VERTEX
  8
0
  5
109BD
 10
39.6962
 20
94.2908
 30
0.000000
  70
    32
  0
VERTEX
  8
0
  5
109BE
 10
39.7207
 20
94.3219
 30
0.000000
  70
    32
  0
VERTEX
  8
0
  5
109BF
 10
39.7450
 20
94.3533
 30
0.000000
  70
    32
  0
VERTEX
  8
0
  5
109C0
 10
39.7689
 20
94.3850
 30
0.000000
  70
    32
  0
VERTEX
  8
0
  5
109C1
 10
39.7925
 20
94.4171
 30
0.000000
  70
    32
  0
VERTEX
  8
0
  5
109C2
 10
39.8157
 20
94.4495
 30
0.000000
  70
    32
  0
VERTEX
  8
0
  5
109C3
 10
39.8386
 20
94.4822
 30
0.000000
  70
    32
  0
VERTEX
  8
0
  5
109C4
 10
39.8611
 20
94.5152
 30
0.000000
  70
    32
  0
VERTEX
  8
0
  5
109C5
 10
39.8833
 20
94.5486
 30
0.000000
  70
    32
  0
VERTEX
  8
0
  5
109C6
 10
39.9052
 20
94.5822
 30
0.000000
  70
    32
  0
VERTEX
  8
0
  5
109C7
 10
39.9267
 20
94.6162
 30
0.000000
  70
    32
  0
VERTEX
  8
0
  5
109C8
 10
39.9479
 20
94.6504
 30
0.000000
  70
    32
  0
VERTEX
  8
0
  5
109C9
 10
39.9687
 20
94.6850
 30
0.000000
  70
    32
  0
VERTEX
  8
0
  5
109CA
 10
39.9891
 20
94.7198
 30
0.000000
  70
    32
  0
VERTEX
  8
0
  5
109CB
 10
40.0092
 20
94.7549
 30
0.000000
  70
    32
  0
VERTEX
  8
0
  5
109CC
 10
40.0288
 20
94.7902
 30
0.000000
  70
    32
  0
VERTEX
  8
0
  5
109CD
 10
40.0482
 20
94.8259
 30
0.000000
  70
    32
  0
VERTEX
  8
0
  5
109CE
 10
40.0671
 20
94.8618
 30
0.000000
  70
    32
  0
VERTEX
  8
0
  5
109CF
 10
40.0857
 20
94.8980
 30
0.000000
  70
    32
  0
VERTEX
  8
0
  5
109D0
 10
40.1039
 20
94.9344
 30
0.000000
  70
    32
  0
VERTEX
  8
0
  5
109D1
 10
40.1217
 20
94.9710
 30
0.000000
  70
    32
  0
VERTEX
  8
0
  5
109D2
 10
40.1392
 20
95.0080
 30
0.000000
  70
    32
  0
VERTEX
  8
0
  5
109D3
 10
40.1562
 20
95.0451
 30
0.000000
  70
    32
  0
VERTEX
  8
0
  5
109D4
 10
40.1729
 20
95.0825
 30
0.000000
  70
    32
  0
VERTEX
  8
0
  5
109D5
 10
40.1892
 20
95.1201
 30
0.000000
  70
    32
  0
VERTEX
  8
0
  5
109D6
 10
40.2050
 20
95.1579
 30
0.000000
  70
    32
  0
VERTEX
  8
0
  5
109D7
 10
40.2205
 20
95.1960
 30
0.000000
  70
    32
  0
VERTEX
  8
0
  5
109D8
 10
40.2356
 20
95.2343
 30
0.000000
  70
    32
  0
VERTEX
  8
0
  5
109D9
 10
40.2503
 20
95.2727
 30
0.000000
  70
    32
  0
VERTEX
  8
0
  5
109DA
 10
40.2646
 20
95.3114
 30
0.000000
  70
    32
  0
VERTEX
  8
0
  5
109DB
 10
40.2785
 20
95.3503
 30
0.000000
  70
    32
  0
VERTEX
  8
0
  5
109DC
 10
40.2919
 20
95.3893
 30
0.000000
  70
    32
  0
VERTEX
  8
0
  5
109DD
 10
40.3050
 20
95.4285
 30
0.000000
  70
    32
  0
VERTEX
  8
0
  5
109DE
 10
40.3176
 20
95.4680
 30
0.000000
  70
    32
  0
VERTEX
  8
0
  5
109DF
 10
40.3299
 20
95.5075
 30
0.000000
  70
    32
  0
VERTEX
  8
0
  5
109E0
 10
40.3417
 20
95.5473
 30
0.000000
  70
    32
  0
VERTEX
  8
0
  5
109E1
 10
40.3531
 20
95.5872
 30
0.000000
  70
    32
  0
VERTEX
  8
0
  5
109E2
 10
40.3641
 20
95.6273
 30
0.000000
  70
    32
  0
VERTEX
  8
0
  5
109E3
 10
40.3747
 20
95.6675
 30
0.000000
  70
    32
  0
VERTEX
  8
0
  5
109E4
 10
40.3849
 20
95.7079
 30
0.000000
  70
    32
  0
VERTEX
  8
0
  5
109E5
 10
40.3946
 20
95.7484
 30
0.000000
  70
    32
  0
VERTEX
  8
0
  5
109E6
 10
40.4039
 20
95.7890
 30
0.000000
  70
    32
  0
VERTEX
  8
0
  5
109E7
 10
40.4128
 20
95.8297
 30
0.000000
  70
    32
  0
VERTEX
  8
0
  5
109E8
 10
40.4213
 20
95.8706
 30
0.000000
  70
    32
  0
VERTEX
  8
0
  5
109E9
 10
40.4293
 20
95.9116
 30
0.000000
  70
    32
  0
VERTEX
  8
0
  5
109EA
 10
40.4369
 20
95.9527
 30
0.000000
  70
    32
  0
VERTEX
  8
0
  5
109EB
 10
40.4441
 20
95.9939
 30
0.000000
  70
    32
  0
VERTEX
  8
0
  5
109EC
 10
40.4508
 20
96.0352
 30
0.000000
  70
    32
  0
VERTEX
  8
0
  5
109ED
 10
40.4572
 20
96.0766
 30
0.000000
  70
    32
  0
VERTEX
  8
0
  5
109EE
 10
40.4631
 20
96.1181
 30
0.000000
  70
    32
  0
VERTEX
  8
0
  5
109EF
 10
40.4685
 20
96.1596
 30
0.000000
  70
    32
  0
VERTEX
  8
0
  5
109F0
 10
40.4735
 20
96.2012
 30
0.000000
  70
    32
  0
VERTEX
  8
0
  5
109F1
 10
40.4781
 20
96.2429
 30
0.000000
  70
    32
  0
VERTEX
  8
0
  5
109F2
 10
40.4823
 20
96.2847
 30
0.000000
  70
    32
  0
VERTEX
  8
0
  5
109F3
 10
40.4860
 20
96.3265
 30
0.000000
  70
    32
  0
VERTEX
  8
0
  5
109F4
 10
40.4893
 20
96.3683
 30
0.000000
  70
    32
  0
VERTEX
  8
0
  5
109F5
 10
40.4921
 20
96.4102
 30
0.000000
  70
    32
  0
VERTEX
  8
0
  5
109F6
 10
40.4945
 20
96.4522
 30
0.000000
  70
    32
  0
VERTEX
  8
0
  5
109F7
 10
40.4965
 20
96.4941
 30
0.000000
  70
    32
  0
VERTEX
  8
0
  5
109F8
 10
40.4980
 20
96.5361
 30
0.000000
  70
    32
  0
VERTEX
  8
0
  5
109F9
 10
40.4991
 20
96.5781
 30
0.000000
  70
    32
  0
VERTEX
  8
0
  5
109FA
 10
40.4998
 20
96.6201
 30
0.000000
  70
    32
  0
VERTEX
  8
0
  5
109FB
 10
40.5000
 20
96.6622
 30
0.000000
  70
    32
  0
VERTEX
  8
0
  5
109FC
 10
40.4998
 20
96.7042
 30
0.000000
  70
    32
  0
VERTEX
  8
0
  5
109FD
 10
40.4991
 20
96.7462
 30
0.000000
  70
    32
  0
VERTEX
  8
0
  5
109FE
 10
40.4980
 20
96.7882
 30
0.000000
  70
    32
  0
VERTEX
  8
0
  5
109FF
 10
40.4965
 20
96.8302
 30
0.000000
  70
    32
  0
VERTEX
  8
0
  5
10A00
 10
40.4945
 20
96.8721
 30
0.000000
  70
    32
  0
VERTEX
  8
0
  5
10A01
 10
40.4921
 20
96.9141
 30
0.000000
  70
    32
  0
VERTEX
  8
0
  5
10A02
 10
40.4893
 20
96.9560
 30
0.000000
  70
    32
  0
VERTEX
  8
0
  5
10A03
 10
40.4860
 20
96.9978
 30
0.000000
  70
    32
  0
VERTEX
  8
0
  5
10A04
 10
40.4823
 20
97.0396
 30
0.000000
  70
    32
  0
VERTEX
  8
0
  5
10A05
 10
40.4781
 20
97.0814
 30
0.000000
  70
    32
  0
VERTEX
  8
0
  5
10A06
 10
40.4735
 20
97.1231
 30
0.000000
  70
    32
  0
VERTEX
  8
0
  5
10A07
 10
40.4685
 20
97.1647
 30
0.000000
  70
    32
  0
VERTEX
  8
0
  5
10A08
 10
40.4631
 20
97.2062
 30
0.000000
  70
    32
  0
VERTEX
  8
0
  5
10A09
 10
40.4572
 20
97.2477
 30
0.000000
  70
    32
  0
VERTEX
  8
0
  5
10A0A
 10
40.4508
 20
97.2891
 30
0.000000
  70
    32
  0
VERTEX
  8
0
  5
10A0B
 10
40.4441
 20
97.3304
 30
0.000000
  70
    32
  0
VERTEX
  8
0
  5
10A0C
 10
40.4369
 20
97.3716
 30
0.000000
  70
    32
  0
VERTEX
  8
0
  5
10A0D
 10
40.4293
 20
97.4127
 30
0.000000
  70
    32
  0
VERTEX
  8
0
  5
10A0E
 10
40.4213
 20
97.4537
 30
0.000000
  70
    32
  0
VERTEX
  8
0
  5
10A0F
 10
40.4128
 20
97.4946
 30
0.000000
  70
    32
  0
VERTEX
  8
0
  5
10A10
 10
40.4039
 20
97.5353
 30
0.000000
  70
    32
  0
VERTEX
  8
0
  5
10A11
 10
40.3946
 20
97.5759
 30
0.000000
  70
    32
  0
VERTEX
  8
0
  5
10A12
 10
40.3849
 20
97.6164
 30
0.000000
  70
    32
  0
VERTEX
  8
0
  5
10A13
 10
40.3747
 20
97.6568
 30
0.000000
  70
    32
  0
VERTEX
  8
0
  5
10A14
 10
40.3641
 20
97.6970
 30
0.000000
  70
    32
  0
VERTEX
  8
0
  5
10A15
 10
40.3531
 20
97.7371
 30
0.000000
  70
    32
  0
VERTEX
  8
0
  5
10A16
 10
40.3417
 20
97.7770
 30
0.000000
  70
    32
  0
VERTEX
  8
0
  5
10A17
 10
40.3299
 20
97.8168
 30
0.000000
  70
    32
  0
VERTEX
  8
0
  5
10A18
 10
40.3176
 20
97.8563
 30
0.000000
  70
    32
  0
VERTEX
  8
0
  5
10A19
 10
40.3050
 20
97.8958
 30
0.000000
  70
    32
  0
VERTEX
  8
0
  5
10A1A
 10
40.2919
 20
97.9350
 30
0.000000
  70
    32
  0
VERTEX
  8
0
  5
10A1B
 10
40.2785
 20
97.9741
 30
0.000000
  70
    32
  0
VERTEX
  8
0
  5
10A1C
 10
40.2646
 20
98.0129
 30
0.000000
  70
    32
  0
VERTEX
  8
0
  5
10A1D
 10
40.2503
 20
98.0516
 30
0.000000
  70
    32
  0
VERTEX
  8
0
  5
10A1E
 10
40.2356
 20
98.0901
 30
0.000000
  70
    32
  0
VERTEX
  8
0
  5
10A1F
 10
40.2205
 20
98.1283
 30
0.000000
  70
    32
  0
VERTEX
  8
0
  5
10A20
 10
40.2050
 20
98.1664
 30
0.000000
  70
    32
  0
VERTEX
  8
0
  5
10A21
 10
40.1892
 20
98.2042
 30
0.000000
  70
    32
  0
VERTEX
  8
0
  5
10A22
 10
40.1729
 20
98.2418
 30
0.000000
  70
    32
  0
VERTEX
  8
0
  5
10A23
 10
40.1562
 20
98.2792
 30
0.000000
  70
    32
  0
VERTEX
  8
0
  5
10A24
 10
40.1392
 20
98.3164
 30
0.000000
  70
    32
  0
VERTEX
  8
0
  5
10A25
 10
40.1217
 20
98.3533
 30
0.000000
  70
    32
  0
VERTEX
  8
0
  5
10A26
 10
40.1039
 20
98.3899
 30
0.000000
  70
    32
  0
VERTEX
  8
0
  5
10A27
 10
40.0857
 20
98.4264
 30
0.000000
  70
    32
  0
VERTEX
  8
0
  5
10A28
 10
40.0671
 20
98.4625
 30
0.000000
  70
    32
  0
VERTEX
  8
0
  5
10A29
 10
40.0482
 20
98.4984
 30
0.000000
  70
    32
  0
VERTEX
  8
0
  5
10A2A
 10
40.0288
 20
98.5341
 30
0.000000
  70
    32
  0
VERTEX
  8
0
  5
10A2B
 10
40.0092
 20
98.5694
 30
0.000000
  70
    32
  0
VERTEX
  8
0
  5
10A2C
 10
39.9891
 20
98.6045
 30
0.000000
  70
    32
  0
VERTEX
  8
0
  5
10A2D
 10
39.9687
 20
98.6394
 30
0.000000
  70
    32
  0
VERTEX
  8
0
  5
10A2E
 10
39.9479
 20
98.6739
 30
0.000000
  70
    32
  0
VERTEX
  8
0
  5
10A2F
 10
39.9267
 20
98.7081
 30
0.000000
  70
    32
  0
VERTEX
  8
0
  5
10A30
 10
39.9052
 20
98.7421
 30
0.000000
  70
    32
  0
VERTEX
  8
0
  5
10A31
 10
39.8833
 20
98.7757
 30
0.000000
  70
    32
  0
VERTEX
  8
0
  5
10A32
 10
39.8611
 20
98.8091
 30
0.000000
  70
    32
  0
VERTEX
  8
0
  5
10A33
 10
39.8386
 20
98.8421
 30
0.000000
  70
    32
  0
VERTEX
  8
0
  5
10A34
 10
39.8157
 20
98.8748
 30
0.000000
  70
    32
  0
VERTEX
  8
0
  5
10A35
 10
39.7925
 20
98.9072
 30
0.000000
  70
    32
  0
VERTEX
  8
0
  5
10A36
 10
39.7689
 20
98.9393
 30
0.000000
  70
    32
  0
VERTEX
  8
0
  5
10A37
 10
39.7450
 20
98.9710
 30
0.000000
  70
    32
  0
VERTEX
  8
0
  5
10A38
 10
39.7207
 20
99.0025
 30
0.000000
  70
    32
  0
VERTEX
  8
0
  5
10A39
 10
39.6962
 20
99.0335
 30
0.000000
  70
    32
  0
VERTEX
  8
0
  5
10A3A
 10
39.6713
 20
99.0643
 30
0.000000
  70
    32
  0
VERTEX
  8
0
  5
10A3B
 10
39.6461
 20
99.0947
 30
0.000000
  70
    32
  0
SEQEND
  8
0
  5
10A3C
  0
POLYLINE
  5
F8AE
  8
0
 10
60.401915269674127
 20
94.13235856414515
 30
0.0
 66
     1
 70
     8
  0
VERTEX
  8
0
  5
10A3D
 10
60.4019
 20
94.1324
 30
0.000000
  70
    32
  0
VERTEX
  8
0
  5
10A3E
 10
60.4274
 20
94.1631
 30
0.000000
  70
    32
  0
VERTEX
  8
0
  5
10A3F
 10
60.4525
 20
94.1942
 30
0.000000
  70
    32
  0
VERTEX
  8
0
  5
10A40
 10
60.4774
 20
94.2257
 30
0.000000
  70
    32
  0
VERTEX
  8
0
  5
10A41
 10
60.5019
 20
94.2577
 30
0.000000
  70
    32
  0
VERTEX
  8
0
  5
10A42
 10
60.5261
 20
94.2899
 30
0.000000
  70
    32
  0
VERTEX
  8
0
  5
10A43
 10
60.5499
 20
94.3226
 30
0.000000
  70
    32
  0
VERTEX
  8
0
  5
10A44
 10
60.5735
 20
94.3557
 30
0.000000
  70
    32
  0
VERTEX
  8
0
  5
10A45
 10
60.5967
 20
94.3891
 30
0.000000
  70
    32
  0
VERTEX
  8
0
  5
10A46
 10
60.6195
 20
94.4228
 30
0.000000
  70
    32
  0
VERTEX
  8
0
  5
10A47
 10
60.6420
 20
94.4570
 30
0.000000
  70
    32
  0
VERTEX
  8
0
  5
10A48
 10
60.6642
 20
94.4915
 30
0.000000
  70
    32
  0
VERTEX
  8
0
  5
10A49
 10
60.6860
 20
94.5263
 30
0.000000
  70
    32
  0
VERTEX
  8
0
  5
10A4A
 10
60.7074
 20
94.5615
 30
0.000000
  70
    32
  0
VERTEX
  8
0
  5
10A4B
 10
60.7285
 20
94.5970
 30
0.000000
  70
    32
  0
VERTEX
  8
0
  5
10A4C
 10
60.7493
 20
94.6328
 30
0.000000
  70
    32
  0
VERTEX
  8
0
  5
10A4D
 10
60.7697
 20
94.6689
 30
0.000000
  70
    32
  0
VERTEX
  8
0
  5
10A4E
 10
60.7897
 20
94.7054
 30
0.000000
  70
    32
  0
VERTEX
  8
0
  5
10A4F
 10
60.8093
 20
94.7422
 30
0.000000
  70
    32
  0
VERTEX
  8
0
  5
10A50
 10
60.8285
 20
94.7793
 30
0.000000
  70
    32
  0
VERTEX
  8
0
  5
10A51
 10
60.8474
 20
94.8167
 30
0.000000
  70
    32
  0
VERTEX
  8
0
  5
10A52
 10
60.8659
 20
94.8544
 30
0.000000
  70
    32
  0
VERTEX
  8
0
  5
10A53
 10
60.8840
 20
94.8923
 30
0.000000
  70
    32
  0
VERTEX
  8
0
  5
10A54
 10
60.9018
 20
94.9306
 30
0.000000
  70
    32
  0
VERTEX
  8
0
  5
10A55
 10
60.9191
 20
94.9691
 30
0.000000
  70
    32
  0
VERTEX
  8
0
  5
10A56
 10
60.9361
 20
95.0079
 30
0.000000
  70
    32
  0
VERTEX
  8
0
  5
10A57
 10
60.9526
 20
95.0470
 30
0.000000
  70
    32
  0
VERTEX
  8
0
  5
10A58
 10
60.9688
 20
95.0863
 30
0.000000
  70
    32
  0
VERTEX
  8
0
  5
10A59
 10
60.9845
 20
95.1259
 30
0.000000
  70
    32
  0
VERTEX
  8
0
  5
10A5A
 10
60.9999
 20
95.1657
 30
0.000000
  70
    32
  0
VERTEX
  8
0
  5
10A5B
 10
61.0149
 20
95.2058
 30
0.000000
  70
    32
  0
VERTEX
  8
0
  5
10A5C
 10
61.0294
 20
95.2460
 30
0.000000
  70
    32
  0
VERTEX
  8
0
  5
10A5D
 10
61.0435
 20
95.2866
 30
0.000000
  70
    32
  0
VERTEX
  8
0
  5
10A5E
 10
61.0573
 20
95.3273
 30
0.000000
  70
    32
  0
VERTEX
  8
0
  5
10A5F
 10
61.0706
 20
95.3682
 30
0.000000
  70
    32
  0
VERTEX
  8
0
  5
10A60
 10
61.0835
 20
95.4094
 30
0.000000
  70
    32
  0
VERTEX
  8
0
  5
10A61
 10
61.0960
 20
95.4507
 30
0.000000
  70
    32
  0
VERTEX
  8
0
  5
10A62
 10
61.1080
 20
95.4923
 30
0.000000
  70
    32
  0
VERTEX
  8
0
  5
10A63
 10
61.1197
 20
95.5340
 30
0.000000
  70
    32
  0
VERTEX
  8
0
  5
10A64
 10
61.1309
 20
95.5759
 30
0.000000
  70
    32
  0
VERTEX
  8
0
  5
10A65
 10
61.1417
 20
95.6180
 30
0.000000
  70
    32
  0
VERTEX
  8
0
  5
10A66
 10
61.1520
 20
95.6603
 30
0.000000
  70
    32
  0
VERTEX
  8
0
  5
10A67
 10
61.1620
 20
95.7027
 30
0.000000
  70
    32
  0
VERTEX
  8
0
  5
10A68
 10
61.1715
 20
95.7452
 30
0.000000
  70
    32
  0
VERTEX
  8
0
  5
10A69
 10
61.1805
 20
95.7879
 30
0.000000
  70
    32
  0
VERTEX
  8
0
  5
10A6A
 10
61.1892
 20
95.8308
 30
0.000000
  70
    32
  0
VERTEX
  8
0
  5
10A6B
 10
61.1974
 20
95.8738
 30
0.000000
  70
    32
  0
VERTEX
  8
0
  5
10A6C
 10
61.2051
 20
95.9169
 30
0.000000
  70
    32
  0
VERTEX
  8
0
  5
10A6D
 10
61.2125
 20
95.9601
 30
0.000000
  70
    32
  0
VERTEX
  8
0
  5
10A6E
 10
61.2194
 20
96.0034
 30
0.000000
  70
    32
  0
VERTEX
  8
0
  5
10A6F
 10
61.2258
 20
96.0469
 30
0.000000
  70
    32
  0
VERTEX
  8
0
  5
10A70
 10
61.2318
 20
96.0904
 30
0.000000
  70
    32
  0
VERTEX
  8
0
  5
10A71
 10
61.2374
 20
96.1340
 30
0.000000
  70
    32
  0
VERTEX
  8
0
  5
10A72
 10
61.2425
 20
96.1777
 30
0.000000
  70
    32
  0
VERTEX
  8
0
  5
10A73
 10
61.2472
 20
96.2215
 30
0.000000
  70
    32
  0
VERTEX
  8
0
  5
10A74
 10
61.2514
 20
96.2654
 30
0.000000
  70
    32
  0
VERTEX
  8
0
  5
10A75
 10
61.2552
 20
96.3093
 30
0.000000
  70
    32
  0
VERTEX
  8
0
  5
10A76
 10
61.2586
 20
96.3533
 30
0.000000
  70
    32
  0
VERTEX
  8
0
  5
10A77
 10
61.2615
 20
96.3973
 30
0.000000
  70
    32
  0
VERTEX
  8
0
  5
10A78
 10
61.2640
 20
96.4414
 30
0.000000
  70
    32
  0
VERTEX
  8
0
  5
10A79
 10
61.2660
 20
96.4855
 30
0.000000
  70
    32
  0
VERTEX
  8
0
  5
10A7A
 10
61.2675
 20
96.5297
 30
0.000000
  70
    32
  0
VERTEX
  8
0
  5
10A7B
 10
61.2687
 20
96.5738
 30
0.000000
  70
    32
  0
VERTEX
  8
0
  5
10A7C
 10
61.2693
 20
96.6180
 30
0.000000
  70
    32
  0
VERTEX
  8
0
  5
10A7D
 10
61.2695
 20
96.6622
 30
0.000000
  70
    32
  0
VERTEX
  8
0
  5
10A7E
 10
61.2693
 20
96.7063
 30
0.000000
  70
    32
  0
VERTEX
  8
0
  5
10A7F
 10
61.2687
 20
96.7505
 30
0.000000
  70
    32
  0
VERTEX
  8
0
  5
10A80
 10
61.2675
 20
96.7947
 30
0.000000
  70
    32
  0
VERTEX
  8
0
  5
10A81
 10
61.2660
 20
96.8388
 30
0.000000
  70
    32
  0
VERTEX
  8
0
  5
10A82
 10
61.2640
 20
96.8829
 30
0.000000
  70
    32
  0
VERTEX
  8
0
  5
10A83
 10
61.2615
 20
96.9270
 30
0.000000
  70
    32
  0
VERTEX
  8
0
  5
10A84
 10
61.2586
 20
96.9710
 30
0.000000
  70
    32
  0
VERTEX
  8
0
  5
10A85
 10
61.2552
 20
97.0150
 30
0.000000
  70
    32
  0
VERTEX
  8
0
  5
10A86
 10
61.2514
 20
97.0589
 30
0.000000
  70
    32
  0
VERTEX
  8
0
  5
10A87
 10
61.2472
 20
97.1028
 30
0.000000
  70
    32
  0
VERTEX
  8
0
  5
10A88
 10
61.2425
 20
97.1466
 30
0.000000
  70
    32
  0
VERTEX
  8
0
  5
10A89
 10
61.2374
 20
97.1903
 30
0.000000
  70
    32
  0
VERTEX
  8
0
  5
10A8A
 10
61.2318
 20
97.2339
 30
0.000000
  70
    32
  0
VERTEX
  8
0
  5
10A8B
 10
61.2258
 20
97.2774
 30
0.000000
  70
    32
  0
VERTEX
  8
0
  5
10A8C
 10
61.2194
 20
97.3209
 30
0.000000
  70
    32
  0
VERTEX
  8
0
  5
10A8D
 10
61.2125
 20
97.3642
 30
0.000000
  70
    32
  0
VERTEX
  8
0
  5
10A8E
 10
61.2051
 20
97.4074
 30
0.000000
  70
    32
  0
VERTEX
  8
0
  5
10A8F
 10
61.1974
 20
97.4506
 30
0.000000
  70
    32
  0
VERTEX
  8
0
  5
10A90
 10
61.1892
 20
97.4935
 30
0.000000
  70
    32
  0
VERTEX
  8
0
  5
10A91
 10
61.1805
 20
97.5364
 30
0.000000
  70
    32
  0
VERTEX
  8
0
  5
10A92
 10
61.1715
 20
97.5791
 30
0.000000
  70
    32
  0
VERTEX
  8
0
  5
10A93
 10
61.1620
 20
97.6216
 30
0.000000
  70
    32
  0
VERTEX
  8
0
  5
10A94
 10
61.1520
 20
97.6641
 30
0.000000
  70
    32
  0
VERTEX
  8
0
  5
10A95
 10
61.1417
 20
97.7063
 30
0.000000
  70
    32
  0
VERTEX
  8
0
  5
10A96
 10
61.1309
 20
97.7484
 30
0.000000
  70
    32
  0
VERTEX
  8
0
  5
10A97
 10
61.1197
 20
97.7903
 30
0.000000
  70
    32
  0
VERTEX
  8
0
  5
10A98
 10
61.1080
 20
97.8320
 30
0.000000
  70
    32
  0
VERTEX
  8
0
  5
10A99
 10
61.0960
 20
97.8736
 30
0.000000
  70
    32
  0
VERTEX
  8
0
  5
10A9A
 10
61.0835
 20
97.9149
 30
0.000000
  70
    32
  0
VERTEX
  8
0
  5
10A9B
 10
61.0706
 20
97.9561
 30
0.000000
  70
    32
  0
VERTEX
  8
0
  5
10A9C
 10
61.0573
 20
97.9970
 30
0.000000
  70
    32
  0
VERTEX
  8
0
  5
10A9D
 10
61.0435
 20
98.0378
 30
0.000000
  70
    32
  0
VERTEX
  8
0
  5
10A9E
 10
61.0294
 20
98.0783
 30
0.000000
  70
    32
  0
VERTEX
  8
0
  5
10A9F
 10
61.0149
 20
98.1186
 30
0.000000
  70
    32
  0
VERTEX
  8
0
  5
10AA0
 10
60.9999
 20
98.1586
 30
0.000000
  70
    32
  0
VERTEX
  8
0
  5
10AA1
 10
60.9845
 20
98.1984
 30
0.000000
  70
    32
  0
VERTEX
  8
0
  5
10AA2
 10
60.9688
 20
98.2380
 30
0.000000
  70
    32
  0
VERTEX
  8
0
  5
10AA3
 10
60.9526
 20
98.2773
 30
0.000000
  70
    32
  0
VERTEX
  8
0
  5
10AA4
 10
60.9361
 20
98.3164
 30
0.000000
  70
    32
  0
VERTEX
  8
0
  5
10AA5
 10
60.9191
 20
98.3552
 30
0.000000
  70
    32
  0
VERTEX
  8
0
  5
10AA6
 10
60.9018
 20
98.3937
 30
0.000000
  70
    32
  0
VERTEX
  8
0
  5
10AA7
 10
60.8840
 20
98.4320
 30
0.000000
  70
    32
  0
VERTEX
  8
0
  5
10AA8
 10
60.8659
 20
98.4699
 30
0.000000
  70
    32
  0
VERTEX
  8
0
  5
10AA9
 10
60.8474
 20
98.5076
 30
0.000000
  70
    32
  0
VERTEX
  8
0
  5
10AAA
 10
60.8285
 20
98.5450
 30
0.000000
  70
    32
  0
VERTEX
  8
0
  5
10AAB
 10
60.8093
 20
98.5821
 30
0.000000
  70
    32
  0
VERTEX
  8
0
  5
10AAC
 10
60.7897
 20
98.6189
 30
0.000000
  70
    32
  0
VERTEX
  8
0
  5
10AAD
 10
60.7696
 20
98.6554
 30
0.000000
  70
    32
  0
VERTEX
  8
0
  5
10AAE
 10
60.7493
 20
98.6915
 30
0.000000
  70
    32
  0
VERTEX
  8
0
  5
10AAF
 10
60.7285
 20
98.7274
 30
0.000000
  70
    32
  0
VERTEX
  8
0
  5
10AB0
 10
60.7074
 20
98.7629
 30
0.000000
  70
    32
  0
VERTEX
  8
0
  5
10AB1
 10
60.6860
 20
98.7980
 30
0.000000
  70
    32
  0
VERTEX
  8
0
  5
10AB2
 10
60.6642
 20
98.8329
 30
0.000000
  70
    32
  0
VERTEX
  8
0
  5
10AB3
 10
60.6420
 20
98.8673
 30
0.000000
  70
    32
  0
VERTEX
  8
0
  5
10AB4
 10
60.6195
 20
98.9015
 30
0.000000
  70
    32
  0
VERTEX
  8
0
  5
10AB5
 10
60.5967
 20
98.9352
 30
0.000000
  70
    32
  0
VERTEX
  8
0
  5
10AB6
 10
60.5735
 20
98.9686
 30
0.000000
  70
    32
  0
VERTEX
  8
0
  5
10AB7
 10
60.5499
 20
99.0017
 30
0.000000
  70
    32
  0
VERTEX
  8
0
  5
10AB8
 10
60.5261
 20
99.0344
 30
0.000000
  70
    32
  0
VERTEX
  8
0
  5
10AB9
 10
60.5019
 20
99.0667
 30
0.000000
  70
    32
  0
VERTEX
  8
0
  5
10ABA
 10
60.4774
 20
99.0986
 30
0.000000
  70
    32
  0
VERTEX
  8
0
  5
10ABB
 10
60.4525
 20
99.1301
 30
0.000000
  70
    32
  0
VERTEX
  8
0
  5
10ABC
 10
60.4274
 20
99.1612
 30
0.000000
  70
    32
  0
VERTEX
  8
0
  5
10ABD
 10
60.4019
 20
99.1920
 30
0.000000
  70
    32
  0
SEQEND
  8
0
  5
10ABE
  0
POLYLINE
  5
F8AF
  8
0
 10
52.353891105778885
 20
99.094660896197553
 30
0.0
 66
     1
 70
     8
  0
VERTEX
  8
0
  5
10ABF
 10
52.3539
 20
99.0947
 30
0.000000
  70
    32
  0
VERTEX
  8
0
  5
10AC0
 10
52.3287
 20
99.0643
 30
0.000000
  70
    32
  0
VERTEX
  8
0
  5
10AC1
 10
52.3038
 20
99.0335
 30
0.000000
  70
    32
  0
VERTEX
  8
0
  5
10AC2
 10
52.2793
 20
99.0025
 30
0.000000
  70
    32
  0
VERTEX
  8
0
  5
10AC3
 10
52.2550
 20
98.9710
 30
0.000000
  70
    32
  0
VERTEX
  8
0
  5
10AC4
 10
52.2311
 20
98.9393
 30
0.000000
  70
    32
  0
VERTEX
  8
0
  5
10AC5
 10
52.2075
 20
98.9072
 30
0.000000
  70
    32
  0
VERTEX
  8
0
  5
10AC6
 10
52.1843
 20
98.8748
 30
0.000000
  70
    32
  0
VERTEX
  8
0
  5
10AC7
 10
52.1614
 20
98.8421
 30
0.000000
  70
    32
  0
VERTEX
  8
0
  5
10AC8
 10
52.1389
 20
98.8091
 30
0.000000
  70
    32
  0
VERTEX
  8
0
  5
10AC9
 10
52.1166
 20
98.7757
 30
0.000000
  70
    32
  0
VERTEX
  8
0
  5
10ACA
 10
52.0948
 20
98.7421
 30
0.000000
  70
    32
  0
VERTEX
  8
0
  5
10ACB
 10
52.0733
 20
98.7081
 30
0.000000
  70
    32
  0
VERTEX
  8
0
  5
10ACC
 10
52.0521
 20
98.6739
 30
0.000000
  70
    32
  0
VERTEX
  8
0
  5
10ACD
 10
52.0313
 20
98.6394
 30
0.000000
  70
    32
  0
VERTEX
  8
0
  5
10ACE
 10
52.0109
 20
98.6045
 30
0.000000
  70
    32
  0
VERTEX
  8
0
  5
10ACF
 10
51.9908
 20
98.5694
 30
0.000000
  70
    32
  0
VERTEX
  8
0
  5
10AD0
 10
51.9711
 20
98.5341
 30
0.000000
  70
    32
  0
VERTEX
  8
0
  5
10AD1
 10
51.9518
 20
98.4984
 30
0.000000
  70
    32
  0
VERTEX
  8
0
  5
10AD2
 10
51.9329
 20
98.4625
 30
0.000000
  70
    32
  0
VERTEX
  8
0
  5
10AD3
 10
51.9143
 20
98.4264
 30
0.000000
  70
    32
  0
VERTEX
  8
0
  5
10AD4
 10
51.8961
 20
98.3899
 30
0.000000
  70
    32
  0
VERTEX
  8
0
  5
10AD5
 10
51.8783
 20
98.3533
 30
0.000000
  70
    32
  0
VERTEX
  8
0
  5
10AD6
 10
51.8608
 20
98.3164
 30
0.000000
  70
    32
  0
VERTEX
  8
0
  5
10AD7
 10
51.8438
 20
98.2792
 30
0.000000
  70
    32
  0
VERTEX
  8
0
  5
10AD8
 10
51.8271
 20
98.2418
 30
0.000000
  70
    32
  0
VERTEX
  8
0
  5
10AD9
 10
51.8108
 20
98.2042
 30
0.000000
  70
    32
  0
VERTEX
  8
0
  5
10ADA
 10
51.7950
 20
98.1664
 30
0.000000
  70
    32
  0
VERTEX
  8
0
  5
10ADB
 10
51.7795
 20
98.1283
 30
0.000000
  70
    32
  0
VERTEX
  8
0
  5
10ADC
 10
51.7644
 20
98.0901
 30
0.000000
  70
    32
  0
VERTEX
  8
0
  5
10ADD
 10
51.7497
 20
98.0516
 30
0.000000
  70
    32
  0
VERTEX
  8
0
  5
10ADE
 10
51.7354
 20
98.0129
 30
0.000000
  70
    32
  0
VERTEX
  8
0
  5
10ADF
 10
51.7215
 20
97.9741
 30
0.000000
  70
    32
  0
VERTEX
  8
0
  5
10AE0
 10
51.7081
 20
97.9350
 30
0.000000
  70
    32
  0
VERTEX
  8
0
  5
10AE1
 10
51.6950
 20
97.8958
 30
0.000000
  70
    32
  0
VERTEX
  8
0
  5
10AE2
 10
51.6824
 20
97.8563
 30
0.000000
  70
    32
  0
VERTEX
  8
0
  5
10AE3
 10
51.6701
 20
97.8168
 30
0.000000
  70
    32
  0
VERTEX
  8
0
  5
10AE4
 10
51.6583
 20
97.7770
 30
0.000000
  70
    32
  0
VERTEX
  8
0
  5
10AE5
 10
51.6469
 20
97.7371
 30
0.000000
  70
    32
  0
VERTEX
  8
0
  5
10AE6
 10
51.6359
 20
97.6970
 30
0.000000
  70
    32
  0
VERTEX
  8
0
  5
10AE7
 10
51.6253
 20
97.6568
 30
0.000000
  70
    32
  0
VERTEX
  8
0
  5
10AE8
 10
51.6151
 20
97.6164
 30
0.000000
  70
    32
  0
VERTEX
  8
0
  5
10AE9
 10
51.6054
 20
97.5759
 30
0.000000
  70
    32
  0
VERTEX
  8
0
  5
10AEA
 10
51.5961
 20
97.5353
 30
0.000000
  70
    32
  0
VERTEX
  8
0
  5
10AEB
 10
51.5872
 20
97.4946
 30
0.000000
  70
    32
  0
VERTEX
  8
0
  5
10AEC
 10
51.5787
 20
97.4537
 30
0.000000
  70
    32
  0
VERTEX
  8
0
  5
10AED
 10
51.5707
 20
97.4127
 30
0.000000
  70
    32
  0
VERTEX
  8
0
  5
10AEE
 10
51.5631
 20
97.3716
 30
0.000000
  70
    32
  0
VERTEX
  8
0
  5
10AEF
 10
51.5559
 20
97.3304
 30
0.000000
  70
    32
  0
VERTEX
  8
0
  5
10AF0
 10
51.5491
 20
97.2891
 30
0.000000
  70
    32
  0
VERTEX
  8
0
  5
10AF1
 10
51.5428
 20
97.2477
 30
0.000000
  70
    32
  0
VERTEX
  8
0
  5
10AF2
 10
51.5369
 20
97.2062
 30
0.000000
  70
    32
  0
VERTEX
  8
0
  5
10AF3
 10
51.5315
 20
97.1647
 30
0.000000
  70
    32
  0
VERTEX
  8
0
  5
10AF4
 10
51.5265
 20
97.1231
 30
0.000000
  70
    32
  0
VERTEX
  8
0
  5
10AF5
 10
51.5219
 20
97.0814
 30
0.000000
  70
    32
  0
VERTEX
  8
0
  5
10AF6
 10
51.5177
 20
97.0396
 30
0.000000
  70
    32
  0
VERTEX
  8
0
  5
10AF7
 10
51.5140
 20
96.9978
 30
0.000000
  70
    32
  0
VERTEX
  8
0
  5
10AF8
 10
51.5107
 20
96.9560
 30
0.000000
  70
    32
  0
VERTEX
  8
0
  5
10AF9
 10
51.5079
 20
96.9141
 30
0.000000
  70
    32
  0
VERTEX
  8
0
  5
10AFA
 10
51.5055
 20
96.8721
 30
0.000000
  70
    32
  0
VERTEX
  8
0
  5
10AFB
 10
51.5035
 20
96.8302
 30
0.000000
  70
    32
  0
VERTEX
  8
0
  5
10AFC
 10
51.5020
 20
96.7882
 30
0.000000
  70
    32
  0
VERTEX
  8
0
  5
10AFD
 10
51.5009
 20
96.7462
 30
0.000000
  70
    32
  0
VERTEX
  8
0
  5
10AFE
 10
51.5002
 20
96.7042
 30
0.000000
  70
    32
  0
VERTEX
  8
0
  5
10AFF
 10
51.5000
 20
96.6622
 30
0.000000
  70
    32
  0
VERTEX
  8
0
  5
10B00
 10
51.5002
 20
96.6201
 30
0.000000
  70
    32
  0
VERTEX
  8
0
  5
10B01
 10
51.5009
 20
96.5781
 30
0.000000
  70
    32
  0
VERTEX
  8
0
  5
10B02
 10
51.5020
 20
96.5361
 30
0.000000
  70
    32
  0
VERTEX
  8
0
  5
10B03
 10
51.5035
 20
96.4941
 30
0.000000
  70
    32
  0
VERTEX
  8
0
  5
10B04
 10
51.5055
 20
96.4522
 30
0.000000
  70
    32
  0
VERTEX
  8
0
  5
10B05
 10
51.5079
 20
96.4102
 30
0.000000
  70
    32
  0
VERTEX
  8
0
  5
10B06
 10
51.5107
 20
96.3683
 30
0.000000
  70
    32
  0
VERTEX
  8
0
  5
10B07
 10
51.5140
 20
96.3265
 30
0.000000
  70
    32
  0
VERTEX
  8
0
  5
10B08
 10
51.5177
 20
96.2847
 30
0.000000
  70
    32
  0
VERTEX
  8
0
  5
10B09
 10
51.5219
 20
96.2429
 30
0.000000
  70
    32
  0
VERTEX
  8
0
  5
10B0A
 10
51.5265
 20
96.2012
 30
0.000000
  70
    32
  0
VERTEX
  8
0
  5
10B0B
 10
51.5315
 20
96.1596
 30
0.000000
  70
    32
  0
VERTEX
  8
0
  5
10B0C
 10
51.5369
 20
96.1181
 30
0.000000
  70
    32
  0
VERTEX
  8
0
  5
10B0D
 10
51.5428
 20
96.0766
 30
0.000000
  70
    32
  0
VERTEX
  8
0
  5
10B0E
 10
51.5491
 20
96.0352
 30
0.000000
  70
    32
  0
VERTEX
  8
0
  5
10B0F
 10
51.5559
 20
95.9939
 30
0.000000
  70
    32
  0
VERTEX
  8
0
  5
10B10
 10
51.5631
 20
95.9527
 30
0.000000
  70
    32
  0
VERTEX
  8
0
  5
10B11
 10
51.5707
 20
95.9116
 30
0.000000
  70
    32
  0
VERTEX
  8
0
  5
10B12
 10
51.5787
 20
95.8706
 30
0.000000
  70
    32
  0
VERTEX
  8
0
  5
10B13
 10
51.5872
 20
95.8297
 30
0.000000
  70
    32
  0
VERTEX
  8
0
  5
10B14
 10
51.5961
 20
95.7890
 30
0.000000
  70
    32
  0
VERTEX
  8
0
  5
10B15
 10
51.6054
 20
95.7484
 30
0.000000
  70
    32
  0
VERTEX
  8
0
  5
10B16
 10
51.6151
 20
95.7079
 30
0.000000
  70
    32
  0
VERTEX
  8
0
  5
10B17
 10
51.6253
 20
95.6675
 30
0.000000
  70
    32
  0
VERTEX
  8
0
  5
10B18
 10
51.6359
 20
95.6273
 30
0.000000
  70
    32
  0
VERTEX
  8
0
  5
10B19
 10
51.6469
 20
95.5872
 30
0.000000
  70
    32
  0
VERTEX
  8
0
  5
10B1A
 10
51.6583
 20
95.5473
 30
0.000000
  70
    32
  0
VERTEX
  8
0
  5
10B1B
 10
51.6701
 20
95.5075
 30
0.000000
  70
    32
  0
VERTEX
  8
0
  5
10B1C
 10
51.6824
 20
95.4680
 30
0.000000
  70
    32
  0
VERTEX
  8
0
  5
10B1D
 10
51.6950
 20
95.4285
 30
0.000000
  70
    32
  0
VERTEX
  8
0
  5
10B1E
 10
51.7081
 20
95.3893
 30
0.000000
  70
    32
  0
VERTEX
  8
0
  5
10B1F
 10
51.7215
 20
95.3503
 30
0.000000
  70
    32
  0
VERTEX
  8
0
  5
10B20
 10
51.7354
 20
95.3114
 30
0.000000
  70
    32
  0
VERTEX
  8
0
  5
10B21
 10
51.7497
 20
95.2727
 30
0.000000
  70
    32
  0
VERTEX
  8
0
  5
10B22
 10
51.7644
 20
95.2343
 30
0.000000
  70
    32
  0
VERTEX
  8
0
  5
10B23
 10
51.7795
 20
95.1960
 30
0.000000
  70
    32
  0
VERTEX
  8
0
  5
10B24
 10
51.7950
 20
95.1579
 30
0.000000
  70
    32
  0
VERTEX
  8
0
  5
10B25
 10
51.8108
 20
95.1201
 30
0.000000
  70
    32
  0
VERTEX
  8
0
  5
10B26
 10
51.8271
 20
95.0825
 30
0.000000
  70
    32
  0
VERTEX
  8
0
  5
10B27
 10
51.8438
 20
95.0451
 30
0.000000
  70
    32
  0
VERTEX
  8
0
  5
10B28
 10
51.8608
 20
95.0080
 30
0.000000
  70
    32
  0
VERTEX
  8
0
  5
10B29
 10
51.8783
 20
94.9710
 30
0.000000
  70
    32
  0
VERTEX
  8
0
  5
10B2A
 10
51.8961
 20
94.9344
 30
0.000000
  70
    32
  0
VERTEX
  8
0
  5
10B2B
 10
51.9143
 20
94.8980
 30
0.000000
  70
    32
  0
VERTEX
  8
0
  5
10B2C
 10
51.9329
 20
94.8618
 30
0.000000
  70
    32
  0
VERTEX
  8
0
  5
10B2D
 10
51.9518
 20
94.8259
 30
0.000000
  70
    32
  0
VERTEX
  8
0
  5
10B2E
 10
51.9711
 20
94.7902
 30
0.000000
  70
    32
  0
VERTEX
  8
0
  5
10B2F
 10
51.9908
 20
94.7549
 30
0.000000
  70
    32
  0
VERTEX
  8
0
  5
10B30
 10
52.0109
 20
94.7198
 30
0.000000
  70
    32
  0
VERTEX
  8
0
  5
10B31
 10
52.0313
 20
94.6850
 30
0.000000
  70
    32
  0
VERTEX
  8
0
  5
10B32
 10
52.0521
 20
94.6504
 30
0.000000
  70
    32
  0
VERTEX
  8
0
  5
10B33
 10
52.0733
 20
94.6162
 30
0.000000
  70
    32
  0
VERTEX
  8
0
  5
10B34
 10
52.0948
 20
94.5822
 30
0.000000
  70
    32
  0
VERTEX
  8
0
  5
10B35
 10
52.1166
 20
94.5486
 30
0.000000
  70
    32
  0
VERTEX
  8
0
  5
10B36
 10
52.1389
 20
94.5152
 30
0.000000
  70
    32
  0
VERTEX
  8
0
  5
10B37
 10
52.1614
 20
94.4822
 30
0.000000
  70
    32
  0
VERTEX
  8
0
  5
10B38
 10
52.1843
 20
94.4495
 30
0.000000
  70
    32
  0
VERTEX
  8
0
  5
10B39
 10
52.2075
 20
94.4171
 30
0.000000
  70
    32
  0
VERTEX
  8
0
  5
10B3A
 10
52.2311
 20
94.3850
 30
0.000000
  70
    32
  0
VERTEX
  8
0
  5
10B3B
 10
52.2550
 20
94.3533
 30
0.000000
  70
    32
  0
VERTEX
  8
0
  5
10B3C
 10
52.2793
 20
94.3219
 30
0.000000
  70
    32
  0
VERTEX
  8
0
  5
10B3D
 10
52.3038
 20
94.2908
 30
0.000000
  70
    32
  0
VERTEX
  8
0
  5
10B3E
 10
52.3287
 20
94.2600
 30
0.000000
  70
    32
  0
VERTEX
  8
0
  5
10B3F
 10
52.3539
 20
94.2296
 30
0.000000
  70
    32
  0
SEQEND
  8
0
  5
10B40
  0
POLYLINE
  5
F8B0
  8
0
 10
31.598086961523101
 20
99.191952186233252
 30
0.0
 66
     1
 70
     8
  0
VERTEX
  8
0
  5
10B41
 10
31.5981
 20
99.1920
 30
0.000000
  70
    32
  0
VERTEX
  8
0
  5
10B42
 10
31.5726
 20
99.1612
 30
0.000000
  70
    32
  0
VERTEX
  8
0
  5
10B43
 10
31.5475
 20
99.1301
 30
0.000000
  70
    32
  0
VERTEX
  8
0
  5
10B44
 10
31.5226
 20
99.0986
 30
0.000000
  70
    32
  0
VERTEX
  8
0
  5
10B45
 10
31.4981
 20
99.0667
 30
0.000000
  70
    32
  0
VERTEX
  8
0
  5
10B46
 10
31.4739
 20
99.0344
 30
0.000000
  70
    32
  0
VERTEX
  8
0
  5
10B47
 10
31.4501
 20
99.0017
 30
0.000000
  70
    32
  0
VERTEX
  8
0
  5
10B48
 10
31.4265
 20
98.9686
 30
0.000000
  70
    32
  0
VERTEX
  8
0
  5
10B49
 10
31.4033
 20
98.9352
 30
0.000000
  70
    32
  0
VERTEX
  8
0
  5
10B4A
 10
31.3805
 20
98.9015
 30
0.000000
  70
    32
  0
VERTEX
  8
0
  5
10B4B
 10
31.3580
 20
98.8673
 30
0.000000
  70
    32
  0
VERTEX
  8
0
  5
10B4C
 10
31.3358
 20
98.8329
 30
0.000000
  70
    32
  0
VERTEX
  8
0
  5
10B4D
 10
31.3140
 20
98.7980
 30
0.000000
  70
    32
  0
VERTEX
  8
0
  5
10B4E
 10
31.2926
 20
98.7629
 30
0.000000
  70
    32
  0
VERTEX
  8
0
  5
10B4F
 10
31.2715
 20
98.7274
 30
0.000000
  70
    32
  0
VERTEX
  8
0
  5
10B50
 10
31.2507
 20
98.6915
 30
0.000000
  70
    32
  0
VERTEX
  8
0
  5
10B51
 10
31.2304
 20
98.6554
 30
0.000000
  70
    32
  0
VERTEX
  8
0
  5
10B52
 10
31.2103
 20
98.6189
 30
0.000000
  70
    32
  0
VERTEX
  8
0
  5
10B53
 10
31.1907
 20
98.5821
 30
0.000000
  70
    32
  0
VERTEX
  8
0
  5
10B54
 10
31.1715
 20
98.5450
 30
0.000000
  70
    32
  0
VERTEX
  8
0
  5
10B55
 10
31.1526
 20
98.5076
 30
0.000000
  70
    32
  0
VERTEX
  8
0
  5
10B56
 10
31.1341
 20
98.4699
 30
0.000000
  70
    32
  0
VERTEX
  8
0
  5
10B57
 10
31.1160
 20
98.4320
 30
0.000000
  70
    32
  0
VERTEX
  8
0
  5
10B58
 10
31.0982
 20
98.3937
 30
0.000000
  70
    32
  0
VERTEX
  8
0
  5
10B59
 10
31.0809
 20
98.3552
 30
0.000000
  70
    32
  0
VERTEX
  8
0
  5
10B5A
 10
31.0639
 20
98.3164
 30
0.000000
  70
    32
  0
VERTEX
  8
0
  5
10B5B
 10
31.0474
 20
98.2773
 30
0.000000
  70
    32
  0
VERTEX
  8
0
  5
10B5C
 10
31.0312
 20
98.2380
 30
0.000000
  70
    32
  0
VERTEX
  8
0
  5
10B5D
 10
31.0155
 20
98.1984
 30
0.000000
  70
    32
  0
VERTEX
  8
0
  5
10B5E
 10
31.0001
 20
98.1586
 30
0.000000
  70
    32
  0
VERTEX
  8
0
  5
10B5F
 10
30.9851
 20
98.1186
 30
0.000000
  70
    32
  0
VERTEX
  8
0
  5
10B60
 10
30.9706
 20
98.0783
 30
0.000000
  70
    32
  0
VERTEX
  8
0
  5
10B61
 10
30.9565
 20
98.0378
 30
0.000000
  70
    32
  0
VERTEX
  8
0
  5
10B62
 10
30.9427
 20
97.9970
 30
0.000000
  70
    32
  0
VERTEX
  8
0
  5
10B63
 10
30.9294
 20
97.9561
 30
0.000000
  70
    32
  0
VERTEX
  8
0
  5
10B64
 10
30.9165
 20
97.9149
 30
0.000000
  70
    32
  0
VERTEX
  8
0
  5
10B65
 10
30.9040
 20
97.8736
 30
0.000000
  70
    32
  0
VERTEX
  8
0
  5
10B66
 10
30.8920
 20
97.8320
 30
0.000000
  70
    32
  0
VERTEX
  8
0
  5
10B67
 10
30.8803
 20
97.7903
 30
0.000000
  70
    32
  0
VERTEX
  8
0
  5
10B68
 10
30.8691
 20
97.7484
 30
0.000000
  70
    32
  0
VERTEX
  8
0
  5
10B69
 10
30.8583
 20
97.7063
 30
0.000000
  70
    32
  0
VERTEX
  8
0
  5
10B6A
 10
30.8480
 20
97.6641
 30
0.000000
  70
    32
  0
VERTEX
  8
0
  5
10B6B
 10
30.8380
 20
97.6216
 30
0.000000
  70
    32
  0
VERTEX
  8
0
  5
10B6C
 10
30.8285
 20
97.5791
 30
0.000000
  70
    32
  0
VERTEX
  8
0
  5
10B6D
 10
30.8195
 20
97.5364
 30
0.000000
  70
    32
  0
VERTEX
  8
0
  5
10B6E
 10
30.8108
 20
97.4935
 30
0.000000
  70
    32
  0
VERTEX
  8
0
  5
10B6F
 10
30.8026
 20
97.4506
 30
0.000000
  70
    32
  0
VERTEX
  8
0
  5
10B70
 10
30.7949
 20
97.4074
 30
0.000000
  70
    32
  0
VERTEX
  8
0
  5
10B71
 10
30.7875
 20
97.3642
 30
0.000000
  70
    32
  0
VERTEX
  8
0
  5
10B72
 10
30.7806
 20
97.3209
 30
0.000000
  70
    32
  0
VERTEX
  8
0
  5
10B73
 10
30.7742
 20
97.2774
 30
0.000000
  70
    32
  0
VERTEX
  8
0
  5
10B74
 10
30.7682
 20
97.2339
 30
0.000000
  70
    32
  0
VERTEX
  8
0
  5
10B75
 10
30.7626
 20
97.1903
 30
0.000000
  70
    32
  0
VERTEX
  8
0
  5
10B76
 10
30.7575
 20
97.1466
 30
0.000000
  70
    32
  0
VERTEX
  8
0
  5
10B77
 10
30.7528
 20
97.1028
 30
0.000000
  70
    32
  0
VERTEX
  8
0
  5
10B78
 10
30.7486
 20
97.0589
 30
0.000000
  70
    32
  0
VERTEX
  8
0
  5
10B79
 10
30.7448
 20
97.0150
 30
0.000000
  70
    32
  0
VERTEX
  8
0
  5
10B7A
 10
30.7414
 20
96.9710
 30
0.000000
  70
    32
  0
VERTEX
  8
0
  5
10B7B
 10
30.7385
 20
96.9270
 30
0.000000
  70
    32
  0
VERTEX
  8
0
  5
10B7C
 10
30.7360
 20
96.8829
 30
0.000000
  70
    32
  0
VERTEX
  8
0
  5
10B7D
 10
30.7340
 20
96.8388
 30
0.000000
  70
    32
  0
VERTEX
  8
0
  5
10B7E
 10
30.7325
 20
96.7947
 30
0.000000
  70
    32
  0
VERTEX
  8
0
  5
10B7F
 10
30.7313
 20
96.7505
 30
0.000000
  70
    32
  0
VERTEX
  8
0
  5
10B80
 10
30.7307
 20
96.7063
 30
0.000000
  70
    32
  0
VERTEX
  8
0
  5
10B81
 10
30.7305
 20
96.6622
 30
0.000000
  70
    32
  0
VERTEX
  8
0
  5
10B82
 10
30.7307
 20
96.6180
 30
0.000000
  70
    32
  0
VERTEX
  8
0
  5
10B83
 10
30.7313
 20
96.5738
 30
0.000000
  70
    32
  0
VERTEX
  8
0
  5
10B84
 10
30.7325
 20
96.5297
 30
0.000000
  70
    32
  0
VERTEX
  8
0
  5
10B85
 10
30.7340
 20
96.4855
 30
0.000000
  70
    32
  0
VERTEX
  8
0
  5
10B86
 10
30.7360
 20
96.4414
 30
0.000000
  70
    32
  0
VERTEX
  8
0
  5
10B87
 10
30.7385
 20
96.3973
 30
0.000000
  70
    32
  0
VERTEX
  8
0
  5
10B88
 10
30.7414
 20
96.3533
 30
0.000000
  70
    32
  0
VERTEX
  8
0
  5
10B89
 10
30.7448
 20
96.3093
 30
0.000000
  70
    32
  0
VERTEX
  8
0
  5
10B8A
 10
30.7486
 20
96.2654
 30
0.000000
  70
    32
  0
VERTEX
  8
0
  5
10B8B
 10
30.7528
 20
96.2215
 30
0.000000
  70
    32
  0
VERTEX
  8
0
  5
10B8C
 10
30.7575
 20
96.1777
 30
0.000000
  70
    32
  0
VERTEX
  8
0
  5
10B8D
 10
30.7626
 20
96.1340
 30
0.000000
  70
    32
  0
VERTEX
  8
0
  5
10B8E
 10
30.7682
 20
96.0904
 30
0.000000
  70
    32
  0
VERTEX
  8
0
  5
10B8F
 10
30.7742
 20
96.0469
 30
0.000000
  70
    32
  0
VERTEX
  8
0
  5
10B90
 10
30.7806
 20
96.0034
 30
0.000000
  70
    32
  0
VERTEX
  8
0
  5
10B91
 10
30.7875
 20
95.9601
 30
0.000000
  70
    32
  0
VERTEX
  8
0
  5
10B92
 10
30.7949
 20
95.9169
 30
0.000000
  70
    32
  0
VERTEX
  8
0
  5
10B93
 10
30.8026
 20
95.8738
 30
0.000000
  70
    32
  0
VERTEX
  8
0
  5
10B94
 10
30.8108
 20
95.8308
 30
0.000000
  70
    32
  0
VERTEX
  8
0
  5
10B95
 10
30.8195
 20
95.7879
 30
0.000000
  70
    32
  0
VERTEX
  8
0
  5
10B96
 10
30.8285
 20
95.7452
 30
0.000000
  70
    32
  0
VERTEX
  8
0
  5
10B97
 10
30.8380
 20
95.7027
 30
0.000000
  70
    32
  0
VERTEX
  8
0
  5
10B98
 10
30.8480
 20
95.6603
 30
0.000000
  70
    32
  0
VERTEX
  8
0
  5
10B99
 10
30.8583
 20
95.6180
 30
0.000000
  70
    32
  0
VERTEX
  8
0
  5
10B9A
 10
30.8691
 20
95.5759
 30
0.000000
  70
    32
  0
VERTEX
  8
0
  5
10B9B
 10
30.8803
 20
95.5340
 30
0.000000
  70
    32
  0
VERTEX
  8
0
  5
10B9C
 10
30.8920
 20
95.4923
 30
0.000000
  70
    32
  0
VERTEX
  8
0
  5
10B9D
 10
30.9040
 20
95.4507
 30
0.000000
  70
    32
  0
VERTEX
  8
0
  5
10B9E
 10
30.9165
 20
95.4094
 30
0.000000
  70
    32
  0
VERTEX
  8
0
  5
10B9F
 10
30.9294
 20
95.3682
 30
0.000000
  70
    32
  0
VERTEX
  8
0
  5
10BA0
 10
30.9427
 20
95.3273
 30
0.000000
  70
    32
  0
VERTEX
  8
0
  5
10BA1
 10
30.9565
 20
95.2866
 30
0.000000
  70
    32
  0
VERTEX
  8
0
  5
10BA2
 10
30.9706
 20
95.2460
 30
0.000000
  70
    32
  0
VERTEX
  8
0
  5
10BA3
 10
30.9851
 20
95.2058
 30
0.000000
  70
    32
  0
VERTEX
  8
0
  5
10BA4
 10
31.0001
 20
95.1657
 30
0.000000
  70
    32
  0
VERTEX
  8
0
  5
10BA5
 10
31.0155
 20
95.1259
 30
0.000000
  70
    32
  0
VERTEX
  8
0
  5
10BA6
 10
31.0312
 20
95.0863
 30
0.000000
  70
    32
  0
VERTEX
  8
0
  5
10BA7
 10
31.0474
 20
95.0470
 30
0.000000
  70
    32
  0
VERTEX
  8
0
  5
10BA8
 10
31.0639
 20
95.0079
 30
0.000000
  70
    32
  0
VERTEX
  8
0
  5
10BA9
 10
31.0809
 20
94.9691
 30
0.000000
  70
    32
  0
VERTEX
  8
0
  5
10BAA
 10
31.0982
 20
94.9306
 30
0.000000
  70
    32
  0
VERTEX
  8
0
  5
10BAB
 10
31.1160
 20
94.8923
 30
0.000000
  70
    32
  0
VERTEX
  8
0
  5
10BAC
 10
31.1341
 20
94.8544
 30
0.000000
  70
    32
  0
VERTEX
  8
0
  5
10BAD
 10
31.1526
 20
94.8167
 30
0.000000
  70
    32
  0
VERTEX
  8
0
  5
10BAE
 10
31.1715
 20
94.7793
 30
0.000000
  70
    32
  0
VERTEX
  8
0
  5
10BAF
 10
31.1907
 20
94.7422
 30
0.000000
  70
    32
  0
VERTEX
  8
0
  5
10BB0
 10
31.2103
 20
94.7054
 30
0.000000
  70
    32
  0
VERTEX
  8
0
  5
10BB1
 10
31.2303
 20
94.6689
 30
0.000000
  70
    32
  0
VERTEX
  8
0
  5
10BB2
 10
31.2507
 20
94.6328
 30
0.000000
  70
    32
  0
VERTEX
  8
0
  5
10BB3
 10
31.2715
 20
94.5970
 30
0.000000
  70
    32
  0
VERTEX
  8
0
  5
10BB4
 10
31.2926
 20
94.5615
 30
0.000000
  70
    32
  0
VERTEX
  8
0
  5
10BB5
 10
31.3140
 20
94.5263
 30
0.000000
  70
    32
  0
VERTEX
  8
0
  5
10BB6
 10
31.3358
 20
94.4915
 30
0.000000
  70
    32
  0
VERTEX
  8
0
  5
10BB7
 10
31.3580
 20
94.4570
 30
0.000000
  70
    32
  0
VERTEX
  8
0
  5
10BB8
 10
31.3805
 20
94.4228
 30
0.000000
  70
    32
  0
VERTEX
  8
0
  5
10BB9
 10
31.4033
 20
94.3891
 30
0.000000
  70
    32
  0
VERTEX
  8
0
  5
10BBA
 10
31.4265
 20
94.3557
 30
0.000000
  70
    32
  0
VERTEX
  8
0
  5
10BBB
 10
31.4501
 20
94.3226
 30
0.000000
  70
    32
  0
VERTEX
  8
0
  5
10BBC
 10
31.4739
 20
94.2899
 30
0.000000
  70
    32
  0
VERTEX
  8
0
  5
10BBD
 10
31.4981
 20
94.2577
 30
0.000000
  70
    32
  0
VERTEX
  8
0
  5
10BBE
 10
31.5226
 20
94.2257
 30
0.000000
  70
    32
  0
VERTEX
  8
0
  5
10BBF
 10
31.5475
 20
94.1942
 30
0.000000
  70
    32
  0
VERTEX
  8
0
  5
10BC0
 10
31.5726
 20
94.1631
 30
0.000000
  70
    32
  0
VERTEX
  8
0
  5
10BC1
 10
31.5981
 20
94.1324
 30
0.000000
  70
    32
  0
SEQEND
  8
0
  5
10BC2
  0
LINE
  5
F8D0
  8
0
 10
34.468519999998982
 20
94.412154045915258
 30
0.0
 11
34.468519999999899
 21
90.583514045915308
 31
0.0
  0
LINE
  5
FC70
  8
0
 10
118.8416346717635
 20
17.5
 30
0.0
 11
122.0916346717635
 21
17.5
 31
0.0
  0
LINE
  5
FC71
  8
0
 10
128.3416346717635
 20
26.725447999999911
 30
0.0
 11
128.3416346717635
 21
17.5
 31
0.0
  0
LINE
  5
FC72
  8
0
 10
121.3416346717635
 20
27.725447999999911
 30
0.0
 11
127.3416346717635
 21
27.725447999999911
 31
0.0
  0
LINE
  5
FC79
  8
0
 10
123.0916346717635
 20
26.157554000000111
 30
0.0
 11
125.5916346717635
 21
26.157554000000111
 31
0.0
  0
LINE
  5
FC7A
  8
0
 10
123.0916346717635
 20
22.5
 30
0.0
 11
125.5916346717635
 21
22.5
 31
0.0
  0
LINE
  5
FC7B
  8
0
 10
120.3416346717635
 20
11.5
 30
0.0
 11
120.3416346717635
 21
-4.1241161249206471
 31
0.0
  0
LINE
  5
FC7D
  8
0
 10
118.8416317717633
 20
17.50000399999999
 30
0.0
 11
117.3416308717637
 21
11.5
 31
0.0
  0
LINE
  5
FC7F
  8
0
 10
116.8416346717635
 20
-8.0
 30
0.0
 11
116.8416346717635
 21
-33.570820401314677
 31
0.0
  0
LINE
  5
FC82
  8
0
 10
127.3416351717637
 20
27.725447999999911
 30
0.0
 11
128.3416360717633
 21
26.725447999999911
 31
0.0
  0
LINE
  5
FC84
  8
0
 10
128.3416346717635
 20
11.5
 30
0.0
 11
128.3416346717635
 21
-4.1241161249213292
 31
0.0
  0
LINE
  5
FC85
  8
0
 10
126.5916346717635
 20
25.157554000000118
 30
0.0
 11
126.5916346717635
 21
11.5
 31
0.0
  0
LINE
  5
FC89
  8
0
 10
122.0916346717635
 20
25.157554000000118
 30
0.0
 11
122.0916346717635
 21
11.5
 31
0.0
  0
LINE
  5
FC8A
  8
0
 10
129.84163757176381
 20
17.50000399999999
 30
0.0
 11
131.34163847176339
 21
11.5
 31
0.0
  0
LINE
  5
FC8B
  8
0
 10
112.3416346717635
 20
6.0000000000002274
 30
0.0
 11
114.3416346717635
 21
5.9999999999997717
 31
0.0
  0
LINE
  5
FC8C
  8
0
 10
126.5916346717635
 20
17.5
 30
0.0
 11
129.8416346717635
 21
17.5
 31
0.0
  0
LINE
  5
FC8D
  8
0
 10
114.4038124982539
 20
2.5
 30
0.0
 11
120.3416346717635
 21
2.5
 31
0.0
  0
LINE
  5
FC8F
  8
0
 10
114.3416346717635
 20
-2.5
 30
0.0
 11
120.3416346717635
 21
-2.5
 31
0.0
  0
LINE
  5
FC93
  8
0
 10
121.3416341717634
 20
27.725447999999911
 30
0.0
 11
120.3416332717638
 21
26.725447999999911
 31
0.0
  0
LINE
  5
FC94
  8
0
 10
120.3416346717635
 20
26.725447999999911
 30
0.0
 11
120.3416346717635
 21
17.5
 31
0.0
  0
ARC
  5
FC96
  8
0
 10
125.5916346717635
 20
23.5
 30
0.0
 40
1.0
 50
270.0
 51
0.0
  0
ARC
  5
FC97
  8
0
 10
123.0916346717635
 20
25.157554000000118
 30
0.0
 40
1.0
 50
90.0
 51
180.0
  0
ARC
  5
FC98
  8
0
 10
123.0916346717635
 20
23.5
 30
0.0
 40
1.0
 50
180.0
 51
270.0
  0
ARC
  5
FC99
  8
0
 10
125.5916346717635
 20
25.157554000000118
 30
0.0
 40
1.0
 50
0.0
 51
90.0
  0
POLYLINE
  5
FC9A
  8
0
 10
112.3416347217639
 20
2.9999998651856798
 30
0.0
 66
     1
 70
     8
  0
VERTEX
  8
0
  5
10BC3
 10
112.342
 20
3.00000
 30
0.000000
  70
    32
  0
VERTEX
  8
0
  5
10BC4
 10
112.305
 20
2.99910
 30
0.000000
  70
    32
  0
VERTEX
  8
0
  5
10BC5
 10
112.268
 20
2.99639
 30
0.000000
  70
    32
  0
VERTEX
  8
0
  5
10BC6
 10
112.231
 20
2.99187
 30
0.000000
  70
    32
  0
VERTEX
  8
0
  5
10BC7
 10
112.195
 20
2.98555
 30
0.000000
  70
    32
  0
VERTEX
  8
0
  5
10BC8
 10
112.158
 20
2.97744
 30
0.000000
  70
    32
  0
VERTEX
  8
0
  5
10BC9
 10
112.122
 20
2.96753
 30
0.000000
  70
    32
  0
VERTEX
  8
0
  5
10BCA
 10
112.085
 20
2.95583
 30
0.000000
  70
    32
  0
VERTEX
  8
0
  5
10BCB
 10
112.049
 20
2.94236
 30
0.000000
  70
    32
  0
VERTEX
  8
0
  5
10BCC
 10
112.013
 20
2.92711
 30
0.000000
  70
    32
  0
VERTEX
  8
0
  5
10BCD
 10
111.977
 20
2.91009
 30
0.000000
  70
    32
  0
VERTEX
  8
0
  5
10BCE
 10
111.942
 20
2.89133
 30
0.000000
  70
    32
  0
VERTEX
  8
0
  5
10BCF
 10
111.906
 20
2.87082
 30
0.000000
  70
    32
  0
VERTEX
  8
0
  5
10BD0
 10
111.871
 20
2.84858
 30
0.000000
  70
    32
  0
VERTEX
  8
0
  5
10BD1
 10
111.836
 20
2.82463
 30
0.000000
  70
    32
  0
VERTEX
  8
0
  5
10BD2
 10
111.802
 20
2.79898
 30
0.000000
  70
    32
  0
VERTEX
  8
0
  5
10BD3
 10
111.768
 20
2.77164
 30
0.000000
  70
    32
  0
VERTEX
  8
0
  5
10BD4
 10
111.734
 20
2.74263
 30
0.000000
  70
    32
  0
VERTEX
  8
0
  5
10BD5
 10
111.700
 20
2.71197
 30
0.000000
  70
    32
  0
VERTEX
  8
0
  5
10BD6
 10
111.667
 20
2.67967
 30
0.000000
  70
    32
  0
VERTEX
  8
0
  5
10BD7
 10
111.635
 20
2.64576
 30
0.000000
  70
    32
  0
VERTEX
  8
0
  5
10BD8
 10
111.602
 20
2.61026
 30
0.000000
  70
    32
  0
VERTEX
  8
0
  5
10BD9
 10
111.570
 20
2.57319
 30
0.000000
  70
    32
  0
VERTEX
  8
0
  5
10BDA
 10
111.539
 20
2.53456
 30
0.000000
  70
    32
  0
VERTEX
  8
0
  5
10BDB
 10
111.508
 20
2.49441
 30
0.000000
  70
    32
  0
VERTEX
  8
0
  5
10BDC
 10
111.478
 20
2.45275
 30
0.000000
  70
    32
  0
VERTEX
  8
0
  5
10BDD
 10
111.448
 20
2.40962
 30
0.000000
  70
    32
  0
VERTEX
  8
0
  5
10BDE
 10
111.419
 20
2.36504
 30
0.000000
  70
    32
  0
VERTEX
  8
0
  5
10BDF
 10
111.390
 20
2.31903
 30
0.000000
  70
    32
  0
VERTEX
  8
0
  5
10BE0
 10
111.362
 20
2.27163
 30
0.000000
  70
    32
  0
VERTEX
  8
0
  5
10BE1
 10
111.334
 20
2.22285
 30
0.000000
  70
    32
  0
VERTEX
  8
0
  5
10BE2
 10
111.307
 20
2.17274
 30
0.000000
  70
    32
  0
VERTEX
  8
0
  5
10BE3
 10
111.281
 20
2.12132
 30
0.000000
  70
    32
  0
VERTEX
  8
0
  5
10BE4
 10
111.255
 20
2.06862
 30
0.000000
  70
    32
  0
VERTEX
  8
0
  5
10BE5
 10
111.230
 20
2.01468
 30
0.000000
  70
    32
  0
VERTEX
  8
0
  5
10BE6
 10
111.206
 20
1.95952
 30
0.000000
  70
    32
  0
VERTEX
  8
0
  5
10BE7
 10
111.182
 20
1.90318
 30
0.000000
  70
    32
  0
VERTEX
  8
0
  5
10BE8
 10
111.159
 20
1.84569
 30
0.000000
  70
    32
  0
VERTEX
  8
0
  5
10BE9
 10
111.137
 20
1.78710
 30
0.000000
  70
    32
  0
VERTEX
  8
0
  5
10BEA
 10
111.115
 20
1.72742
 30
0.000000
  70
    32
  0
VERTEX
  8
0
  5
10BEB
 10
111.094
 20
1.66671
 30
0.000000
  70
    32
  0
VERTEX
  8
0
  5
10BEC
 10
111.074
 20
1.60499
 30
0.000000
  70
    32
  0
VERTEX
  8
0
  5
10BED
 10
111.055
 20
1.54231
 30
0.000000
  70
    32
  0
VERTEX
  8
0
  5
10BEE
 10
111.037
 20
1.47869
 30
0.000000
  70
    32
  0
VERTEX
  8
0
  5
10BEF
 10
111.019
 20
1.41419
 30
0.000000
  70
    32
  0
VERTEX
  8
0
  5
10BF0
 10
111.002
 20
1.34883
 30
0.000000
  70
    32
  0
VERTEX
  8
0
  5
10BF1
 10
110.986
 20
1.28267
 30
0.000000
  70
    32
  0
VERTEX
  8
0
  5
10BF2
 10
110.970
 20
1.21572
 30
0.000000
  70
    32
  0
VERTEX
  8
0
  5
10BF3
 10
110.956
 20
1.14805
 30
0.000000
  70
    32
  0
VERTEX
  8
0
  5
10BF4
 10
110.942
 20
1.07969
 30
0.000000
  70
    32
  0
VERTEX
  8
0
  5
10BF5
 10
110.929
 20
1.01067
 30
0.000000
  70
    32
  0
VERTEX
  8
0
  5
10BF6
 10
110.917
 20
0.941045
 30
0.000000
  70
    32
  0
VERTEX
  8
0
  5
10BF7
 10
110.906
 20
0.870854
 30
0.000000
  70
    32
  0
VERTEX
  8
0
  5
10BF8
 10
110.896
 20
0.800138
 30
0.000000
  70
    32
  0
VERTEX
  8
0
  5
10BF9
 10
110.887
 20
0.728940
 30
0.000000
  70
    32
  0
VERTEX
  8
0
  5
10BFA
 10
110.878
 20
0.657304
 30
0.000000
  70
    32
  0
VERTEX
  8
0
  5
10BFB
 10
110.870
 20
0.585271
 30
0.000000
  70
    32
  0
VERTEX
  8
0
  5
10BFC
 10
110.864
 20
0.512886
 30
0.000000
  70
    32
  0
VERTEX
  8
0
  5
10BFD
 10
110.858
 20
0.440191
 30
0.000000
  70
    32
  0
VERTEX
  8
0
  5
10BFE
 10
110.853
 20
0.367232
 30
0.000000
  70
    32
  0
VERTEX
  8
0
  5
10BFF
 10
110.849
 20
0.294051
 30
0.000000
  70
    32
  0
VERTEX
  8
0
  5
10C00
 10
110.846
 20
0.220694
 30
0.000000
  70
    32
  0
VERTEX
  8
0
  5
10C01
 10
110.843
 20
0.147203
 30
0.000000
  70
    32
  0
VERTEX
  8
0
  5
10C02
 10
110.842
 20
0.0736236
 30
0.000000
  70
    32
  0
VERTEX
  8
0
  5
10C03
 10
110.842
 20
-6.96220e-008
 30
0.000000
  70
    32
  0
VERTEX
  8
0
  5
10C04
 10
110.842
 20
-0.0736238
 30
0.000000
  70
    32
  0
VERTEX
  8
0
  5
10C05
 10
110.843
 20
-0.147203
 30
0.000000
  70
    32
  0
VERTEX
  8
0
  5
10C06
 10
110.846
 20
-0.220694
 30
0.000000
  70
    32
  0
VERTEX
  8
0
  5
10C07
 10
110.849
 20
-0.294051
 30
0.000000
  70
    32
  0
VERTEX
  8
0
  5
10C08
 10
110.853
 20
-0.367232
 30
0.000000
  70
    32
  0
VERTEX
  8
0
  5
10C09
 10
110.858
 20
-0.440191
 30
0.000000
  70
    32
  0
VERTEX
  8
0
  5
10C0A
 10
110.864
 20
-0.512886
 30
0.000000
  70
    32
  0
VERTEX
  8
0
  5
10C0B
 10
110.870
 20
-0.585271
 30
0.000000
  70
    32
  0
VERTEX
  8
0
  5
10C0C
 10
110.878
 20
-0.657304
 30
0.000000
  70
    32
  0
VERTEX
  8
0
  5
10C0D
 10
110.887
 20
-0.728941
 30
0.000000
  70
    32
  0
VERTEX
  8
0
  5
10C0E
 10
110.896
 20
-0.800138
 30
0.000000
  70
    32
  0
VERTEX
  8
0
  5
10C0F
 10
110.906
 20
-0.870854
 30
0.000000
  70
    32
  0
VERTEX
  8
0
  5
10C10
 10
110.917
 20
-0.941045
 30
0.000000
  70
    32
  0
VERTEX
  8
0
  5
10C11
 10
110.929
 20
-1.01067
 30
0.000000
  70
    32
  0
VERTEX
  8
0
  5
10C12
 10
110.942
 20
-1.07969
 30
0.000000
  70
    32
  0
VERTEX
  8
0
  5
10C13
 10
110.956
 20
-1.14805
 30
0.000000
  70
    32
  0
VERTEX
  8
0
  5
10C14
 10
110.970
 20
-1.21572
 30
0.000000
  70
    32
  0
VERTEX
  8
0
  5
10C15
 10
110.986
 20
-1.28267
 30
0.000000
  70
    32
  0
VERTEX
  8
0
  5
10C16
 10
111.002
 20
-1.34883
 30
0.000000
  70
    32
  0
VERTEX
  8
0
  5
10C17
 10
111.019
 20
-1.41419
 30
0.000000
  70
    32
  0
VERTEX
  8
0
  5
10C18
 10
111.037
 20
-1.47869
 30
0.000000
  70
    32
  0
VERTEX
  8
0
  5
10C19
 10
111.055
 20
-1.54231
 30
0.000000
  70
    32
  0
VERTEX
  8
0
  5
10C1A
 10
111.074
 20
-1.60499
 30
0.000000
  70
    32
  0
VERTEX
  8
0
  5
10C1B
 10
111.094
 20
-1.66671
 30
0.000000
  70
    32
  0
VERTEX
  8
0
  5
10C1C
 10
111.115
 20
-1.72742
 30
0.000000
  70
    32
  0
VERTEX
  8
0
  5
10C1D
 10
111.137
 20
-1.78710
 30
0.000000
  70
    32
  0
VERTEX
  8
0
  5
10C1E
 10
111.159
 20
-1.84569
 30
0.000000
  70
    32
  0
VERTEX
  8
0
  5
10C1F
 10
111.182
 20
-1.90318
 30
0.000000
  70
    32
  0
VERTEX
  8
0
  5
10C20
 10
111.206
 20
-1.95952
 30
0.000000
  70
    32
  0
VERTEX
  8
0
  5
10C21
 10
111.230
 20
-2.01468
 30
0.000000
  70
    32
  0
VERTEX
  8
0
  5
10C22
 10
111.255
 20
-2.06862
 30
0.000000
  70
    32
  0
VERTEX
  8
0
  5
10C23
 10
111.281
 20
-2.12132
 30
0.000000
  70
    32
  0
VERTEX
  8
0
  5
10C24
 10
111.307
 20
-2.17274
 30
0.000000
  70
    32
  0
VERTEX
  8
0
  5
10C25
 10
111.334
 20
-2.22285
 30
0.000000
  70
    32
  0
VERTEX
  8
0
  5
10C26
 10
111.362
 20
-2.27163
 30
0.000000
  70
    32
  0
VERTEX
  8
0
  5
10C27
 10
111.390
 20
-2.31903
 30
0.000000
  70
    32
  0
VERTEX
  8
0
  5
10C28
 10
111.419
 20
-2.36504
 30
0.000000
  70
    32
  0
VERTEX
  8
0
  5
10C29
 10
111.448
 20
-2.40962
 30
0.000000
  70
    32
  0
VERTEX
  8
0
  5
10C2A
 10
111.478
 20
-2.45275
 30
0.000000
  70
    32
  0
VERTEX
  8
0
  5
10C2B
 10
111.508
 20
-2.49441
 30
0.000000
  70
    32
  0
VERTEX
  8
0
  5
10C2C
 10
111.539
 20
-2.53456
 30
0.000000
  70
    32
  0
VERTEX
  8
0
  5
10C2D
 10
111.570
 20
-2.57319
 30
0.000000
  70
    32
  0
VERTEX
  8
0
  5
10C2E
 10
111.602
 20
-2.61026
 30
0.000000
  70
    32
  0
VERTEX
  8
0
  5
10C2F
 10
111.635
 20
-2.64576
 30
0.000000
  70
    32
  0
VERTEX
  8
0
  5
10C30
 10
111.667
 20
-2.67967
 30
0.000000
  70
    32
  0
VERTEX
  8
0
  5
10C31
 10
111.700
 20
-2.71197
 30
0.000000
  70
    32
  0
VERTEX
  8
0
  5
10C32
 10
111.734
 20
-2.74263
 30
0.000000
  70
    32
  0
VERTEX
  8
0
  5
10C33
 10
111.768
 20
-2.77164
 30
0.000000
  70
    32
  0
VERTEX
  8
0
  5
10C34
 10
111.802
 20
-2.79898
 30
0.000000
  70
    32
  0
VERTEX
  8
0
  5
10C35
 10
111.836
 20
-2.82463
 30
0.000000
  70
    32
  0
VERTEX
  8
0
  5
10C36
 10
111.871
 20
-2.84858
 30
0.000000
  70
    32
  0
VERTEX
  8
0
  5
10C37
 10
111.906
 20
-2.87082
 30
0.000000
  70
    32
  0
VERTEX
  8
0
  5
10C38
 10
111.942
 20
-2.89133
 30
0.000000
  70
    32
  0
VERTEX
  8
0
  5
10C39
 10
111.977
 20
-2.91009
 30
0.000000
  70
    32
  0
VERTEX
  8
0
  5
10C3A
 10
112.013
 20
-2.92711
 30
0.000000
  70
    32
  0
VERTEX
  8
0
  5
10C3B
 10
112.049
 20
-2.94236
 30
0.000000
  70
    32
  0
VERTEX
  8
0
  5
10C3C
 10
112.085
 20
-2.95583
 30
0.000000
  70
    32
  0
VERTEX
  8
0
  5
10C3D
 10
112.122
 20
-2.96753
 30
0.000000
  70
    32
  0
VERTEX
  8
0
  5
10C3E
 10
112.158
 20
-2.97744
 30
0.000000
  70
    32
  0
VERTEX
  8
0
  5
10C3F
 10
112.195
 20
-2.98555
 30
0.000000
  70
    32
  0
VERTEX
  8
0
  5
10C40
 10
112.231
 20
-2.99187
 30
0.000000
  70
    32
  0
VERTEX
  8
0
  5
10C41
 10
112.268
 20
-2.99639
 30
0.000000
  70
    32
  0
VERTEX
  8
0
  5
10C42
 10
112.305
 20
-2.99910
 30
0.000000
  70
    32
  0
VERTEX
  8
0
  5
10C43
 10
112.342
 20
-3.00000
 30
0.000000
  70
    32
  0
SEQEND
  8
0
  5
10C44
  0
ARC
  5
FC9C
  8
0
 10
124.3416346717635
 20
2.8040871053544829
 30
0.0
 40
8.0
 50
239.99999999999619
 51
299.99999999999721
  0
LINE
  5
FCAC
  8
0
 10
109.3416346717635
 20
34.0
 30
0.0
 11
109.3416346717635
 21
7.5
 31
0.0
  0
LINE
  5
FCAD
  8
0
 10
139.3416346717635
 20
34.0
 30
0.0
 11
139.3416346717635
 21
7.5
 31
0.0
  0
LINE
  5
FCAE
  8
0
 10
131.8416346717635
 20
36.0
 30
0.0
 11
131.8416346717635
 21
9.4999999999997726
 31
0.0
  0
LINE
  5
FCAF
  8
0
 10
116.8416346717635
 20
36.0
 30
0.0
 11
116.8416346717635
 21
9.5
 31
0.0
  0
LINE
  5
FCB0
  8
0
 10
109.3416346717635
 20
7.5
 30
0.0
 11
118.8416346717635
 21
7.5
 31
0.0
  0
LINE
  5
FCB1
  8
0
 10
131.8416346717635
 20
9.4999999999997726
 30
0.0
 11
139.3416346717635
 21
9.5
 31
0.0
  0
LINE
  5
FCB2
  8
0
 10
116.8416346717635
 20
11.5
 30
0.0
 11
131.8416346717635
 21
11.5
 31
0.0
  0
LINE
  5
FCB4
  8
0
 10
118.8416346717635
 20
9.5
 30
0.0
 11
118.8416346717635
 21
7.5
 31
0.0
  0
LINE
  5
FCB5
  8
0
 10
129.8416346717635
 20
9.5
 30
0.0
 11
129.8416346717635
 21
7.5
 31
0.0
  0
LINE
  5
FCB6
  8
0
 10
118.8416346717635
 20
9.5
 30
0.0
 11
120.0916346717635
 21
9.5
 31
0.0
  0
LINE
  5
FCB7
  8
0
 10
129.8416346717635
 20
7.5
 30
0.0
 11
139.3416346717635
 21
7.5
 31
0.0
  0
LINE
  5
FCB8
  8
0
 10
116.8416346717635
 20
36.0
 30
0.0
 11
131.8416346717635
 21
36.0
 31
0.0
  0
LINE
  5
FCB9
  8
0
 10
109.3416346717635
 20
34.0
 30
0.0
 11
116.8416346717635
 21
34.0
 31
0.0
  0
LINE
  5
FCBB
  8
0
 10
131.8416346717635
 20
34.0
 30
0.0
 11
139.3416346717635
 21
34.0
 31
0.0
  0
LINE
  5
FCBC
  8
0
 10
116.8416346717635
 20
9.4999999999997726
 30
0.0
 11
109.3416346717635
 21
9.5
 31
0.0
  0
LINE
  5
FCBE
  8
0
 10
112.3416346717635
 20
-35.40000300000019
 30
0.0
 11
136.3416346717635
 21
-35.40000300000019
 31
0.0
  0
LINE
  5
FCBF
  8
0
 10
111.3416346717635
 20
-31.416556144810102
 30
0.0
 11
111.3416346717635
 21
-34.40000300000019
 31
0.0
  0
LINE
  5
FCC0
  8
0
 10
137.3416346717635
 20
-31.416556144810102
 30
0.0
 11
137.3416346717635
 21
-34.40000300000019
 31
0.0
  0
LINE
  5
FCC1
  8
0
 10
113.3416346717635
 20
-56.400003000000197
 30
0.0
 11
135.3416346717635
 21
-56.400003000000197
 31
0.0
  0
LINE
  5
FCC2
  8
0
 10
135.3416346717635
 20
-35.40000300000019
 30
0.0
 11
135.3416346717635
 21
-56.400003000000197
 31
0.0
  0
LINE
  5
FCC3
  8
0
 10
113.3416346717635
 20
-35.40000300000019
 30
0.0
 11
113.3416346717635
 21
-56.400003000000197
 31
0.0
  0
ARC
  5
FCC4
  8
0
 10
112.3416346717635
 20
-34.40000300000019
 30
0.0
 40
1.0
 50
179.99998999999889
 51
270.0
  0
ARC
  5
FCC5
  8
0
 10
136.3416346717635
 20
-34.40000300000019
 30
0.0
 40
1.0
 50
270.0
 51
0.0
  0
LINE
  5
FCC6
  8
0
 10
105.0916446717642
 20
-34.0
 30
0.0
 11
111.3416346717635
 21
-34.0
 31
0.0
  0
LINE
  5
FCC8
  8
0
 10
111.3416346717635
 20
-31.416556144810102
 30
0.0
 11
116.8416346717635
 21
-31.416556144810102
 31
0.0
  0
LINE
  5
FCC9
  8
0
 10
116.8416346717635
 20
-33.570820401314677
 30
0.0
 11
131.8416346717635
 21
-33.570820401314791
 31
0.0
  0
LINE
  5
FCCB
  8
0
 10
137.3416346717635
 20
-34.0
 30
0.0
 11
143.5916346717635
 21
-34.0
 31
0.0
  0
LINE
  5
FCCC
  8
0
 10
131.8416346717635
 20
-31.416556144810102
 30
0.0
 11
137.3416346717635
 21
-31.416556144810102
 31
0.0
  0
LINE
  5
FEBA
  8
0
  6
CENTER
 10
124.3416346717635
 20
-60.012312000000058
 30
0.0
 11
124.3416346717635
 21
37.821427999999969
 31
0.0
  0
LINE
  5
FEBC
  8
0
 10
105.0916446717642
 20
-34.0
 30
0.0
 11
105.0916446717642
 21
-18.998355191963348
 31
0.0
  0
LINE
  5
FEBD
  8
0
 10
143.5916346717635
 20
-34.0
 30
0.0
 11
143.5916346717635
 21
-18.998355191963348
 31
0.0
  0
LINE
  5
FEBE
  8
0
 10
112.3416346717635
 20
6.0000000000002274
 30
0.0
 11
112.3416346717635
 21
-8.0
 31
0.0
  0
LINE
  5
FEBF
  8
0
 10
116.8416346717635
 20
-10.0
 30
0.0
 11
131.8416346717635
 21
-10.0
 31
0.0
  0
LINE
  5
FEC0
  8
0
 10
116.8416346717635
 20
-8.0
 30
0.0
 11
112.3416346717635
 21
-8.0
 31
0.0
  0
LINE
  5
FEC1
  8
0
 10
118.8416346717635
 20
-6.0
 30
0.0
 11
114.3416346717635
 21
-6.0
 31
0.0
  0
LINE
  5
FEC6
  8
0
 10
118.8416346717635
 20
-8.0
 30
0.0
 11
129.8416346717635
 21
-8.0
 31
0.0
  0
LINE
  5
FEC7
  8
0
 10
114.3416346717635
 20
5.9999999999997717
 30
0.0
 11
114.3416346717635
 21
-6.0
 31
0.0
  0
LINE
  5
FEC8
  8
0
 10
136.3416346717635
 20
6.0000000000002274
 30
0.0
 11
134.3416346717635
 21
5.9999999999997717
 31
0.0
  0
LINE
  5
FEC9
  8
0
 10
134.27945684527319
 20
2.5
 30
0.0
 11
128.3416346717635
 21
2.5
 31
0.0
  0
LINE
  5
FECA
  8
0
 10
134.3416346717635
 20
-2.5
 30
0.0
 11
128.3416346717635
 21
-2.5
 31
0.0
  0
POLYLINE
  5
FECB
  8
0
 10
136.34163462176321
 20
2.9999998651856798
 30
0.0
 66
     1
 70
     8
  0
VERTEX
  8
0
  5
10C45
 10
136.342
 20
3.00000
 30
0.000000
  70
    32
  0
VERTEX
  8
0
  5
10C46
 10
136.378
 20
2.99910
 30
0.000000
  70
    32
  0
VERTEX
  8
0
  5
10C47
 10
136.415
 20
2.99639
 30
0.000000
  70
    32
  0
VERTEX
  8
0
  5
10C48
 10
136.452
 20
2.99187
 30
0.000000
  70
    32
  0
VERTEX
  8
0
  5
10C49
 10
136.489
 20
2.98555
 30
0.000000
  70
    32
  0
VERTEX
  8
0
  5
10C4A
 10
136.525
 20
2.97744
 30
0.000000
  70
    32
  0
VERTEX
  8
0
  5
10C4B
 10
136.562
 20
2.96753
 30
0.000000
  70
    32
  0
VERTEX
  8
0
  5
10C4C
 10
136.598
 20
2.95583
 30
0.000000
  70
    32
  0
VERTEX
  8
0
  5
10C4D
 10
136.634
 20
2.94236
 30
0.000000
  70
    32
  0
VERTEX
  8
0
  5
10C4E
 10
136.670
 20
2.92711
 30
0.000000
  70
    32
  0
VERTEX
  8
0
  5
10C4F
 10
136.706
 20
2.91009
 30
0.000000
  70
    32
  0
VERTEX
  8
0
  5
10C50
 10
136.742
 20
2.89133
 30
0.000000
  70
    32
  0
VERTEX
  8
0
  5
10C51
 10
136.777
 20
2.87082
 30
0.000000
  70
    32
  0
VERTEX
  8
0
  5
10C52
 10
136.812
 20
2.84858
 30
0.000000
  70
    32
  0
VERTEX
  8
0
  5
10C53
 10
136.847
 20
2.82463
 30
0.000000
  70
    32
  0
VERTEX
  8
0
  5
10C54
 10
136.881
 20
2.79898
 30
0.000000
  70
    32
  0
VERTEX
  8
0
  5
10C55
 10
136.916
 20
2.77164
 30
0.000000
  70
    32
  0
VERTEX
  8
0
  5
10C56
 10
136.949
 20
2.74263
 30
0.000000
  70
    32
  0
VERTEX
  8
0
  5
10C57
 10
136.983
 20
2.71197
 30
0.000000
  70
    32
  0
VERTEX
  8
0
  5
10C58
 10
137.016
 20
2.67967
 30
0.000000
  70
    32
  0
VERTEX
  8
0
  5
10C59
 10
137.049
 20
2.64576
 30
0.000000
  70
    32
  0
VERTEX
  8
0
  5
10C5A
 10
137.081
 20
2.61026
 30
0.000000
  70
    32
  0
VERTEX
  8
0
  5
10C5B
 10
137.113
 20
2.57319
 30
0.000000
  70
    32
  0
VERTEX
  8
0
  5
10C5C
 10
137.144
 20
2.53456
 30
0.000000
  70
    32
  0
VERTEX
  8
0
  5
10C5D
 10
137.175
 20
2.49441
 30
0.000000
  70
    32
  0
VERTEX
  8
0
  5
10C5E
 10
137.205
 20
2.45275
 30
0.000000
  70
    32
  0
VERTEX
  8
0
  5
10C5F
 10
137.235
 20
2.40962
 30
0.000000
  70
    32
  0
VERTEX
  8
0
  5
10C60
 10
137.264
 20
2.36504
 30
0.000000
  70
    32
  0
VERTEX
  8
0
  5
10C61
 10
137.293
 20
2.31903
 30
0.000000
  70
    32
  0
VERTEX
  8
0
  5
10C62
 10
137.321
 20
2.27163
 30
0.000000
  70
    32
  0
VERTEX
  8
0
  5
10C63
 10
137.349
 20
2.22285
 30
0.000000
  70
    32
  0
VERTEX
  8
0
  5
10C64
 10
137.376
 20
2.17274
 30
0.000000
  70
    32
  0
VERTEX
  8
0
  5
10C65
 10
137.402
 20
2.12132
 30
0.000000
  70
    32
  0
VERTEX
  8
0
  5
10C66
 10
137.428
 20
2.06862
 30
0.000000
  70
    32
  0
VERTEX
  8
0
  5
10C67
 10
137.453
 20
2.01468
 30
0.000000
  70
    32
  0
VERTEX
  8
0
  5
10C68
 10
137.477
 20
1.95952
 30
0.000000
  70
    32
  0
VERTEX
  8
0
  5
10C69
 10
137.501
 20
1.90318
 30
0.000000
  70
    32
  0
VERTEX
  8
0
  5
10C6A
 10
137.524
 20
1.84569
 30
0.000000
  70
    32
  0
VERTEX
  8
0
  5
10C6B
 10
137.546
 20
1.78710
 30
0.000000
  70
    32
  0
VERTEX
  8
0
  5
10C6C
 10
137.568
 20
1.72742
 30
0.000000
  70
    32
  0
VERTEX
  8
0
  5
10C6D
 10
137.589
 20
1.66671
 30
0.000000
  70
    32
  0
VERTEX
  8
0
  5
10C6E
 10
137.609
 20
1.60499
 30
0.000000
  70
    32
  0
VERTEX
  8
0
  5
10C6F
 10
137.628
 20
1.54231
 30
0.000000
  70
    32
  0
VERTEX
  8
0
  5
10C70
 10
137.647
 20
1.47869
 30
0.000000
  70
    32
  0
VERTEX
  8
0
  5
10C71
 10
137.665
 20
1.41419
 30
0.000000
  70
    32
  0
VERTEX
  8
0
  5
10C72
 10
137.681
 20
1.34883
 30
0.000000
  70
    32
  0
VERTEX
  8
0
  5
10C73
 10
137.698
 20
1.28267
 30
0.000000
  70
    32
  0
VERTEX
  8
0
  5
10C74
 10
137.713
 20
1.21572
 30
0.000000
  70
    32
  0
VERTEX
  8
0
  5
10C75
 10
137.727
 20
1.14805
 30
0.000000
  70
    32
  0
VERTEX
  8
0
  5
10C76
 10
137.741
 20
1.07969
 30
0.000000
  70
    32
  0
VERTEX
  8
0
  5
10C77
 10
137.754
 20
1.01067
 30
0.000000
  70
    32
  0
VERTEX
  8
0
  5
10C78
 10
137.766
 20
0.941045
 30
0.000000
  70
    32
  0
VERTEX
  8
0
  5
10C79
 10
137.777
 20
0.870854
 30
0.000000
  70
    32
  0
VERTEX
  8
0
  5
10C7A
 10
137.787
 20
0.800138
 30
0.000000
  70
    32
  0
VERTEX
  8
0
  5
10C7B
 10
137.797
 20
0.728940
 30
0.000000
  70
    32
  0
VERTEX
  8
0
  5
10C7C
 10
137.805
 20
0.657304
 30
0.000000
  70
    32
  0
VERTEX
  8
0
  5
10C7D
 10
137.813
 20
0.585271
 30
0.000000
  70
    32
  0
VERTEX
  8
0
  5
10C7E
 10
137.820
 20
0.512886
 30
0.000000
  70
    32
  0
VERTEX
  8
0
  5
10C7F
 10
137.825
 20
0.440191
 30
0.000000
  70
    32
  0
VERTEX
  8
0
  5
10C80
 10
137.830
 20
0.367232
 30
0.000000
  70
    32
  0
VERTEX
  8
0
  5
10C81
 10
137.834
 20
0.294051
 30
0.000000
  70
    32
  0
VERTEX
  8
0
  5
10C82
 10
137.838
 20
0.220694
 30
0.000000
  70
    32
  0
VERTEX
  8
0
  5
10C83
 10
137.840
 20
0.147203
 30
0.000000
  70
    32
  0
VERTEX
  8
0
  5
10C84
 10
137.841
 20
0.0736236
 30
0.000000
  70
    32
  0
VERTEX
  8
0
  5
10C85
 10
137.842
 20
-6.96220e-008
 30
0.000000
  70
    32
  0
VERTEX
  8
0
  5
10C86
 10
137.841
 20
-0.0736238
 30
0.000000
  70
    32
  0
VERTEX
  8
0
  5
10C87
 10
137.840
 20
-0.147203
 30
0.000000
  70
    32
  0
VERTEX
  8
0
  5
10C88
 10
137.838
 20
-0.220694
 30
0.000000
  70
    32
  0
VERTEX
  8
0
  5
10C89
 10
137.834
 20
-0.294051
 30
0.000000
  70
    32
  0
VERTEX
  8
0
  5
10C8A
 10
137.830
 20
-0.367232
 30
0.000000
  70
    32
  0
VERTEX
  8
0
  5
10C8B
 10
137.825
 20
-0.440191
 30
0.000000
  70
    32
  0
VERTEX
  8
0
  5
10C8C
 10
137.820
 20
-0.512886
 30
0.000000
  70
    32
  0
VERTEX
  8
0
  5
10C8D
 10
137.813
 20
-0.585271
 30
0.000000
  70
    32
  0
VERTEX
  8
0
  5
10C8E
 10
137.805
 20
-0.657304
 30
0.000000
  70
    32
  0
VERTEX
  8
0
  5
10C8F
 10
137.797
 20
-0.728941
 30
0.000000
  70
    32
  0
VERTEX
  8
0
  5
10C90
 10
137.787
 20
-0.800138
 30
0.000000
  70
    32
  0
VERTEX
  8
0
  5
10C91
 10
137.777
 20
-0.870854
 30
0.000000
  70
    32
  0
VERTEX
  8
0
  5
10C92
 10
137.766
 20
-0.941045
 30
0.000000
  70
    32
  0
VERTEX
  8
0
  5
10C93
 10
137.754
 20
-1.01067
 30
0.000000
  70
    32
  0
VERTEX
  8
0
  5
10C94
 10
137.741
 20
-1.07969
 30
0.000000
  70
    32
  0
VERTEX
  8
0
  5
10C95
 10
137.727
 20
-1.14805
 30
0.000000
  70
    32
  0
VERTEX
  8
0
  5
10C96
 10
137.713
 20
-1.21572
 30
0.000000
  70
    32
  0
VERTEX
  8
0
  5
10C97
 10
137.698
 20
-1.28267
 30
0.000000
  70
    32
  0
VERTEX
  8
0
  5
10C98
 10
137.681
 20
-1.34883
 30
0.000000
  70
    32
  0
VERTEX
  8
0
  5
10C99
 10
137.665
 20
-1.41419
 30
0.000000
  70
    32
  0
VERTEX
  8
0
  5
10C9A
 10
137.647
 20
-1.47869
 30
0.000000
  70
    32
  0
VERTEX
  8
0
  5
10C9B
 10
137.628
 20
-1.54231
 30
0.000000
  70
    32
  0
VERTEX
  8
0
  5
10C9C
 10
137.609
 20
-1.60499
 30
0.000000
  70
    32
  0
VERTEX
  8
0
  5
10C9D
 10
137.589
 20
-1.66671
 30
0.000000
  70
    32
  0
VERTEX
  8
0
  5
10C9E
 10
137.568
 20
-1.72742
 30
0.000000
  70
    32
  0
VERTEX
  8
0
  5
10C9F
 10
137.546
 20
-1.78710
 30
0.000000
  70
    32
  0
VERTEX
  8
0
  5
10CA0
 10
137.524
 20
-1.84569
 30
0.000000
  70
    32
  0
VERTEX
  8
0
  5
10CA1
 10
137.501
 20
-1.90318
 30
0.000000
  70
    32
  0
VERTEX
  8
0
  5
10CA2
 10
137.477
 20
-1.95952
 30
0.000000
  70
    32
  0
VERTEX
  8
0
  5
10CA3
 10
137.453
 20
-2.01468
 30
0.000000
  70
    32
  0
VERTEX
  8
0
  5
10CA4
 10
137.428
 20
-2.06862
 30
0.000000
  70
    32
  0
VERTEX
  8
0
  5
10CA5
 10
137.402
 20
-2.12132
 30
0.000000
  70
    32
  0
VERTEX
  8
0
  5
10CA6
 10
137.376
 20
-2.17274
 30
0.000000
  70
    32
  0
VERTEX
  8
0
  5
10CA7
 10
137.349
 20
-2.22285
 30
0.000000
  70
    32
  0
VERTEX
  8
0
  5
10CA8
 10
137.321
 20
-2.27163
 30
0.000000
  70
    32
  0
VERTEX
  8
0
  5
10CA9
 10
137.293
 20
-2.31903
 30
0.000000
  70
    32
  0
VERTEX
  8
0
  5
10CAA
 10
137.264
 20
-2.36504
 30
0.000000
  70
    32
  0
VERTEX
  8
0
  5
10CAB
 10
137.235
 20
-2.40962
 30
0.000000
  70
    32
  0
VERTEX
  8
0
  5
10CAC
 10
137.205
 20
-2.45275
 30
0.000000
  70
    32
  0
VERTEX
  8
0
  5
10CAD
 10
137.175
 20
-2.49441
 30
0.000000
  70
    32
  0
VERTEX
  8
0
  5
10CAE
 10
137.144
 20
-2.53456
 30
0.000000
  70
    32
  0
VERTEX
  8
0
  5
10CAF
 10
137.113
 20
-2.57319
 30
0.000000
  70
    32
  0
VERTEX
  8
0
  5
10CB0
 10
137.081
 20
-2.61026
 30
0.000000
  70
    32
  0
VERTEX
  8
0
  5
10CB1
 10
137.049
 20
-2.64576
 30
0.000000
  70
    32
  0
VERTEX
  8
0
  5
10CB2
 10
137.016
 20
-2.67967
 30
0.000000
  70
    32
  0
VERTEX
  8
0
  5
10CB3
 10
136.983
 20
-2.71197
 30
0.000000
  70
    32
  0
VERTEX
  8
0
  5
10CB4
 10
136.949
 20
-2.74263
 30
0.000000
  70
    32
  0
VERTEX
  8
0
  5
10CB5
 10
136.916
 20
-2.77164
 30
0.000000
  70
    32
  0
VERTEX
  8
0
  5
10CB6
 10
136.881
 20
-2.79898
 30
0.000000
  70
    32
  0
VERTEX
  8
0
  5
10CB7
 10
136.847
 20
-2.82463
 30
0.000000
  70
    32
  0
VERTEX
  8
0
  5
10CB8
 10
136.812
 20
-2.84858
 30
0.000000
  70
    32
  0
VERTEX
  8
0
  5
10CB9
 10
136.777
 20
-2.87082
 30
0.000000
  70
    32
  0
VERTEX
  8
0
  5
10CBA
 10
136.742
 20
-2.89133
 30
0.000000
  70
    32
  0
VERTEX
  8
0
  5
10CBB
 10
136.706
 20
-2.91009
 30
0.000000
  70
    32
  0
VERTEX
  8
0
  5
10CBC
 10
136.670
 20
-2.92711
 30
0.000000
  70
    32
  0
VERTEX
  8
0
  5
10CBD
 10
136.634
 20
-2.94236
 30
0.000000
  70
    32
  0
VERTEX
  8
0
  5
10CBE
 10
136.598
 20
-2.95583
 30
0.000000
  70
    32
  0
VERTEX
  8
0
  5
10CBF
 10
136.562
 20
-2.96753
 30
0.000000
  70
    32
  0
VERTEX
  8
0
  5
10CC0
 10
136.525
 20
-2.97744
 30
0.000000
  70
    32
  0
VERTEX
  8
0
  5
10CC1
 10
136.489
 20
-2.98555
 30
0.000000
  70
    32
  0
VERTEX
  8
0
  5
10CC2
 10
136.452
 20
-2.99187
 30
0.000000
  70
    32
  0
VERTEX
  8
0
  5
10CC3
 10
136.415
 20
-2.99639
 30
0.000000
  70
    32
  0
VERTEX
  8
0
  5
10CC4
 10
136.378
 20
-2.99910
 30
0.000000
  70
    32
  0
VERTEX
  8
0
  5
10CC5
 10
136.342
 20
-3.00000
 30
0.000000
  70
    32
  0
SEQEND
  8
0
  5
10CC6
  0
LINE
  5
FECC
  8
0
 10
136.3416346717635
 20
6.0000000000002274
 30
0.0
 11
136.3416346717635
 21
-8.0
 31
0.0
  0
LINE
  5
FECD
  8
0
 10
134.3416346717635
 20
5.9999999999997717
 30
0.0
 11
134.3416346717635
 21
-6.0
 31
0.0
  0
LINE
  5
FECE
  8
0
 10
131.8416346717635
 20
-8.0
 30
0.0
 11
136.3416346717635
 21
-8.0
 31
0.0
  0
LINE
  5
FECF
  8
0
 10
129.8416346717635
 20
-6.0
 30
0.0
 11
134.3416346717635
 21
-6.0
 31
0.0
  0
LINE
  5
FED2
  8
0
 10
105.0916446717642
 20
-18.998355191963348
 30
0.0
 11
112.3416346717635
 21
-8.0
 31
0.0
  0
LINE
  5
FED3
  8
0
 10
136.3416346717635
 20
-8.0
 30
0.0
 11
143.5916346717635
 21
-18.998355191963348
 31
0.0
  0
LINE
  5
FED7
  8
0
 10
118.8416346717635
 20
-6.0
 30
0.0
 11
118.8416346717635
 21
-8.0
 31
0.0
  0
LINE
  5
FED8
  8
0
 10
131.8416346717635
 20
-8.0
 30
0.0
 11
131.8416346717635
 21
-33.570820401314791
 31
0.0
  0
LINE
  5
FED9
  8
0
 10
129.8416346717635
 20
-6.0
 30
0.0
 11
129.8416346717635
 21
-8.0
 31
0.0
  0
LINE
  5
FF36
  8
0
 10
120.0916346717635
 20
11.5
 30
0.0
 11
120.0916346717635
 21
9.5
 31
0.0
  0
LINE
  5
FF38
  8
0
 10
128.59163467176359
 20
9.5
 30
0.0
 11
129.8416346717635
 21
9.5
 31
0.0
  0
LINE
  5
FF39
  8
0
 10
128.59163467176359
 20
11.5
 30
0.0
 11
128.59163467176359
 21
9.5
 31
0.0
  0
LINE
  5
10077
  8
0
  6
CENTER
 10
108.6222874554673
 20
0.0000000000002274
 30
0.0
 11
140.06098188805981
 21
0.0000000000002274
 31
0.0
  0
LINE
  5
10080
  8
0
  6
CENTER
 10
45.999999999999538
 20
105.44373531899851
 30
0.0
 11
45.999999999999538
 21
87.880572772832011
 31
0.0
  0
CIRCLE
  5
10097
  8
0
 10
45.999999999999538
 20
96.662154045915244
 30
0.0
 40
4.0
  0
CIRCLE
  5
10098
  8
0
 10
45.999999999999538
 20
96.662154045915244
 30
0.0
 40
5.5
  0
CIRCLE
  5
10099
  8
0
 10
45.999999999999538
 20
96.662154045915244
 30
0.0
 40
3.0
  0
CIRCLE
  5
100A7
  8
0
 10
45.999999999999538
 20
0.0
 30
0.0
 40
2.9999998999996929
  0
CIRCLE
  5
100A8
  8
0
 10
-44.000004748403619
 20
0.0
 30
0.0
 40
2.9999998999996929
  0
TEXT
  5
10261
  8
0
 10
-174.42637459232299
 20
187.54815638559299
 30
0.0
 40
30.0
  1
P-HANGER(S) 2.5S
 72
     4
 11
41.002196836248451
 21
200.40529924273591
 31
0.0
  0
ENDSEC
  0
EOF
