  0
SECTION
  2
HEADER
  9
$ACADVER
  1
AC1009
  9
$INSBASE
 10
0.0
 20
0.0
 30
0.0
  9
$EXTMIN
 10
-168.71208887803769
 20
-45.918320000000101
 30
0.0
  9
$EXTMAX
 10
250.71648255053361
 20
201.1691031125832
 30
0.0
  9
$LIMMIN
 10
0.0
 20
0.0
  9
$LIMMAX
 10
420.0
 20
297.0
  9
$ORTHOMODE
 70
     0
  9
$REGENMODE
 70
     1
  9
$FILLMODE
 70
     1
  9
$QTEXTMODE
 70
     0
  9
$MIRRTEXT
 70
     1
  9
$DRAGMODE
 70
     2
  9
$LTSCALE
 40
1.0
  9
$OSMODE
 70
    37
  9
$ATTMODE
 70
     1
  9
$TEXTSIZE
 40
73.985717453579113
  9
$TRACEWID
 40
1.0
  9
$TEXTSTYLE
  7
STANDARD
  9
$CLAYER
  8
0
  9
$CELTYPE
  6
BYLAYER
  9
$CECOLOR
 62
   256
  9
$DIMSCALE
 40
1.0
  9
$DIMASZ
 40
0.18
  9
$DIMEXO
 40
0.0625
  9
$DIMDLI
 40
0.38
  9
$DIMRND
 40
0.0
  9
$DIMDLE
 40
0.0
  9
$DIMEXE
 40
0.18
  9
$DIMTP
 40
0.0
  9
$DIMTM
 40
0.0
  9
$DIMTXT
 40
0.18
  9
$DIMCEN
 40
0.09
  9
$DIMTSZ
 40
0.0
  9
$DIMTOL
 70
     0
  9
$DIMLIM
 70
     0
  9
$DIMTIH
 70
     1
  9
$DIMTOH
 70
     1
  9
$DIMSE1
 70
     0
  9
$DIMSE2
 70
     0
  9
$DIMTAD
 70
     0
  9
$DIMZIN
 70
     0
  9
$DIMBLK
  1

  9
$DIMASO
 70
     1
  9
$DIMSHO
 70
     1
  9
$DIMPOST
  1

  9
$DIMAPOST
  1

  9
$DIMALT
 70
     0
  9
$DIMALTD
 70
     2
  9
$DIMALTF
 40
25.399999999999999
  9
$DIMLFAC
 40
1.0
  9
$DIMTOFL
 70
     0
  9
$DIMTVP
 40
0.0
  9
$DIMTIX
 70
     0
  9
$DIMSOXD
 70
     0
  9
$DIMSAH
 70
     0
  9
$DIMBLK1
  1

  9
$DIMBLK2
  1

  9
$DIMSTYLE
  2
STANDARD
  9
$DIMCLRD
 70
     0
  9
$DIMCLRE
 70
     0
  9
$DIMCLRT
 70
     0
  9
$DIMTFAC
 40
1.0
  9
$DIMGAP
 40
0.09
  9
$LUNITS
 70
     2
  9
$LUPREC
 70
     8
  9
$SKETCHINC
 40
1.0
  9
$FILLETRAD
 40
0.0
  9
$AUNITS
 70
     0
  9
$AUPREC
 70
     8
  9
$MENU
  1
.
  9
$ELEVATION
 40
0.0
  9
$PELEVATION
 40
0.0
  9
$THICKNESS
 40
0.0
  9
$LIMCHECK
 70
     0
  9
$BLIPMODE
 70
     0
  9
$CHAMFERA
 40
2.5
  9
$CHAMFERB
 40
2.5
  9
$SKPOLY
 70
     0
  9
$TDCREATE
 40
2454749.4701119331
  9
$TDUPDATE
 40
2454749.75646412
  9
$TDINDWG
 40
0.1762422222
  9
$TDUSRTIMER
 40
0.1762416898
  9
$USRTIMER
 70
     1
  9
$ANGBASE
 50
0.0
  9
$ANGDIR
 70
     1
  9
$PDMODE
 70
     0
  9
$PDSIZE
 40
0.0
  9
$PLINEWID
 40
0.0
  9
$COORDS
 70
     1
  9
$SPLFRAME
 70
     0
  9
$SPLINETYPE
 70
     6
  9
$SPLINESEGS
 70
     8
  9
$ATTDIA
 70
     0
  9
$ATTREQ
 70
     1
  9
$HANDLING
 70
 22529
  9
$HANDSEED
  5
10C99
  9
$SURFTAB1
 70
     6
  9
$SURFTAB2
 70
     6
  9
$SURFTYPE
 70
     6
  9
$SURFU
 70
     6
  9
$SURFV
 70
     6
  9
$UCSNAME
  2

  9
$UCSORG
 10
0.0
 20
0.0
 30
0.0
  9
$UCSXDIR
 10
1.0
 20
0.0
 30
0.0
  9
$UCSYDIR
 10
0.0
 20
1.0
 30
0.0
  9
$PUCSNAME
  2

  9
$PUCSORG
 10
0.0
 20
0.0
 30
0.0
  9
$PUCSXDIR
 10
1.0
 20
0.0
 30
0.0
  9
$PUCSYDIR
 10
0.0
 20
1.0
 30
0.0
  9
$USERI1
 70
     0
  9
$USERI2
 70
     0
  9
$USERI3
 70
     0
  9
$USERI4
 70
     0
  9
$USERI5
 70
     0
  9
$USERR1
 40
0.0
  9
$USERR2
 40
0.0
  9
$USERR3
 40
0.0
  9
$USERR4
 40
0.0
  9
$USERR5
 40
0.0
  9
$WORLDVIEW
 70
     1
  9
$SHADEDGE
 70
     3
  9
$SHADEDIF
 70
    70
  9
$TILEMODE
 70
     1
  9
$MAXACTVP
 70
    48
  9
$PLIMCHECK
 70
     0
  9
$PEXTMIN
 10
1.0000000000000000E+020
 20
1.0000000000000000E+020
 30
1.0000000000000000E+020
  9
$PEXTMAX
 10
-1.0000000000000000E+020
 20
-1.0000000000000000E+020
 30
-1.0000000000000000E+020
  9
$PLIMMIN
 10
0.0
 20
0.0
  9
$PLIMMAX
 10
420.0
 20
297.0
  9
$UNITMODE
 70
     0
  9
$VISRETAIN
 70
     1
  9
$PLINEGEN
 70
     0
  9
$PSLTSCALE
 70
     1
  0
ENDSEC
  0
SECTION
  2
TABLES
  0
TABLE
  2
VPORT
 70
     2
  0
VPORT
  2
*ACTIVE
 70
     0
 10
0.0
 20
0.0
 11
1.0
 21
1.0
 12
41.001322899837753
 22
77.62405431380347
 13
0.0
 23
0.0
 14
2.5
 24
2.5
 15
10.0
 25
10.0
 16
0.0
 26
0.0
 36
1.0
 17
0.0
 27
0.0
 37
0.0
 40
275.23646161882488
 41
1.531806615776081
 42
50.0
 43
0.0
 44
0.0
 50
0.0
 51
0.0
 71
     0
 72
   100
 73
     1
 74
     3
 75
     0
 76
     0
 77
     0
 78
     0
  0
ENDTAB
  0
TABLE
  2
LTYPE
 70
     2
  0
LTYPE
  2
CONTINUOUS
 70
     0
  3
Solid line
 72
    65
 73
     0
 40
0.0
  0
LTYPE
  2
CENTER
 70
     0
  3
__ . __
 72
    65
 73
     4
 40
7.0
 49
4.0
 49
-1.0
 49
1.0
 49
-1.0
  0
ENDTAB
  0
TABLE
  2
LAYER
 70
     1
  0
LAYER
  2
0
 70
     0
 62
     7
  6
CONTINUOUS
  0
ENDTAB
  0
TABLE
  2
STYLE
 70
     2
  0
STYLE
  2
STANDARD
 70
     0
 40
0.0
 41
0.7
 50
0.0
 71
     0
 42
73.985717453579113
  3
romans.shx
  4
bigfont.shx
  0
STYLE
  2
TSKDIM
 70
     0
 40
0.0
 41
0.75
 50
0.0
 71
     0
 42
4.0
  3
romans.shx
  4
EXTFONT.SHX
  0
ENDTAB
  0
TABLE
  2
VIEW
 70
     0
  0
ENDTAB
  0
TABLE
  2
UCS
 70
     0
  0
ENDTAB
  0
TABLE
  2
APPID
 70
    43
  0
APPID
  2
ACAD
 70
     0
  0
APPID
  2
MCAD_NO_VIS
 70
     0
  0
APPID
  2
ACAD_TEMP_GRAPHIC
 70
     0
  0
APPID
  2
ACATTRIBSERVICES
 70
     0
  0
APPID
  2
AD_DRAW
 70
     0
  0
APPID
  2
DESIGNERASSEMBLIES
 70
     0
  0
APPID
  2
ASURF_PCURVE_APPNAME
 70
     0
  0
APPID
  2
ACADM_DIM_EDIT
 70
     0
  0
APPID
  2
GENIUS_GENDIM_13
 70
     0
  0
APPID
  2
GENIUS_GENDTOL_13
 70
     0
  0
APPID
  2
GENIUS_GE3DTOL_13
 70
     0
  0
APPID
  2
AMG_3D2D_5_0
 70
     0
  0
APPID
  2
AMDT_DM_ADJ
 70
     0
  0
APPID
  2
CK_MATE-SERIES
 70
     0
  0
APPID
  2
GEVID1042077799
 70
     0
  0
APPID
  2
GEVMK
 70
     0
  0
APPID
  2
GEVDC
 70
     0
  0
APPID
  2
GENIUS_GENBH_13
 70
     0
  0
APPID
  2
GENIUS_GENOLIS_13
 70
     0
  0
APPID
  2
GENIUS_GENOENT_13
 70
     0
  0
APPID
  2
GENIUS_GENODEF_13
 70
     0
  0
APPID
  2
GENIUS_GENOBJ-NBEHI-BHF_13
 70
     0
  0
APPID
  2
GENIUS_GENOREF_13
 70
     0
  0
APPID
  2
GENIUS_GENOBJ-NBEHI-BHB_13
 70
     0
  0
APPID
  2
GEVID1042183772
 70
     0
  0
APPID
  2
GEVID1042183773
 70
     0
  0
APPID
  2
GEVID1042183774
 70
     0
  0
APPID
  2
DCO15
 70
     0
  0
APPID
  2
ACAD_DSTYLE_DIMARC_LENGTH_
 70
     0
  0
APPID
  2
ACAD_DSTYLE_DIMJOGGED_JOGA
 70
     0
  0
APPID
  2
ACAD_MLEADERVER
 70
     0
  0
APPID
  2
ACAD_DSTYLE_DIMJAG
 70
     0
  0
APPID
  2
ACAD_DSTYLE_DIMTALN
 70
     0
  0
APPID
  2
ACAD_PSEXT
 70
     0
  0
APPID
  2
ACAD_EXEMPT_FROM_CAD_STANDARDS
 70
     0
  0
APPID
  2
ACAECLAYERSTANDARD
 70
     0
  0
APPID
  2
ACAD_DSTYLE_DIMINSPECT
 70
     0
  0
APPID
  2
ACAD_DSTYLE_DIM_LINETYPE
 70
     0
  0
APPID
  2
ACAD_DSTYLE_DIM_EXT1_LINETYPE
 70
     0
  0
APPID
  2
ACAD_DSTYLE_DIM_EXT2_LINETYPE
 70
     0
  0
APPID
  2
ACADANNOTATIVE
 70
     0
  0
APPID
  2
ACAD_DSTYLE_DIMANGULAR_EXT
 70
     0
  0
APPID
  2
GENIUS_GENOBJ-N-FIL_13
 70
     0
  0
ENDTAB
  0
TABLE
  2
DIMSTYLE
 70
     1
  0
DIMSTYLE
  2
STANDARD
 70
     0
  3

  4

  5

  6

  7

 40
1.0
 41
0.18
 42
0.0625
 43
0.38
 44
0.18
 45
0.0
 46
0.0
 47
0.0
 48
0.0
140
0.18
141
0.09
142
0.0
143
25.399999999999999
144
1.0
145
0.0
146
1.0
147
0.09
 71
     0
 72
     0
 73
     1
 74
     1
 75
     0
 76
     0
 77
     0
 78
     0
170
     0
171
     2
172
     0
173
     0
174
     0
175
     0
176
     0
177
     0
178
     0
  0
ENDTAB
  0
ENDSEC
  0
SECTION
  2
BLOCKS
  0
BLOCK
  8
0
  2
$MODEL_SPACE
 70
     0
 10
0.0
 20
0.0
 30
0.0
  3
$MODEL_SPACE
  1

  0
ENDBLK
  5
21
  8
0
  0
BLOCK
 67
     1
  8
0
  2
$PAPER_SPACE
 70
     0
 10
0.0
 20
0.0
 30
0.0
  3
$PAPER_SPACE
  1

  0
ENDBLK
  5
1D
 67
     1
  8
0
  0
BLOCK
  8
0
  2
_OPEN
 70
     0
 10
0.0
 20
0.0
 30
0.0
  3
_OPEN
  1

  0
LINE
  5
15A
  8
0
  6
BYBLOCK
 62
     0
 10
-1.0
 20
0.1666666666666666
 30
0.0
 11
0.0
 21
0.0
 31
0.0
  0
LINE
  5
15B
  8
0
  6
BYBLOCK
 62
     0
 10
-1.0
 20
-0.1666666666666666
 30
0.0
 11
0.0
 21
0.0
 31
0.0
  0
LINE
  5
15C
  8
0
  6
BYBLOCK
 62
     0
 10
0.0
 20
0.0
 30
0.0
 11
-1.0
 21
0.0
 31
0.0
  0
ENDBLK
  5
15E
  8
0
  0
ENDSEC
  0
SECTION
  2
ENTITIES
  0
LINE
  5
2529
  8
0
 10
-11.0
 20
-22.00000000000011
 30
0.0
 11
11.0
 21
-22.00000000000011
 31
0.0
  0
LINE
  5
252A
  8
0
 10
-10.0
 20
-20.50000000000011
 30
0.0
 11
10.0
 21
-20.50000000000011
 31
0.0
  0
LINE
  5
252C
  8
0
 10
-12.0
 20
-17.437393000000039
 30
0.0
 11
-12.0
 21
-21.00000000000011
 31
0.0
  0
LINE
  5
252D
  8
0
 10
12.0
 20
-17.437393000000039
 30
0.0
 11
12.0
 21
-21.00000000000011
 31
0.0
  0
LINE
  5
252E
  8
0
 10
10.5
 20
-16.667710000000049
 30
0.0
 11
10.5
 21
-20.00000000000011
 31
0.0
  0
LINE
  5
252F
  8
0
 10
-10.5
 20
-16.667710000000049
 30
0.0
 11
-10.5
 21
-20.00000000000011
 31
0.0
  0
LINE
  5
2531
  8
0
 10
-36.5
 20
-8.5000000000002274
 30
0.0
 11
-36.5
 21
9.0
 31
0.0
  0
LINE
  5
2532
  8
0
 10
37.0
 20
3.0
 30
0.0
 11
37.0
 21
-8.5000000000002274
 31
0.0
  0
LINE
  5
2533
  8
0
 10
-36.5
 20
-7.0000000000002274
 30
0.0
 11
-20.225300000000061
 21
-7.0000000000002274
 31
0.0
  0
LINE
  5
2534
  8
0
 10
-36.5
 20
-8.5000000000002274
 30
0.0
 11
-21.220569999999949
 21
-8.5000000000002274
 31
0.0
  0
LINE
  5
2535
  8
0
 10
19.178439999999679
 20
-5.5000000000002274
 30
0.0
 11
25.0
 21
-5.5000000000002274
 31
0.0
  0
LINE
  5
2536
  8
0
 10
20.225300000000061
 20
-7.0000000000002274
 30
0.0
 11
37.0
 21
-7.0000000000002274
 31
0.0
  0
LINE
  5
2537
  8
0
 10
21.220569999999949
 20
-8.5000000000002274
 30
0.0
 11
37.0
 21
-8.5000000000002274
 31
0.0
  0
LINE
  5
2538
  8
0
  6
CENTER
 10
-31.0
 20
-10.38954200000012
 30
0.0
 11
-31.0
 21
9.8932409999999891
 31
0.0
  0
LINE
  5
2539
  8
0
 10
-25.5
 20
-7.0000000000002274
 30
0.0
 11
-25.5
 21
7.5
 31
0.0
  0
LINE
  5
253A
  8
0
  6
CENTER
 10
31.0
 20
-9.8452530000001843
 30
0.0
 11
31.0
 21
26.969209999999968
 31
0.0
  0
LINE
  5
253B
  8
0
 10
25.0
 20
3.0
 30
0.0
 11
25.0
 21
-7.0000000000002274
 31
0.0
  0
LINE
  5
253C
  8
0
 10
27.0
 20
5.0
 30
0.0
 11
35.0
 21
5.0
 31
0.0
  0
LINE
  5
253D
  8
0
 10
-25.5
 20
-5.5000000000002274
 30
0.0
 11
-19.17844000000013
 21
-5.5000000000002274
 31
0.0
  0
LINE
  5
2570
  8
0
 10
-11.0
 20
-43.000004000000096
 30
0.0
 11
11.0
 21
-43.000004000000096
 31
0.0
  0
LINE
  5
2571
  8
0
  6
CENTER
 10
0.0
 20
-45.918320000000101
 30
0.0
 11
0.0
 21
24.81469700000002
 31
0.0
  0
LINE
  5
2576
  8
0
 10
11.0
 20
-22.00000000000011
 30
0.0
 11
11.0
 21
-43.000004000000096
 31
0.0
  0
LINE
  5
2577
  8
0
 10
-11.0
 20
-22.00000000000011
 30
0.0
 11
-11.0
 21
-43.000004000000096
 31
0.0
  0
LINE
  5
257E
  8
0
 10
10.0
 20
-19.800003000000061
 30
0.0
 11
10.0
 21
-20.50000000000011
 31
0.0
  0
LINE
  5
257F
  8
0
 10
9.6999999999998181
 20
-19.500003000000099
 30
0.0
 11
10.00000999999974
 21
-19.800008000000041
 31
0.0
  0
LINE
  5
2581
  8
0
 10
-9.7000000000002728
 20
-19.5000040000001
 30
0.0
 11
-10.0
 21
-19.800003000000061
 31
0.0
  0
LINE
  5
2582
  8
0
 10
-10.0
 20
-19.800003000000061
 30
0.0
 11
-10.0
 21
-20.50000000000011
 31
0.0
  0
LINE
  5
2587
  8
0
 10
9.6999999999998181
 20
-19.50000000000011
 30
0.0
 11
-9.7000000000002728
 21
-19.50000000000011
 31
0.0
  0
ARC
  5
25B1
  8
0
 10
27.0
 20
3.0
 30
0.0
 40
2.0
 50
90.000003000010722
 51
180.000010000001
  0
ARC
  5
25B2
  8
0
 10
35.0
 20
3.0
 30
0.0
 40
2.0
 50
0.0
 51
90.000003000010722
  0
ARC
  5
25B4
  8
0
 10
-11.0
 20
-21.00000000000011
 30
0.0
 40
1.0
 50
179.99998999999889
 51
270.0
  0
ARC
  5
25B5
  8
0
 10
11.0
 20
-21.00000000000011
 30
0.0
 40
1.0
 50
270.0
 51
0.0
  0
ARC
  5
25B8
  8
0
 10
0.0
 20
0.0
 30
0.0
 40
19.25
 50
304.6039999999835
 51
341.27733000000029
  0
ARC
  5
25B9
  8
0
 10
0.0
 20
0.0
 30
0.0
 40
20.75
 50
306.7054299999993
 51
338.41900999999638
  0
ARC
  5
25BA
  8
0
 10
0.0
 20
0.0
 30
0.0
 40
22.25
 50
302.63776000000797
 51
335.88294999999181
  0
ARC
  5
25BB
  8
0
 10
0.0
 20
0.0
 30
0.0
 40
22.25
 50
204.11705000000811
 51
237.36225000000451
  0
ARC
  5
25BC
  8
0
 10
0.0
 20
0.0
 30
0.0
 40
20.75
 50
201.58099000000351
 51
233.29457000000059
  0
ARC
  5
25BD
  8
0
 10
0.0
 20
0.0
 30
0.0
 40
19.25
 50
198.7226599999961
 51
235.39600000001639
  0
ARC
  5
25BE
  8
0
 10
-11.5
 20
-16.667710000000049
 30
0.0
 40
1.0
 50
0.0
 51
55.39599700000533
  0
ARC
  5
25BF
  8
0
 10
-13.0
 20
-17.437393000000039
 30
0.0
 40
1.0
 50
0.0
 51
53.294569000001637
  0
ARC
  5
25C0
  8
0
 10
-21.220569999999949
 20
-9.5000000000002274
 30
0.0
 40
1.0
 50
24.11705499999595
 51
90.000003000010722
  0
ARC
  5
25C1
  8
0
 10
-20.225300000000061
 20
-8.0000000000002274
 30
0.0
 40
1.0
 50
21.580993999993339
 51
90.000003000010722
  0
ARC
  5
25C2
  8
0
 10
-19.17844000000013
 20
-6.5000000000002274
 30
0.0
 40
1.0
 50
18.72266499999175
 51
90.000003000010722
  0
ARC
  5
25C3
  8
0
 10
11.5
 20
-16.667710000000049
 30
0.0
 40
1.0
 50
124.6039999999835
 51
180.000010000001
  0
ARC
  5
25C4
  8
0
 10
13.0
 20
-17.437393000000039
 30
0.0
 40
1.0
 50
126.7054299999993
 51
180.000010000001
  0
ARC
  5
25C5
  8
0
 10
19.178439999999679
 20
-6.5000000000002274
 30
0.0
 40
1.0
 50
90.000003000010722
 51
161.27734000000379
  0
ARC
  5
25C6
  8
0
 10
20.225300000000061
 20
-8.0000000000002274
 30
0.0
 40
1.0
 50
90.000003000010722
 51
158.41900999999649
  0
ARC
  5
25C7
  8
0
 10
21.220569999999949
 20
-9.5000000000002274
 30
0.0
 40
1.0
 50
90.000003000010722
 51
155.88294999999189
  0
ARC
  5
25CA
  8
0
 10
10.0
 20
-20.00000000000011
 30
0.0
 40
0.5
 50
270.0
 51
0.0
  0
ARC
  5
25CB
  8
0
 10
-10.0
 20
-20.00000000000011
 30
0.0
 40
0.5
 50
179.99998999999889
 51
270.0
  0
LINE
  5
3480
  8
0
  6
CENTER
 10
-39.019620000000032
 20
0.0
 30
0.0
 11
42.075929587893818
 21
0.0
 31
0.0
  0
LINE
  5
3486
  8
0
 10
-36.5
 20
7.5
 30
0.0
 11
-20.020309999999881
 21
7.5
 31
0.0
  0
LINE
  5
3487
  8
0
 10
-36.5
 20
9.0
 30
0.0
 11
-20.98958000000038
 21
9.0
 31
0.0
  0
LINE
  5
3488
  8
0
 10
19.001650000000151
 20
6.0
 30
0.0
 11
39.5
 21
6.0
 31
0.0
  0
LINE
  5
3489
  8
0
 10
20.989579999999471
 20
9.0
 30
0.0
 11
39.5
 21
9.0
 31
0.0
  0
LINE
  5
348A
  8
0
  6
CENTER
 10
-40.016540000000532
 20
76.276125058619755
 30
0.0
 11
41.946519999999502
 21
76.276125058619755
 31
0.0
  0
LINE
  5
348B
  8
0
 10
-17.82422000000042
 20
63.276125058619748
 30
0.0
 11
39.5
 21
63.276125058619748
 31
0.0
  0
LINE
  5
348C
  8
0
 10
-17.824200000000008
 20
89.276125058619755
 30
0.0
 11
39.5
 21
89.276125058619755
 31
0.0
  0
LINE
  5
348D
  8
0
 10
39.5
 20
89.276125058619755
 30
0.0
 11
39.5
 21
80.526125058619755
 31
0.0
  0
LINE
  5
348E
  8
0
 10
36.562153647645573
 20
80.526125058619755
 30
0.0
 11
39.5
 21
80.526125058619755
 31
0.0
  0
LINE
  5
348F
  8
0
 10
36.562153647645573
 20
72.026125058619755
 30
0.0
 11
39.5
 21
72.026125058619755
 31
0.0
  0
LINE
  5
3490
  8
0
 10
-36.5
 20
82.776125058619755
 30
0.0
 11
28.40191355031947
 21
82.776125058619755
 31
0.0
  0
LINE
  5
3491
  8
0
 10
-36.5
 20
69.776125058619755
 30
0.0
 11
28.40191355031947
 21
69.776125058619755
 31
0.0
  0
LINE
  5
3492
  8
0
 10
39.5
 20
72.026125058619755
 30
0.0
 11
39.5
 21
63.276125058619748
 31
0.0
  0
LINE
  5
3493
  8
0
 10
-36.5
 20
88.776125058619755
 30
0.0
 11
-36.5
 21
63.776125058619748
 31
0.0
  0
LINE
  5
3494
  8
0
 10
-36.5
 20
63.776125058619748
 30
0.0
 11
-25.5
 21
63.776125058619748
 31
0.0
  0
LINE
  5
3495
  8
0
 10
-36.5
 20
88.776125058619755
 30
0.0
 11
-25.5
 21
88.776125058619755
 31
0.0
  0
LINE
  5
3496
  8
0
  6
CENTER
 10
-31.0
 20
89.825325058619683
 30
0.0
 11
-31.0
 21
62.40970505861992
 31
0.0
  0
LINE
  5
3497
  8
0
 10
-25.5
 20
88.776125058619755
 30
0.0
 11
-25.5
 21
87.276125058619755
 31
0.0
  0
LINE
  5
349F
  8
0
 10
-19.9663100000007
 20
65.276125058619755
 30
0.0
 11
-18.590810000000602
 21
63.63399505862003
 31
0.0
  0
LINE
  5
34A0
  8
0
 10
-18.590799999999941
 20
88.918255058619934
 30
0.0
 11
-19.966300000000039
 21
87.276125058619755
 31
0.0
  0
LINE
  5
34A1
  8
0
 10
-25.5
 20
65.276125058619755
 30
0.0
 11
-25.5
 21
63.776125058619748
 31
0.0
  0
LINE
  5
34A2
  8
0
 10
-25.5
 20
65.276125058619755
 30
0.0
 11
-19.9663100000007
 21
65.276125058619755
 31
0.0
  0
LINE
  5
34A3
  8
0
 10
-25.5
 20
87.276125058619755
 30
0.0
 11
-19.9663100000007
 21
87.276125058619755
 31
0.0
  0
LINE
  5
34A4
  8
0
 10
-25.5
 20
6.0
 30
0.0
 11
-19.001650000000151
 21
6.0
 31
0.0
  0
LINE
  5
34A8
  8
0
 10
20.020309999999881
 20
7.5
 30
0.0
 11
39.5
 21
7.5
 31
0.0
  0
LINE
  5
34AA
  8
0
 10
39.5
 20
9.0
 30
0.0
 11
39.5
 21
6.0
 31
0.0
  0
LINE
  5
34AB
  8
0
 10
-19.347150000000511
 20
87.502235058619803
 30
0.0
 11
-19.347150000000511
 21
83.274375058619839
 31
0.0
  0
LINE
  5
34AC
  8
0
 10
-20.348530000000199
 20
82.192825058619974
 30
0.0
 11
-20.348530000000199
 21
70.197495058619779
 31
0.0
  0
LINE
  5
34AD
  8
0
 10
-19.347150000000511
 20
69.312585058620016
 30
0.0
 11
-19.347150000000511
 21
65.084725058620052
 31
0.0
  0
LINE
  5
34AE
  8
0
 10
19.347149999999601
 20
88.848205058619655
 30
0.0
 11
19.347149999999601
 21
83.542855058620034
 31
0.0
  0
LINE
  5
34AF
  8
0
 10
20.348530000000199
 20
82.046465058619773
 30
0.0
 11
20.348529999999752
 21
78.526125058619755
 31
0.0
  0
LINE
  5
34B0
  8
0
 10
19.347149999999601
 20
69.259155058620081
 30
0.0
 11
19.347149999999601
 21
63.817765058619671
 31
0.0
  0
ARC
  5
34B4
  8
0
 10
0.0
 20
0.0
 30
0.0
 40
19.25
 50
20.223251000014709
 51
159.77673999999769
  0
ARC
  5
34B5
  8
0
 10
0.0
 20
0.0
 30
0.0
 40
20.75
 50
23.004571999989508
 51
156.99541999999511
  0
ARC
  5
34B6
  8
0
 10
0.0
 20
0.0
 30
0.0
 40
22.25
 50
25.474383999986049
 51
154.5256100000027
  0
ARC
  5
34B8
  8
0
 10
-20.98958000000038
 20
10.0
 30
0.0
 40
1.0
 50
270.0
 51
334.52562000000518
  0
ARC
  5
34B9
  8
0
 10
-20.020309999999881
 20
8.5
 30
0.0
 40
1.0
 50
270.0
 51
336.99542999999721
  0
ARC
  5
34BA
  8
0
 10
-19.001650000000151
 20
7.0
 30
0.0
 40
1.0
 50
270.0
 51
339.77675000000357
  0
ARC
  5
34BB
  8
0
 10
19.001650000000151
 20
7.0
 30
0.0
 40
1.0
 50
200.2232600000022
 51
270.0
  0
ARC
  5
34BC
  8
0
 10
20.020309999999881
 20
8.5
 30
0.0
 40
1.0
 50
203.00458000000481
 51
270.0
  0
ARC
  5
34BD
  8
0
 10
20.989579999999471
 20
10.0
 30
0.0
 40
1.0
 50
205.47438999999719
 51
270.0
  0
ARC
  5
34BE
  8
0
 10
-17.82422000000042
 20
64.276125058619755
 30
0.0
 40
1.0
 50
219.9506500000119
 51
270.0
  0
ARC
  5
34BF
  8
0
 10
-17.824200000000008
 20
88.276125058619755
 30
0.0
 40
1.0
 50
90.000002999984659
 51
140.0493499999881
  0
LINE
  5
F7D6
  8
0
 10
36.5
 20
15.0
 30
0.0
 11
25.5
 21
15.0
 31
0.0
  0
LINE
  5
F7D7
  8
0
 10
36.500044000000337
 20
15.000019999999941
 30
0.0
 11
38.000045000000682
 21
9.0000199999999495
 31
0.0
  0
LINE
  5
F7D8
  8
0
 10
40.328972999999678
 20
23.52635000000009
 30
0.0
 11
45.765666999999667
 21
20.419669999999989
 31
0.0
  0
LINE
  5
F7D9
  8
0
 10
35.0
 20
24.22545000000013
 30
0.0
 11
35.0
 21
15.0
 31
0.0
  0
LINE
  5
F7DA
  8
0
 10
35.0
 20
6.0
 30
0.0
 11
35.0
 21
5.0
 31
0.0
  0
LINE
  5
F7DB
  8
0
 10
34.0
 20
25.22545000000013
 30
0.0
 11
28.0
 21
25.22545000000013
 31
0.0
  0
LINE
  5
F7DC
  8
0
 10
34.000035999999447
 20
25.225490000000029
 30
0.0
 11
35.000036999999793
 21
24.225490000000029
 31
0.0
  0
ARC
  5
F7DD
  8
0
 10
39.832518999999593
 20
22.657570000000071
 30
0.0
 40
1.0
 50
60.255116000012798
 51
149.14714999999811
  0
ARC
  5
F7DE
  8
0
 10
45.269538999999888
 20
19.55146000000013
 30
0.0
 40
1.0
 50
338.7236600000021
 51
60.255116000012798
  0
POLYLINE
  8
0
  5
10505
  66
     1
 10
0.000000
 20
0.000000
 30
0.000000
  70
     8
  0
VERTEX
  8
0
  5
10506
 10
36.5000
 20
15.0000
 30
0.000000
  70
    32
  0
VERTEX
  8
0
  5
10507
 10
36.5016
 20
15.0300
 30
0.000000
  70
    32
  0
VERTEX
  8
0
  5
10508
 10
36.5032
 20
15.0600
 30
0.000000
  70
    32
  0
VERTEX
  8
0
  5
10509
 10
36.5049
 20
15.0900
 30
0.000000
  70
    32
  0
VERTEX
  8
0
  5
1050A
 10
36.5066
 20
15.1200
 30
0.000000
  70
    32
  0
VERTEX
  8
0
  5
1050B
 10
36.5084
 20
15.1500
 30
0.000000
  70
    32
  0
VERTEX
  8
0
  5
1050C
 10
36.5102
 20
15.1800
 30
0.000000
  70
    32
  0
VERTEX
  8
0
  5
1050D
 10
36.5121
 20
15.2100
 30
0.000000
  70
    32
  0
VERTEX
  8
0
  5
1050E
 10
36.5140
 20
15.2399
 30
0.000000
  70
    32
  0
VERTEX
  8
0
  5
1050F
 10
36.5160
 20
15.2699
 30
0.000000
  70
    32
  0
VERTEX
  8
0
  5
10510
 10
36.5180
 20
15.2999
 30
0.000000
  70
    32
  0
VERTEX
  8
0
  5
10511
 10
36.5200
 20
15.3299
 30
0.000000
  70
    32
  0
VERTEX
  8
0
  5
10512
 10
36.5221
 20
15.3598
 30
0.000000
  70
    32
  0
VERTEX
  8
0
  5
10513
 10
36.5243
 20
15.3898
 30
0.000000
  70
    32
  0
VERTEX
  8
0
  5
10514
 10
36.5265
 20
15.4198
 30
0.000000
  70
    32
  0
VERTEX
  8
0
  5
10515
 10
36.5288
 20
15.4497
 30
0.000000
  70
    32
  0
VERTEX
  8
0
  5
10516
 10
36.5311
 20
15.4797
 30
0.000000
  70
    32
  0
VERTEX
  8
0
  5
10517
 10
36.5334
 20
15.5096
 30
0.000000
  70
    32
  0
VERTEX
  8
0
  5
10518
 10
36.5358
 20
15.5396
 30
0.000000
  70
    32
  0
VERTEX
  8
0
  5
10519
 10
36.5383
 20
15.5695
 30
0.000000
  70
    32
  0
VERTEX
  8
0
  5
1051A
 10
36.5408
 20
15.5995
 30
0.000000
  70
    32
  0
VERTEX
  8
0
  5
1051B
 10
36.5433
 20
15.6294
 30
0.000000
  70
    32
  0
VERTEX
  8
0
  5
1051C
 10
36.5459
 20
15.6594
 30
0.000000
  70
    32
  0
VERTEX
  8
0
  5
1051D
 10
36.5486
 20
15.6893
 30
0.000000
  70
    32
  0
VERTEX
  8
0
  5
1051E
 10
36.5513
 20
15.7192
 30
0.000000
  70
    32
  0
VERTEX
  8
0
  5
1051F
 10
36.5540
 20
15.7492
 30
0.000000
  70
    32
  0
VERTEX
  8
0
  5
10520
 10
36.5568
 20
15.7791
 30
0.000000
  70
    32
  0
VERTEX
  8
0
  5
10521
 10
36.5597
 20
15.8090
 30
0.000000
  70
    32
  0
VERTEX
  8
0
  5
10522
 10
36.5625
 20
15.8389
 30
0.000000
  70
    32
  0
VERTEX
  8
0
  5
10523
 10
36.5655
 20
15.8688
 30
0.000000
  70
    32
  0
VERTEX
  8
0
  5
10524
 10
36.5685
 20
15.8987
 30
0.000000
  70
    32
  0
VERTEX
  8
0
  5
10525
 10
36.5715
 20
15.9286
 30
0.000000
  70
    32
  0
VERTEX
  8
0
  5
10526
 10
36.5746
 20
15.9585
 30
0.000000
  70
    32
  0
VERTEX
  8
0
  5
10527
 10
36.5777
 20
15.9884
 30
0.000000
  70
    32
  0
VERTEX
  8
0
  5
10528
 10
36.5809
 20
16.0183
 30
0.000000
  70
    32
  0
VERTEX
  8
0
  5
10529
 10
36.5842
 20
16.0481
 30
0.000000
  70
    32
  0
VERTEX
  8
0
  5
1052A
 10
36.5874
 20
16.0780
 30
0.000000
  70
    32
  0
VERTEX
  8
0
  5
1052B
 10
36.5908
 20
16.1079
 30
0.000000
  70
    32
  0
VERTEX
  8
0
  5
1052C
 10
36.5941
 20
16.1377
 30
0.000000
  70
    32
  0
VERTEX
  8
0
  5
1052D
 10
36.5976
 20
16.1676
 30
0.000000
  70
    32
  0
VERTEX
  8
0
  5
1052E
 10
36.6010
 20
16.1974
 30
0.000000
  70
    32
  0
VERTEX
  8
0
  5
1052F
 10
36.6046
 20
16.2273
 30
0.000000
  70
    32
  0
VERTEX
  8
0
  5
10530
 10
36.6081
 20
16.2571
 30
0.000000
  70
    32
  0
VERTEX
  8
0
  5
10531
 10
36.6118
 20
16.2870
 30
0.000000
  70
    32
  0
VERTEX
  8
0
  5
10532
 10
36.6154
 20
16.3168
 30
0.000000
  70
    32
  0
VERTEX
  8
0
  5
10533
 10
36.6192
 20
16.3466
 30
0.000000
  70
    32
  0
VERTEX
  8
0
  5
10534
 10
36.6229
 20
16.3764
 30
0.000000
  70
    32
  0
VERTEX
  8
0
  5
10535
 10
36.6268
 20
16.4062
 30
0.000000
  70
    32
  0
VERTEX
  8
0
  5
10536
 10
36.6306
 20
16.4360
 30
0.000000
  70
    32
  0
VERTEX
  8
0
  5
10537
 10
36.6345
 20
16.4658
 30
0.000000
  70
    32
  0
VERTEX
  8
0
  5
10538
 10
36.6385
 20
16.4956
 30
0.000000
  70
    32
  0
VERTEX
  8
0
  5
10539
 10
36.6425
 20
16.5254
 30
0.000000
  70
    32
  0
VERTEX
  8
0
  5
1053A
 10
36.6466
 20
16.5552
 30
0.000000
  70
    32
  0
VERTEX
  8
0
  5
1053B
 10
36.6507
 20
16.5849
 30
0.000000
  70
    32
  0
VERTEX
  8
0
  5
1053C
 10
36.6549
 20
16.6147
 30
0.000000
  70
    32
  0
VERTEX
  8
0
  5
1053D
 10
36.6591
 20
16.6444
 30
0.000000
  70
    32
  0
VERTEX
  8
0
  5
1053E
 10
36.6633
 20
16.6742
 30
0.000000
  70
    32
  0
VERTEX
  8
0
  5
1053F
 10
36.6677
 20
16.7039
 30
0.000000
  70
    32
  0
VERTEX
  8
0
  5
10540
 10
36.6720
 20
16.7337
 30
0.000000
  70
    32
  0
VERTEX
  8
0
  5
10541
 10
36.6764
 20
16.7634
 30
0.000000
  70
    32
  0
VERTEX
  8
0
  5
10542
 10
36.6809
 20
16.7931
 30
0.000000
  70
    32
  0
VERTEX
  8
0
  5
10543
 10
36.6854
 20
16.8228
 30
0.000000
  70
    32
  0
VERTEX
  8
0
  5
10544
 10
36.6900
 20
16.8525
 30
0.000000
  70
    32
  0
VERTEX
  8
0
  5
10545
 10
36.6946
 20
16.8822
 30
0.000000
  70
    32
  0
VERTEX
  8
0
  5
10546
 10
36.6992
 20
16.9119
 30
0.000000
  70
    32
  0
VERTEX
  8
0
  5
10547
 10
36.7039
 20
16.9416
 30
0.000000
  70
    32
  0
VERTEX
  8
0
  5
10548
 10
36.7087
 20
16.9712
 30
0.000000
  70
    32
  0
VERTEX
  8
0
  5
10549
 10
36.7135
 20
17.0009
 30
0.000000
  70
    32
  0
VERTEX
  8
0
  5
1054A
 10
36.7183
 20
17.0305
 30
0.000000
  70
    32
  0
VERTEX
  8
0
  5
1054B
 10
36.7232
 20
17.0602
 30
0.000000
  70
    32
  0
VERTEX
  8
0
  5
1054C
 10
36.7282
 20
17.0898
 30
0.000000
  70
    32
  0
VERTEX
  8
0
  5
1054D
 10
36.7332
 20
17.1195
 30
0.000000
  70
    32
  0
VERTEX
  8
0
  5
1054E
 10
36.7382
 20
17.1491
 30
0.000000
  70
    32
  0
VERTEX
  8
0
  5
1054F
 10
36.7434
 20
17.1787
 30
0.000000
  70
    32
  0
VERTEX
  8
0
  5
10550
 10
36.7485
 20
17.2083
 30
0.000000
  70
    32
  0
VERTEX
  8
0
  5
10551
 10
36.7537
 20
17.2379
 30
0.000000
  70
    32
  0
VERTEX
  8
0
  5
10552
 10
36.7590
 20
17.2675
 30
0.000000
  70
    32
  0
VERTEX
  8
0
  5
10553
 10
36.7643
 20
17.2971
 30
0.000000
  70
    32
  0
VERTEX
  8
0
  5
10554
 10
36.7696
 20
17.3266
 30
0.000000
  70
    32
  0
VERTEX
  8
0
  5
10555
 10
36.7750
 20
17.3562
 30
0.000000
  70
    32
  0
VERTEX
  8
0
  5
10556
 10
36.7804
 20
17.3857
 30
0.000000
  70
    32
  0
VERTEX
  8
0
  5
10557
 10
36.7859
 20
17.4153
 30
0.000000
  70
    32
  0
VERTEX
  8
0
  5
10558
 10
36.7915
 20
17.4448
 30
0.000000
  70
    32
  0
VERTEX
  8
0
  5
10559
 10
36.7971
 20
17.4743
 30
0.000000
  70
    32
  0
VERTEX
  8
0
  5
1055A
 10
36.8027
 20
17.5038
 30
0.000000
  70
    32
  0
VERTEX
  8
0
  5
1055B
 10
36.8084
 20
17.5333
 30
0.000000
  70
    32
  0
VERTEX
  8
0
  5
1055C
 10
36.8142
 20
17.5628
 30
0.000000
  70
    32
  0
VERTEX
  8
0
  5
1055D
 10
36.8200
 20
17.5923
 30
0.000000
  70
    32
  0
VERTEX
  8
0
  5
1055E
 10
36.8258
 20
17.6218
 30
0.000000
  70
    32
  0
VERTEX
  8
0
  5
1055F
 10
36.8317
 20
17.6513
 30
0.000000
  70
    32
  0
VERTEX
  8
0
  5
10560
 10
36.8377
 20
17.6807
 30
0.000000
  70
    32
  0
VERTEX
  8
0
  5
10561
 10
36.8437
 20
17.7102
 30
0.000000
  70
    32
  0
VERTEX
  8
0
  5
10562
 10
36.8497
 20
17.7396
 30
0.000000
  70
    32
  0
VERTEX
  8
0
  5
10563
 10
36.8558
 20
17.7690
 30
0.000000
  70
    32
  0
VERTEX
  8
0
  5
10564
 10
36.8619
 20
17.7984
 30
0.000000
  70
    32
  0
VERTEX
  8
0
  5
10565
 10
36.8681
 20
17.8278
 30
0.000000
  70
    32
  0
VERTEX
  8
0
  5
10566
 10
36.8744
 20
17.8572
 30
0.000000
  70
    32
  0
VERTEX
  8
0
  5
10567
 10
36.8807
 20
17.8866
 30
0.000000
  70
    32
  0
VERTEX
  8
0
  5
10568
 10
36.8870
 20
17.9160
 30
0.000000
  70
    32
  0
VERTEX
  8
0
  5
10569
 10
36.8934
 20
17.9453
 30
0.000000
  70
    32
  0
VERTEX
  8
0
  5
1056A
 10
36.8999
 20
17.9747
 30
0.000000
  70
    32
  0
VERTEX
  8
0
  5
1056B
 10
36.9064
 20
18.0040
 30
0.000000
  70
    32
  0
VERTEX
  8
0
  5
1056C
 10
36.9129
 20
18.0334
 30
0.000000
  70
    32
  0
VERTEX
  8
0
  5
1056D
 10
36.9195
 20
18.0627
 30
0.000000
  70
    32
  0
VERTEX
  8
0
  5
1056E
 10
36.9261
 20
18.0920
 30
0.000000
  70
    32
  0
VERTEX
  8
0
  5
1056F
 10
36.9328
 20
18.1213
 30
0.000000
  70
    32
  0
VERTEX
  8
0
  5
10570
 10
36.9396
 20
18.1506
 30
0.000000
  70
    32
  0
VERTEX
  8
0
  5
10571
 10
36.9464
 20
18.1798
 30
0.000000
  70
    32
  0
VERTEX
  8
0
  5
10572
 10
36.9532
 20
18.2091
 30
0.000000
  70
    32
  0
VERTEX
  8
0
  5
10573
 10
36.9601
 20
18.2383
 30
0.000000
  70
    32
  0
VERTEX
  8
0
  5
10574
 10
36.9671
 20
18.2676
 30
0.000000
  70
    32
  0
VERTEX
  8
0
  5
10575
 10
36.9741
 20
18.2968
 30
0.000000
  70
    32
  0
VERTEX
  8
0
  5
10576
 10
36.9811
 20
18.3260
 30
0.000000
  70
    32
  0
VERTEX
  8
0
  5
10577
 10
36.9882
 20
18.3552
 30
0.000000
  70
    32
  0
VERTEX
  8
0
  5
10578
 10
36.9954
 20
18.3844
 30
0.000000
  70
    32
  0
VERTEX
  8
0
  5
10579
 10
37.0026
 20
18.4136
 30
0.000000
  70
    32
  0
VERTEX
  8
0
  5
1057A
 10
37.0098
 20
18.4427
 30
0.000000
  70
    32
  0
VERTEX
  8
0
  5
1057B
 10
37.0171
 20
18.4719
 30
0.000000
  70
    32
  0
VERTEX
  8
0
  5
1057C
 10
37.0245
 20
18.5010
 30
0.000000
  70
    32
  0
VERTEX
  8
0
  5
1057D
 10
37.0319
 20
18.5301
 30
0.000000
  70
    32
  0
VERTEX
  8
0
  5
1057E
 10
37.0393
 20
18.5592
 30
0.000000
  70
    32
  0
VERTEX
  8
0
  5
1057F
 10
37.0468
 20
18.5883
 30
0.000000
  70
    32
  0
VERTEX
  8
0
  5
10580
 10
37.0544
 20
18.6174
 30
0.000000
  70
    32
  0
VERTEX
  8
0
  5
10581
 10
37.0620
 20
18.6465
 30
0.000000
  70
    32
  0
VERTEX
  8
0
  5
10582
 10
37.0696
 20
18.6756
 30
0.000000
  70
    32
  0
VERTEX
  8
0
  5
10583
 10
37.0773
 20
18.7046
 30
0.000000
  70
    32
  0
VERTEX
  8
0
  5
10584
 10
37.0851
 20
18.7336
 30
0.000000
  70
    32
  0
VERTEX
  8
0
  5
10585
 10
37.0929
 20
18.7627
 30
0.000000
  70
    32
  0
VERTEX
  8
0
  5
10586
 10
37.1008
 20
18.7917
 30
0.000000
  70
    32
  0
VERTEX
  8
0
  5
10587
 10
37.1087
 20
18.8206
 30
0.000000
  70
    32
  0
VERTEX
  8
0
  5
10588
 10
37.1166
 20
18.8496
 30
0.000000
  70
    32
  0
VERTEX
  8
0
  5
10589
 10
37.1246
 20
18.8786
 30
0.000000
  70
    32
  0
VERTEX
  8
0
  5
1058A
 10
37.1327
 20
18.9075
 30
0.000000
  70
    32
  0
VERTEX
  8
0
  5
1058B
 10
37.1408
 20
18.9365
 30
0.000000
  70
    32
  0
VERTEX
  8
0
  5
1058C
 10
37.1490
 20
18.9654
 30
0.000000
  70
    32
  0
VERTEX
  8
0
  5
1058D
 10
37.1572
 20
18.9943
 30
0.000000
  70
    32
  0
VERTEX
  8
0
  5
1058E
 10
37.1655
 20
19.0232
 30
0.000000
  70
    32
  0
VERTEX
  8
0
  5
1058F
 10
37.1738
 20
19.0521
 30
0.000000
  70
    32
  0
VERTEX
  8
0
  5
10590
 10
37.1822
 20
19.0809
 30
0.000000
  70
    32
  0
VERTEX
  8
0
  5
10591
 10
37.1906
 20
19.1098
 30
0.000000
  70
    32
  0
VERTEX
  8
0
  5
10592
 10
37.1990
 20
19.1386
 30
0.000000
  70
    32
  0
VERTEX
  8
0
  5
10593
 10
37.2076
 20
19.1674
 30
0.000000
  70
    32
  0
VERTEX
  8
0
  5
10594
 10
37.2161
 20
19.1962
 30
0.000000
  70
    32
  0
VERTEX
  8
0
  5
10595
 10
37.2248
 20
19.2250
 30
0.000000
  70
    32
  0
VERTEX
  8
0
  5
10596
 10
37.2334
 20
19.2538
 30
0.000000
  70
    32
  0
VERTEX
  8
0
  5
10597
 10
37.2422
 20
19.2825
 30
0.000000
  70
    32
  0
VERTEX
  8
0
  5
10598
 10
37.2510
 20
19.3112
 30
0.000000
  70
    32
  0
VERTEX
  8
0
  5
10599
 10
37.2598
 20
19.3400
 30
0.000000
  70
    32
  0
VERTEX
  8
0
  5
1059A
 10
37.2687
 20
19.3687
 30
0.000000
  70
    32
  0
VERTEX
  8
0
  5
1059B
 10
37.2776
 20
19.3974
 30
0.000000
  70
    32
  0
VERTEX
  8
0
  5
1059C
 10
37.2866
 20
19.4260
 30
0.000000
  70
    32
  0
VERTEX
  8
0
  5
1059D
 10
37.2956
 20
19.4547
 30
0.000000
  70
    32
  0
VERTEX
  8
0
  5
1059E
 10
37.3047
 20
19.4833
 30
0.000000
  70
    32
  0
VERTEX
  8
0
  5
1059F
 10
37.3138
 20
19.5120
 30
0.000000
  70
    32
  0
VERTEX
  8
0
  5
105A0
 10
37.3230
 20
19.5406
 30
0.000000
  70
    32
  0
VERTEX
  8
0
  5
105A1
 10
37.3323
 20
19.5692
 30
0.000000
  70
    32
  0
VERTEX
  8
0
  5
105A2
 10
37.3416
 20
19.5978
 30
0.000000
  70
    32
  0
VERTEX
  8
0
  5
105A3
 10
37.3509
 20
19.6263
 30
0.000000
  70
    32
  0
VERTEX
  8
0
  5
105A4
 10
37.3603
 20
19.6549
 30
0.000000
  70
    32
  0
VERTEX
  8
0
  5
105A5
 10
37.3697
 20
19.6834
 30
0.000000
  70
    32
  0
VERTEX
  8
0
  5
105A6
 10
37.3792
 20
19.7119
 30
0.000000
  70
    32
  0
VERTEX
  8
0
  5
105A7
 10
37.3888
 20
19.7404
 30
0.000000
  70
    32
  0
VERTEX
  8
0
  5
105A8
 10
37.3984
 20
19.7689
 30
0.000000
  70
    32
  0
VERTEX
  8
0
  5
105A9
 10
37.4080
 20
19.7973
 30
0.000000
  70
    32
  0
VERTEX
  8
0
  5
105AA
 10
37.4177
 20
19.8258
 30
0.000000
  70
    32
  0
VERTEX
  8
0
  5
105AB
 10
37.4275
 20
19.8542
 30
0.000000
  70
    32
  0
VERTEX
  8
0
  5
105AC
 10
37.4373
 20
19.8826
 30
0.000000
  70
    32
  0
VERTEX
  8
0
  5
105AD
 10
37.4471
 20
19.9110
 30
0.000000
  70
    32
  0
VERTEX
  8
0
  5
105AE
 10
37.4570
 20
19.9394
 30
0.000000
  70
    32
  0
VERTEX
  8
0
  5
105AF
 10
37.4669
 20
19.9677
 30
0.000000
  70
    32
  0
VERTEX
  8
0
  5
105B0
 10
37.4769
 20
19.9961
 30
0.000000
  70
    32
  0
VERTEX
  8
0
  5
105B1
 10
37.4870
 20
20.0244
 30
0.000000
  70
    32
  0
VERTEX
  8
0
  5
105B2
 10
37.4971
 20
20.0527
 30
0.000000
  70
    32
  0
VERTEX
  8
0
  5
105B3
 10
37.5072
 20
20.0810
 30
0.000000
  70
    32
  0
VERTEX
  8
0
  5
105B4
 10
37.5174
 20
20.1092
 30
0.000000
  70
    32
  0
VERTEX
  8
0
  5
105B5
 10
37.5277
 20
20.1375
 30
0.000000
  70
    32
  0
VERTEX
  8
0
  5
105B6
 10
37.5380
 20
20.1657
 30
0.000000
  70
    32
  0
VERTEX
  8
0
  5
105B7
 10
37.5483
 20
20.1939
 30
0.000000
  70
    32
  0
VERTEX
  8
0
  5
105B8
 10
37.5587
 20
20.2221
 30
0.000000
  70
    32
  0
VERTEX
  8
0
  5
105B9
 10
37.5692
 20
20.2503
 30
0.000000
  70
    32
  0
VERTEX
  8
0
  5
105BA
 10
37.5796
 20
20.2785
 30
0.000000
  70
    32
  0
VERTEX
  8
0
  5
105BB
 10
37.5902
 20
20.3066
 30
0.000000
  70
    32
  0
VERTEX
  8
0
  5
105BC
 10
37.6008
 20
20.3347
 30
0.000000
  70
    32
  0
VERTEX
  8
0
  5
105BD
 10
37.6114
 20
20.3628
 30
0.000000
  70
    32
  0
VERTEX
  8
0
  5
105BE
 10
37.6221
 20
20.3909
 30
0.000000
  70
    32
  0
VERTEX
  8
0
  5
105BF
 10
37.6329
 20
20.4190
 30
0.000000
  70
    32
  0
VERTEX
  8
0
  5
105C0
 10
37.6437
 20
20.4470
 30
0.000000
  70
    32
  0
VERTEX
  8
0
  5
105C1
 10
37.6545
 20
20.4750
 30
0.000000
  70
    32
  0
VERTEX
  8
0
  5
105C2
 10
37.6654
 20
20.5030
 30
0.000000
  70
    32
  0
VERTEX
  8
0
  5
105C3
 10
37.6763
 20
20.5310
 30
0.000000
  70
    32
  0
VERTEX
  8
0
  5
105C4
 10
37.6873
 20
20.5590
 30
0.000000
  70
    32
  0
VERTEX
  8
0
  5
105C5
 10
37.6983
 20
20.5870
 30
0.000000
  70
    32
  0
VERTEX
  8
0
  5
105C6
 10
37.7094
 20
20.6149
 30
0.000000
  70
    32
  0
VERTEX
  8
0
  5
105C7
 10
37.7206
 20
20.6428
 30
0.000000
  70
    32
  0
VERTEX
  8
0
  5
105C8
 10
37.7317
 20
20.6707
 30
0.000000
  70
    32
  0
VERTEX
  8
0
  5
105C9
 10
37.7430
 20
20.6986
 30
0.000000
  70
    32
  0
VERTEX
  8
0
  5
105CA
 10
37.7543
 20
20.7264
 30
0.000000
  70
    32
  0
VERTEX
  8
0
  5
105CB
 10
37.7656
 20
20.7542
 30
0.000000
  70
    32
  0
VERTEX
  8
0
  5
105CC
 10
37.7770
 20
20.7820
 30
0.000000
  70
    32
  0
VERTEX
  8
0
  5
105CD
 10
37.7884
 20
20.8098
 30
0.000000
  70
    32
  0
VERTEX
  8
0
  5
105CE
 10
37.7999
 20
20.8376
 30
0.000000
  70
    32
  0
VERTEX
  8
0
  5
105CF
 10
37.8114
 20
20.8654
 30
0.000000
  70
    32
  0
VERTEX
  8
0
  5
105D0
 10
37.8229
 20
20.8931
 30
0.000000
  70
    32
  0
VERTEX
  8
0
  5
105D1
 10
37.8346
 20
20.9208
 30
0.000000
  70
    32
  0
VERTEX
  8
0
  5
105D2
 10
37.8462
 20
20.9485
 30
0.000000
  70
    32
  0
VERTEX
  8
0
  5
105D3
 10
37.8579
 20
20.9762
 30
0.000000
  70
    32
  0
VERTEX
  8
0
  5
105D4
 10
37.8697
 20
21.0038
 30
0.000000
  70
    32
  0
VERTEX
  8
0
  5
105D5
 10
37.8815
 20
21.0315
 30
0.000000
  70
    32
  0
VERTEX
  8
0
  5
105D6
 10
37.8934
 20
21.0591
 30
0.000000
  70
    32
  0
VERTEX
  8
0
  5
105D7
 10
37.9053
 20
21.0867
 30
0.000000
  70
    32
  0
VERTEX
  8
0
  5
105D8
 10
37.9172
 20
21.1142
 30
0.000000
  70
    32
  0
VERTEX
  8
0
  5
105D9
 10
37.9292
 20
21.1418
 30
0.000000
  70
    32
  0
VERTEX
  8
0
  5
105DA
 10
37.9413
 20
21.1693
 30
0.000000
  70
    32
  0
VERTEX
  8
0
  5
105DB
 10
37.9534
 20
21.1968
 30
0.000000
  70
    32
  0
VERTEX
  8
0
  5
105DC
 10
37.9655
 20
21.2243
 30
0.000000
  70
    32
  0
VERTEX
  8
0
  5
105DD
 10
37.9777
 20
21.2518
 30
0.000000
  70
    32
  0
VERTEX
  8
0
  5
105DE
 10
37.9899
 20
21.2792
 30
0.000000
  70
    32
  0
VERTEX
  8
0
  5
105DF
 10
38.0022
 20
21.3066
 30
0.000000
  70
    32
  0
VERTEX
  8
0
  5
105E0
 10
38.0145
 20
21.3340
 30
0.000000
  70
    32
  0
VERTEX
  8
0
  5
105E1
 10
38.0269
 20
21.3614
 30
0.000000
  70
    32
  0
VERTEX
  8
0
  5
105E2
 10
38.0393
 20
21.3888
 30
0.000000
  70
    32
  0
VERTEX
  8
0
  5
105E3
 10
38.0518
 20
21.4161
 30
0.000000
  70
    32
  0
VERTEX
  8
0
  5
105E4
 10
38.0643
 20
21.4434
 30
0.000000
  70
    32
  0
VERTEX
  8
0
  5
105E5
 10
38.0769
 20
21.4707
 30
0.000000
  70
    32
  0
VERTEX
  8
0
  5
105E6
 10
38.0895
 20
21.4980
 30
0.000000
  70
    32
  0
VERTEX
  8
0
  5
105E7
 10
38.1022
 20
21.5253
 30
0.000000
  70
    32
  0
VERTEX
  8
0
  5
105E8
 10
38.1149
 20
21.5525
 30
0.000000
  70
    32
  0
VERTEX
  8
0
  5
105E9
 10
38.1276
 20
21.5797
 30
0.000000
  70
    32
  0
VERTEX
  8
0
  5
105EA
 10
38.1404
 20
21.6069
 30
0.000000
  70
    32
  0
VERTEX
  8
0
  5
105EB
 10
38.1532
 20
21.6341
 30
0.000000
  70
    32
  0
VERTEX
  8
0
  5
105EC
 10
38.1661
 20
21.6612
 30
0.000000
  70
    32
  0
VERTEX
  8
0
  5
105ED
 10
38.1791
 20
21.6883
 30
0.000000
  70
    32
  0
VERTEX
  8
0
  5
105EE
 10
38.1920
 20
21.7154
 30
0.000000
  70
    32
  0
VERTEX
  8
0
  5
105EF
 10
38.2051
 20
21.7425
 30
0.000000
  70
    32
  0
VERTEX
  8
0
  5
105F0
 10
38.2181
 20
21.7696
 30
0.000000
  70
    32
  0
VERTEX
  8
0
  5
105F1
 10
38.2312
 20
21.7966
 30
0.000000
  70
    32
  0
VERTEX
  8
0
  5
105F2
 10
38.2444
 20
21.8236
 30
0.000000
  70
    32
  0
VERTEX
  8
0
  5
105F3
 10
38.2576
 20
21.8506
 30
0.000000
  70
    32
  0
VERTEX
  8
0
  5
105F4
 10
38.2709
 20
21.8776
 30
0.000000
  70
    32
  0
VERTEX
  8
0
  5
105F5
 10
38.2842
 20
21.9045
 30
0.000000
  70
    32
  0
VERTEX
  8
0
  5
105F6
 10
38.2975
 20
21.9315
 30
0.000000
  70
    32
  0
VERTEX
  8
0
  5
105F7
 10
38.3109
 20
21.9584
 30
0.000000
  70
    32
  0
VERTEX
  8
0
  5
105F8
 10
38.3243
 20
21.9853
 30
0.000000
  70
    32
  0
VERTEX
  8
0
  5
105F9
 10
38.3378
 20
22.0121
 30
0.000000
  70
    32
  0
VERTEX
  8
0
  5
105FA
 10
38.3513
 20
22.0390
 30
0.000000
  70
    32
  0
VERTEX
  8
0
  5
105FB
 10
38.3649
 20
22.0658
 30
0.000000
  70
    32
  0
VERTEX
  8
0
  5
105FC
 10
38.3785
 20
22.0926
 30
0.000000
  70
    32
  0
VERTEX
  8
0
  5
105FD
 10
38.3921
 20
22.1193
 30
0.000000
  70
    32
  0
VERTEX
  8
0
  5
105FE
 10
38.4058
 20
22.1461
 30
0.000000
  70
    32
  0
VERTEX
  8
0
  5
105FF
 10
38.4196
 20
22.1728
 30
0.000000
  70
    32
  0
VERTEX
  8
0
  5
10600
 10
38.4334
 20
22.1995
 30
0.000000
  70
    32
  0
VERTEX
  8
0
  5
10601
 10
38.4472
 20
22.2262
 30
0.000000
  70
    32
  0
VERTEX
  8
0
  5
10602
 10
38.4611
 20
22.2528
 30
0.000000
  70
    32
  0
VERTEX
  8
0
  5
10603
 10
38.4750
 20
22.2795
 30
0.000000
  70
    32
  0
VERTEX
  8
0
  5
10604
 10
38.4890
 20
22.3061
 30
0.000000
  70
    32
  0
VERTEX
  8
0
  5
10605
 10
38.5030
 20
22.3327
 30
0.000000
  70
    32
  0
VERTEX
  8
0
  5
10606
 10
38.5170
 20
22.3592
 30
0.000000
  70
    32
  0
VERTEX
  8
0
  5
10607
 10
38.5311
 20
22.3858
 30
0.000000
  70
    32
  0
VERTEX
  8
0
  5
10608
 10
38.5453
 20
22.4123
 30
0.000000
  70
    32
  0
VERTEX
  8
0
  5
10609
 10
38.5595
 20
22.4388
 30
0.000000
  70
    32
  0
VERTEX
  8
0
  5
1060A
 10
38.5737
 20
22.4652
 30
0.000000
  70
    32
  0
VERTEX
  8
0
  5
1060B
 10
38.5880
 20
22.4917
 30
0.000000
  70
    32
  0
VERTEX
  8
0
  5
1060C
 10
38.6023
 20
22.5181
 30
0.000000
  70
    32
  0
VERTEX
  8
0
  5
1060D
 10
38.6167
 20
22.5445
 30
0.000000
  70
    32
  0
VERTEX
  8
0
  5
1060E
 10
38.6311
 20
22.5709
 30
0.000000
  70
    32
  0
VERTEX
  8
0
  5
1060F
 10
38.6455
 20
22.5972
 30
0.000000
  70
    32
  0
VERTEX
  8
0
  5
10610
 10
38.6600
 20
22.6235
 30
0.000000
  70
    32
  0
VERTEX
  8
0
  5
10611
 10
38.6745
 20
22.6498
 30
0.000000
  70
    32
  0
VERTEX
  8
0
  5
10612
 10
38.6891
 20
22.6761
 30
0.000000
  70
    32
  0
VERTEX
  8
0
  5
10613
 10
38.7037
 20
22.7024
 30
0.000000
  70
    32
  0
VERTEX
  8
0
  5
10614
 10
38.7184
 20
22.7286
 30
0.000000
  70
    32
  0
VERTEX
  8
0
  5
10615
 10
38.7331
 20
22.7548
 30
0.000000
  70
    32
  0
VERTEX
  8
0
  5
10616
 10
38.7478
 20
22.7810
 30
0.000000
  70
    32
  0
VERTEX
  8
0
  5
10617
 10
38.7626
 20
22.8071
 30
0.000000
  70
    32
  0
VERTEX
  8
0
  5
10618
 10
38.7775
 20
22.8333
 30
0.000000
  70
    32
  0
VERTEX
  8
0
  5
10619
 10
38.7924
 20
22.8594
 30
0.000000
  70
    32
  0
VERTEX
  8
0
  5
1061A
 10
38.8073
 20
22.8855
 30
0.000000
  70
    32
  0
VERTEX
  8
0
  5
1061B
 10
38.8222
 20
22.9115
 30
0.000000
  70
    32
  0
VERTEX
  8
0
  5
1061C
 10
38.8372
 20
22.9375
 30
0.000000
  70
    32
  0
VERTEX
  8
0
  5
1061D
 10
38.8523
 20
22.9635
 30
0.000000
  70
    32
  0
VERTEX
  8
0
  5
1061E
 10
38.8674
 20
22.9895
 30
0.000000
  70
    32
  0
VERTEX
  8
0
  5
1061F
 10
38.8825
 20
23.0155
 30
0.000000
  70
    32
  0
VERTEX
  8
0
  5
10620
 10
38.8977
 20
23.0414
 30
0.000000
  70
    32
  0
VERTEX
  8
0
  5
10621
 10
38.9129
 20
23.0673
 30
0.000000
  70
    32
  0
VERTEX
  8
0
  5
10622
 10
38.9282
 20
23.0932
 30
0.000000
  70
    32
  0
VERTEX
  8
0
  5
10623
 10
38.9435
 20
23.1190
 30
0.000000
  70
    32
  0
VERTEX
  8
0
  5
10624
 10
38.9588
 20
23.1449
 30
0.000000
  70
    32
  0
VERTEX
  8
0
  5
10625
 10
38.9742
 20
23.1707
 30
0.000000
  70
    32
  0
SEQEND
  8
0
  5
10626
  0
POLYLINE
  8
0
  5
10627
  66
     1
 10
0.000000
 20
0.000000
 30
0.000000
  70
     8
  0
VERTEX
  8
0
  5
10628
 10
38.0000
 20
9.00000
 30
0.000000
  70
    32
  0
VERTEX
  8
0
  5
10629
 10
38.0387
 20
9.02546
 30
0.000000
  70
    32
  0
VERTEX
  8
0
  5
1062A
 10
38.0773
 20
9.05100
 30
0.000000
  70
    32
  0
VERTEX
  8
0
  5
1062B
 10
38.1159
 20
9.07662
 30
0.000000
  70
    32
  0
VERTEX
  8
0
  5
1062C
 10
38.1544
 20
9.10232
 30
0.000000
  70
    32
  0
VERTEX
  8
0
  5
1062D
 10
38.1929
 20
9.12809
 30
0.000000
  70
    32
  0
VERTEX
  8
0
  5
1062E
 10
38.2313
 20
9.15394
 30
0.000000
  70
    32
  0
VERTEX
  8
0
  5
1062F
 10
38.2697
 20
9.17987
 30
0.000000
  70
    32
  0
VERTEX
  8
0
  5
10630
 10
38.3080
 20
9.20588
 30
0.000000
  70
    32
  0
VERTEX
  8
0
  5
10631
 10
38.3463
 20
9.23197
 30
0.000000
  70
    32
  0
VERTEX
  8
0
  5
10632
 10
38.3845
 20
9.25814
 30
0.000000
  70
    32
  0
VERTEX
  8
0
  5
10633
 10
38.4227
 20
9.28438
 30
0.000000
  70
    32
  0
VERTEX
  8
0
  5
10634
 10
38.4608
 20
9.31070
 30
0.000000
  70
    32
  0
VERTEX
  8
0
  5
10635
 10
38.4989
 20
9.33710
 30
0.000000
  70
    32
  0
VERTEX
  8
0
  5
10636
 10
38.5369
 20
9.36358
 30
0.000000
  70
    32
  0
VERTEX
  8
0
  5
10637
 10
38.5749
 20
9.39014
 30
0.000000
  70
    32
  0
VERTEX
  8
0
  5
10638
 10
38.6128
 20
9.41677
 30
0.000000
  70
    32
  0
VERTEX
  8
0
  5
10639
 10
38.6506
 20
9.44348
 30
0.000000
  70
    32
  0
VERTEX
  8
0
  5
1063A
 10
38.6884
 20
9.47027
 30
0.000000
  70
    32
  0
VERTEX
  8
0
  5
1063B
 10
38.7261
 20
9.49714
 30
0.000000
  70
    32
  0
VERTEX
  8
0
  5
1063C
 10
38.7638
 20
9.52408
 30
0.000000
  70
    32
  0
VERTEX
  8
0
  5
1063D
 10
38.8015
 20
9.55110
 30
0.000000
  70
    32
  0
VERTEX
  8
0
  5
1063E
 10
38.8390
 20
9.57820
 30
0.000000
  70
    32
  0
VERTEX
  8
0
  5
1063F
 10
38.8766
 20
9.60538
 30
0.000000
  70
    32
  0
VERTEX
  8
0
  5
10640
 10
38.9140
 20
9.63264
 30
0.000000
  70
    32
  0
VERTEX
  8
0
  5
10641
 10
38.9514
 20
9.65997
 30
0.000000
  70
    32
  0
VERTEX
  8
0
  5
10642
 10
38.9888
 20
9.68738
 30
0.000000
  70
    32
  0
VERTEX
  8
0
  5
10643
 10
39.0261
 20
9.71486
 30
0.000000
  70
    32
  0
VERTEX
  8
0
  5
10644
 10
39.0633
 20
9.74243
 30
0.000000
  70
    32
  0
VERTEX
  8
0
  5
10645
 10
39.1005
 20
9.77007
 30
0.000000
  70
    32
  0
VERTEX
  8
0
  5
10646
 10
39.1376
 20
9.79779
 30
0.000000
  70
    32
  0
VERTEX
  8
0
  5
10647
 10
39.1747
 20
9.82559
 30
0.000000
  70
    32
  0
VERTEX
  8
0
  5
10648
 10
39.2117
 20
9.85346
 30
0.000000
  70
    32
  0
VERTEX
  8
0
  5
10649
 10
39.2487
 20
9.88141
 30
0.000000
  70
    32
  0
VERTEX
  8
0
  5
1064A
 10
39.2856
 20
9.90944
 30
0.000000
  70
    32
  0
VERTEX
  8
0
  5
1064B
 10
39.3224
 20
9.93754
 30
0.000000
  70
    32
  0
VERTEX
  8
0
  5
1064C
 10
39.3592
 20
9.96573
 30
0.000000
  70
    32
  0
VERTEX
  8
0
  5
1064D
 10
39.3959
 20
9.99398
 30
0.000000
  70
    32
  0
VERTEX
  8
0
  5
1064E
 10
39.4326
 20
10.0223
 30
0.000000
  70
    32
  0
VERTEX
  8
0
  5
1064F
 10
39.4692
 20
10.0507
 30
0.000000
  70
    32
  0
VERTEX
  8
0
  5
10650
 10
39.5057
 20
10.0792
 30
0.000000
  70
    32
  0
VERTEX
  8
0
  5
10651
 10
39.5422
 20
10.1078
 30
0.000000
  70
    32
  0
VERTEX
  8
0
  5
10652
 10
39.5786
 20
10.1364
 30
0.000000
  70
    32
  0
VERTEX
  8
0
  5
10653
 10
39.6150
 20
10.1652
 30
0.000000
  70
    32
  0
VERTEX
  8
0
  5
10654
 10
39.6513
 20
10.1939
 30
0.000000
  70
    32
  0
VERTEX
  8
0
  5
10655
 10
39.6875
 20
10.2228
 30
0.000000
  70
    32
  0
VERTEX
  8
0
  5
10656
 10
39.7237
 20
10.2518
 30
0.000000
  70
    32
  0
VERTEX
  8
0
  5
10657
 10
39.7598
 20
10.2808
 30
0.000000
  70
    32
  0
VERTEX
  8
0
  5
10658
 10
39.7959
 20
10.3099
 30
0.000000
  70
    32
  0
VERTEX
  8
0
  5
10659
 10
39.8318
 20
10.3391
 30
0.000000
  70
    32
  0
VERTEX
  8
0
  5
1065A
 10
39.8678
 20
10.3683
 30
0.000000
  70
    32
  0
VERTEX
  8
0
  5
1065B
 10
39.9036
 20
10.3977
 30
0.000000
  70
    32
  0
VERTEX
  8
0
  5
1065C
 10
39.9395
 20
10.4271
 30
0.000000
  70
    32
  0
VERTEX
  8
0
  5
1065D
 10
39.9752
 20
10.4566
 30
0.000000
  70
    32
  0
VERTEX
  8
0
  5
1065E
 10
40.0109
 20
10.4861
 30
0.000000
  70
    32
  0
VERTEX
  8
0
  5
1065F
 10
40.0465
 20
10.5158
 30
0.000000
  70
    32
  0
VERTEX
  8
0
  5
10660
 10
40.0820
 20
10.5455
 30
0.000000
  70
    32
  0
VERTEX
  8
0
  5
10661
 10
40.1175
 20
10.5753
 30
0.000000
  70
    32
  0
VERTEX
  8
0
  5
10662
 10
40.1529
 20
10.6051
 30
0.000000
  70
    32
  0
VERTEX
  8
0
  5
10663
 10
40.1883
 20
10.6351
 30
0.000000
  70
    32
  0
VERTEX
  8
0
  5
10664
 10
40.2236
 20
10.6651
 30
0.000000
  70
    32
  0
VERTEX
  8
0
  5
10665
 10
40.2588
 20
10.6952
 30
0.000000
  70
    32
  0
VERTEX
  8
0
  5
10666
 10
40.2940
 20
10.7254
 30
0.000000
  70
    32
  0
VERTEX
  8
0
  5
10667
 10
40.3291
 20
10.7556
 30
0.000000
  70
    32
  0
VERTEX
  8
0
  5
10668
 10
40.3641
 20
10.7859
 30
0.000000
  70
    32
  0
VERTEX
  8
0
  5
10669
 10
40.3991
 20
10.8163
 30
0.000000
  70
    32
  0
VERTEX
  8
0
  5
1066A
 10
40.4340
 20
10.8468
 30
0.000000
  70
    32
  0
VERTEX
  8
0
  5
1066B
 10
40.4688
 20
10.8774
 30
0.000000
  70
    32
  0
VERTEX
  8
0
  5
1066C
 10
40.5036
 20
10.9080
 30
0.000000
  70
    32
  0
VERTEX
  8
0
  5
1066D
 10
40.5382
 20
10.9387
 30
0.000000
  70
    32
  0
VERTEX
  8
0
  5
1066E
 10
40.5729
 20
10.9695
 30
0.000000
  70
    32
  0
VERTEX
  8
0
  5
1066F
 10
40.6074
 20
11.0004
 30
0.000000
  70
    32
  0
VERTEX
  8
0
  5
10670
 10
40.6419
 20
11.0313
 30
0.000000
  70
    32
  0
VERTEX
  8
0
  5
10671
 10
40.6763
 20
11.0623
 30
0.000000
  70
    32
  0
VERTEX
  8
0
  5
10672
 10
40.7107
 20
11.0934
 30
0.000000
  70
    32
  0
VERTEX
  8
0
  5
10673
 10
40.7450
 20
11.1246
 30
0.000000
  70
    32
  0
VERTEX
  8
0
  5
10674
 10
40.7792
 20
11.1558
 30
0.000000
  70
    32
  0
VERTEX
  8
0
  5
10675
 10
40.8133
 20
11.1871
 30
0.000000
  70
    32
  0
VERTEX
  8
0
  5
10676
 10
40.8474
 20
11.2185
 30
0.000000
  70
    32
  0
VERTEX
  8
0
  5
10677
 10
40.8814
 20
11.2500
 30
0.000000
  70
    32
  0
VERTEX
  8
0
  5
10678
 10
40.9153
 20
11.2815
 30
0.000000
  70
    32
  0
VERTEX
  8
0
  5
10679
 10
40.9492
 20
11.3132
 30
0.000000
  70
    32
  0
VERTEX
  8
0
  5
1067A
 10
40.9830
 20
11.3449
 30
0.000000
  70
    32
  0
VERTEX
  8
0
  5
1067B
 10
41.0167
 20
11.3766
 30
0.000000
  70
    32
  0
VERTEX
  8
0
  5
1067C
 10
41.0503
 20
11.4085
 30
0.000000
  70
    32
  0
VERTEX
  8
0
  5
1067D
 10
41.0839
 20
11.4404
 30
0.000000
  70
    32
  0
VERTEX
  8
0
  5
1067E
 10
41.1174
 20
11.4724
 30
0.000000
  70
    32
  0
VERTEX
  8
0
  5
1067F
 10
41.1508
 20
11.5045
 30
0.000000
  70
    32
  0
VERTEX
  8
0
  5
10680
 10
41.1842
 20
11.5367
 30
0.000000
  70
    32
  0
VERTEX
  8
0
  5
10681
 10
41.2174
 20
11.5689
 30
0.000000
  70
    32
  0
VERTEX
  8
0
  5
10682
 10
41.2506
 20
11.6012
 30
0.000000
  70
    32
  0
VERTEX
  8
0
  5
10683
 10
41.2838
 20
11.6336
 30
0.000000
  70
    32
  0
VERTEX
  8
0
  5
10684
 10
41.3168
 20
11.6660
 30
0.000000
  70
    32
  0
VERTEX
  8
0
  5
10685
 10
41.3498
 20
11.6986
 30
0.000000
  70
    32
  0
VERTEX
  8
0
  5
10686
 10
41.3827
 20
11.7312
 30
0.000000
  70
    32
  0
VERTEX
  8
0
  5
10687
 10
41.4155
 20
11.7639
 30
0.000000
  70
    32
  0
VERTEX
  8
0
  5
10688
 10
41.4483
 20
11.7966
 30
0.000000
  70
    32
  0
VERTEX
  8
0
  5
10689
 10
41.4810
 20
11.8295
 30
0.000000
  70
    32
  0
VERTEX
  8
0
  5
1068A
 10
41.5136
 20
11.8624
 30
0.000000
  70
    32
  0
VERTEX
  8
0
  5
1068B
 10
41.5461
 20
11.8954
 30
0.000000
  70
    32
  0
VERTEX
  8
0
  5
1068C
 10
41.5785
 20
11.9285
 30
0.000000
  70
    32
  0
VERTEX
  8
0
  5
1068D
 10
41.6109
 20
11.9616
 30
0.000000
  70
    32
  0
VERTEX
  8
0
  5
1068E
 10
41.6432
 20
11.9948
 30
0.000000
  70
    32
  0
VERTEX
  8
0
  5
1068F
 10
41.6754
 20
12.0281
 30
0.000000
  70
    32
  0
VERTEX
  8
0
  5
10690
 10
41.7076
 20
12.0615
 30
0.000000
  70
    32
  0
VERTEX
  8
0
  5
10691
 10
41.7396
 20
12.0949
 30
0.000000
  70
    32
  0
VERTEX
  8
0
  5
10692
 10
41.7716
 20
12.1284
 30
0.000000
  70
    32
  0
VERTEX
  8
0
  5
10693
 10
41.8035
 20
12.1620
 30
0.000000
  70
    32
  0
VERTEX
  8
0
  5
10694
 10
41.8354
 20
12.1957
 30
0.000000
  70
    32
  0
VERTEX
  8
0
  5
10695
 10
41.8671
 20
12.2294
 30
0.000000
  70
    32
  0
VERTEX
  8
0
  5
10696
 10
41.8988
 20
12.2632
 30
0.000000
  70
    32
  0
VERTEX
  8
0
  5
10697
 10
41.9304
 20
12.2971
 30
0.000000
  70
    32
  0
VERTEX
  8
0
  5
10698
 10
41.9619
 20
12.3311
 30
0.000000
  70
    32
  0
VERTEX
  8
0
  5
10699
 10
41.9934
 20
12.3651
 30
0.000000
  70
    32
  0
VERTEX
  8
0
  5
1069A
 10
42.0247
 20
12.3992
 30
0.000000
  70
    32
  0
VERTEX
  8
0
  5
1069B
 10
42.0560
 20
12.4334
 30
0.000000
  70
    32
  0
VERTEX
  8
0
  5
1069C
 10
42.0872
 20
12.4676
 30
0.000000
  70
    32
  0
VERTEX
  8
0
  5
1069D
 10
42.1184
 20
12.5020
 30
0.000000
  70
    32
  0
VERTEX
  8
0
  5
1069E
 10
42.1494
 20
12.5364
 30
0.000000
  70
    32
  0
VERTEX
  8
0
  5
1069F
 10
42.1804
 20
12.5708
 30
0.000000
  70
    32
  0
VERTEX
  8
0
  5
106A0
 10
42.2113
 20
12.6054
 30
0.000000
  70
    32
  0
VERTEX
  8
0
  5
106A1
 10
42.2421
 20
12.6400
 30
0.000000
  70
    32
  0
VERTEX
  8
0
  5
106A2
 10
42.2728
 20
12.6746
 30
0.000000
  70
    32
  0
VERTEX
  8
0
  5
106A3
 10
42.3034
 20
12.7094
 30
0.000000
  70
    32
  0
VERTEX
  8
0
  5
106A4
 10
42.3340
 20
12.7442
 30
0.000000
  70
    32
  0
VERTEX
  8
0
  5
106A5
 10
42.3645
 20
12.7791
 30
0.000000
  70
    32
  0
VERTEX
  8
0
  5
106A6
 10
42.3949
 20
12.8141
 30
0.000000
  70
    32
  0
VERTEX
  8
0
  5
106A7
 10
42.4252
 20
12.8491
 30
0.000000
  70
    32
  0
VERTEX
  8
0
  5
106A8
 10
42.4555
 20
12.8842
 30
0.000000
  70
    32
  0
VERTEX
  8
0
  5
106A9
 10
42.4856
 20
12.9194
 30
0.000000
  70
    32
  0
VERTEX
  8
0
  5
106AA
 10
42.5157
 20
12.9546
 30
0.000000
  70
    32
  0
VERTEX
  8
0
  5
106AB
 10
42.5457
 20
12.9899
 30
0.000000
  70
    32
  0
VERTEX
  8
0
  5
106AC
 10
42.5756
 20
13.0253
 30
0.000000
  70
    32
  0
VERTEX
  8
0
  5
106AD
 10
42.6055
 20
13.0607
 30
0.000000
  70
    32
  0
VERTEX
  8
0
  5
106AE
 10
42.6352
 20
13.0962
 30
0.000000
  70
    32
  0
VERTEX
  8
0
  5
106AF
 10
42.6649
 20
13.1318
 30
0.000000
  70
    32
  0
VERTEX
  8
0
  5
106B0
 10
42.6945
 20
13.1675
 30
0.000000
  70
    32
  0
VERTEX
  8
0
  5
106B1
 10
42.7240
 20
13.2032
 30
0.000000
  70
    32
  0
VERTEX
  8
0
  5
106B2
 10
42.7534
 20
13.2390
 30
0.000000
  70
    32
  0
VERTEX
  8
0
  5
106B3
 10
42.7828
 20
13.2748
 30
0.000000
  70
    32
  0
VERTEX
  8
0
  5
106B4
 10
42.8120
 20
13.3108
 30
0.000000
  70
    32
  0
VERTEX
  8
0
  5
106B5
 10
42.8412
 20
13.3468
 30
0.000000
  70
    32
  0
VERTEX
  8
0
  5
106B6
 10
42.8703
 20
13.3828
 30
0.000000
  70
    32
  0
VERTEX
  8
0
  5
106B7
 10
42.8993
 20
13.4189
 30
0.000000
  70
    32
  0
VERTEX
  8
0
  5
106B8
 10
42.9283
 20
13.4551
 30
0.000000
  70
    32
  0
VERTEX
  8
0
  5
106B9
 10
42.9571
 20
13.4914
 30
0.000000
  70
    32
  0
VERTEX
  8
0
  5
106BA
 10
42.9859
 20
13.5277
 30
0.000000
  70
    32
  0
VERTEX
  8
0
  5
106BB
 10
43.0145
 20
13.5641
 30
0.000000
  70
    32
  0
VERTEX
  8
0
  5
106BC
 10
43.0431
 20
13.6006
 30
0.000000
  70
    32
  0
VERTEX
  8
0
  5
106BD
 10
43.0716
 20
13.6371
 30
0.000000
  70
    32
  0
VERTEX
  8
0
  5
106BE
 10
43.1001
 20
13.6737
 30
0.000000
  70
    32
  0
VERTEX
  8
0
  5
106BF
 10
43.1284
 20
13.7103
 30
0.000000
  70
    32
  0
VERTEX
  8
0
  5
106C0
 10
43.1567
 20
13.7470
 30
0.000000
  70
    32
  0
VERTEX
  8
0
  5
106C1
 10
43.1848
 20
13.7838
 30
0.000000
  70
    32
  0
VERTEX
  8
0
  5
106C2
 10
43.2129
 20
13.8207
 30
0.000000
  70
    32
  0
VERTEX
  8
0
  5
106C3
 10
43.2409
 20
13.8576
 30
0.000000
  70
    32
  0
VERTEX
  8
0
  5
106C4
 10
43.2689
 20
13.8945
 30
0.000000
  70
    32
  0
VERTEX
  8
0
  5
106C5
 10
43.2967
 20
13.9316
 30
0.000000
  70
    32
  0
VERTEX
  8
0
  5
106C6
 10
43.3244
 20
13.9687
 30
0.000000
  70
    32
  0
VERTEX
  8
0
  5
106C7
 10
43.3521
 20
14.0058
 30
0.000000
  70
    32
  0
VERTEX
  8
0
  5
106C8
 10
43.3797
 20
14.0431
 30
0.000000
  70
    32
  0
VERTEX
  8
0
  5
106C9
 10
43.4072
 20
14.0803
 30
0.000000
  70
    32
  0
VERTEX
  8
0
  5
106CA
 10
43.4346
 20
14.1177
 30
0.000000
  70
    32
  0
VERTEX
  8
0
  5
106CB
 10
43.4620
 20
14.1551
 30
0.000000
  70
    32
  0
VERTEX
  8
0
  5
106CC
 10
43.4892
 20
14.1926
 30
0.000000
  70
    32
  0
VERTEX
  8
0
  5
106CD
 10
43.5164
 20
14.2301
 30
0.000000
  70
    32
  0
VERTEX
  8
0
  5
106CE
 10
43.5435
 20
14.2677
 30
0.000000
  70
    32
  0
VERTEX
  8
0
  5
106CF
 10
43.5705
 20
14.3053
 30
0.000000
  70
    32
  0
VERTEX
  8
0
  5
106D0
 10
43.5974
 20
14.3430
 30
0.000000
  70
    32
  0
VERTEX
  8
0
  5
106D1
 10
43.6242
 20
14.3808
 30
0.000000
  70
    32
  0
VERTEX
  8
0
  5
106D2
 10
43.6510
 20
14.4186
 30
0.000000
  70
    32
  0
VERTEX
  8
0
  5
106D3
 10
43.6776
 20
14.4565
 30
0.000000
  70
    32
  0
VERTEX
  8
0
  5
106D4
 10
43.7042
 20
14.4945
 30
0.000000
  70
    32
  0
VERTEX
  8
0
  5
106D5
 10
43.7307
 20
14.5325
 30
0.000000
  70
    32
  0
VERTEX
  8
0
  5
106D6
 10
43.7572
 20
14.5705
 30
0.000000
  70
    32
  0
VERTEX
  8
0
  5
106D7
 10
43.7835
 20
14.6086
 30
0.000000
  70
    32
  0
VERTEX
  8
0
  5
106D8
 10
43.8097
 20
14.6468
 30
0.000000
  70
    32
  0
VERTEX
  8
0
  5
106D9
 10
43.8359
 20
14.6851
 30
0.000000
  70
    32
  0
VERTEX
  8
0
  5
106DA
 10
43.8620
 20
14.7233
 30
0.000000
  70
    32
  0
VERTEX
  8
0
  5
106DB
 10
43.8880
 20
14.7617
 30
0.000000
  70
    32
  0
VERTEX
  8
0
  5
106DC
 10
43.9139
 20
14.8001
 30
0.000000
  70
    32
  0
VERTEX
  8
0
  5
106DD
 10
43.9397
 20
14.8386
 30
0.000000
  70
    32
  0
VERTEX
  8
0
  5
106DE
 10
43.9655
 20
14.8771
 30
0.000000
  70
    32
  0
VERTEX
  8
0
  5
106DF
 10
43.9911
 20
14.9157
 30
0.000000
  70
    32
  0
VERTEX
  8
0
  5
106E0
 10
44.0167
 20
14.9543
 30
0.000000
  70
    32
  0
VERTEX
  8
0
  5
106E1
 10
44.0422
 20
14.9930
 30
0.000000
  70
    32
  0
VERTEX
  8
0
  5
106E2
 10
44.0676
 20
15.0317
 30
0.000000
  70
    32
  0
VERTEX
  8
0
  5
106E3
 10
44.0930
 20
15.0705
 30
0.000000
  70
    32
  0
VERTEX
  8
0
  5
106E4
 10
44.1182
 20
15.1093
 30
0.000000
  70
    32
  0
VERTEX
  8
0
  5
106E5
 10
44.1434
 20
15.1482
 30
0.000000
  70
    32
  0
VERTEX
  8
0
  5
106E6
 10
44.1685
 20
15.1872
 30
0.000000
  70
    32
  0
VERTEX
  8
0
  5
106E7
 10
44.1935
 20
15.2262
 30
0.000000
  70
    32
  0
VERTEX
  8
0
  5
106E8
 10
44.2184
 20
15.2653
 30
0.000000
  70
    32
  0
VERTEX
  8
0
  5
106E9
 10
44.2432
 20
15.3044
 30
0.000000
  70
    32
  0
VERTEX
  8
0
  5
106EA
 10
44.2680
 20
15.3435
 30
0.000000
  70
    32
  0
VERTEX
  8
0
  5
106EB
 10
44.2926
 20
15.3828
 30
0.000000
  70
    32
  0
VERTEX
  8
0
  5
106EC
 10
44.3172
 20
15.4220
 30
0.000000
  70
    32
  0
VERTEX
  8
0
  5
106ED
 10
44.3417
 20
15.4613
 30
0.000000
  70
    32
  0
VERTEX
  8
0
  5
106EE
 10
44.3661
 20
15.5007
 30
0.000000
  70
    32
  0
VERTEX
  8
0
  5
106EF
 10
44.3904
 20
15.5401
 30
0.000000
  70
    32
  0
VERTEX
  8
0
  5
106F0
 10
44.4147
 20
15.5796
 30
0.000000
  70
    32
  0
VERTEX
  8
0
  5
106F1
 10
44.4388
 20
15.6191
 30
0.000000
  70
    32
  0
VERTEX
  8
0
  5
106F2
 10
44.4629
 20
15.6587
 30
0.000000
  70
    32
  0
VERTEX
  8
0
  5
106F3
 10
44.4869
 20
15.6984
 30
0.000000
  70
    32
  0
VERTEX
  8
0
  5
106F4
 10
44.5108
 20
15.7380
 30
0.000000
  70
    32
  0
VERTEX
  8
0
  5
106F5
 10
44.5346
 20
15.7778
 30
0.000000
  70
    32
  0
VERTEX
  8
0
  5
106F6
 10
44.5584
 20
15.8175
 30
0.000000
  70
    32
  0
VERTEX
  8
0
  5
106F7
 10
44.5820
 20
15.8574
 30
0.000000
  70
    32
  0
VERTEX
  8
0
  5
106F8
 10
44.6056
 20
15.8973
 30
0.000000
  70
    32
  0
VERTEX
  8
0
  5
106F9
 10
44.6291
 20
15.9372
 30
0.000000
  70
    32
  0
VERTEX
  8
0
  5
106FA
 10
44.6525
 20
15.9772
 30
0.000000
  70
    32
  0
VERTEX
  8
0
  5
106FB
 10
44.6758
 20
16.0172
 30
0.000000
  70
    32
  0
VERTEX
  8
0
  5
106FC
 10
44.6991
 20
16.0573
 30
0.000000
  70
    32
  0
VERTEX
  8
0
  5
106FD
 10
44.7222
 20
16.0974
 30
0.000000
  70
    32
  0
VERTEX
  8
0
  5
106FE
 10
44.7453
 20
16.1376
 30
0.000000
  70
    32
  0
VERTEX
  8
0
  5
106FF
 10
44.7683
 20
16.1778
 30
0.000000
  70
    32
  0
VERTEX
  8
0
  5
10700
 10
44.7912
 20
16.2181
 30
0.000000
  70
    32
  0
VERTEX
  8
0
  5
10701
 10
44.8140
 20
16.2584
 30
0.000000
  70
    32
  0
VERTEX
  8
0
  5
10702
 10
44.8368
 20
16.2987
 30
0.000000
  70
    32
  0
VERTEX
  8
0
  5
10703
 10
44.8594
 20
16.3391
 30
0.000000
  70
    32
  0
VERTEX
  8
0
  5
10704
 10
44.8820
 20
16.3796
 30
0.000000
  70
    32
  0
VERTEX
  8
0
  5
10705
 10
44.9045
 20
16.4201
 30
0.000000
  70
    32
  0
VERTEX
  8
0
  5
10706
 10
44.9269
 20
16.4607
 30
0.000000
  70
    32
  0
VERTEX
  8
0
  5
10707
 10
44.9492
 20
16.5013
 30
0.000000
  70
    32
  0
VERTEX
  8
0
  5
10708
 10
44.9714
 20
16.5419
 30
0.000000
  70
    32
  0
VERTEX
  8
0
  5
10709
 10
44.9935
 20
16.5826
 30
0.000000
  70
    32
  0
VERTEX
  8
0
  5
1070A
 10
45.0156
 20
16.6233
 30
0.000000
  70
    32
  0
VERTEX
  8
0
  5
1070B
 10
45.0376
 20
16.6641
 30
0.000000
  70
    32
  0
VERTEX
  8
0
  5
1070C
 10
45.0595
 20
16.7050
 30
0.000000
  70
    32
  0
VERTEX
  8
0
  5
1070D
 10
45.0813
 20
16.7458
 30
0.000000
  70
    32
  0
VERTEX
  8
0
  5
1070E
 10
45.1030
 20
16.7868
 30
0.000000
  70
    32
  0
VERTEX
  8
0
  5
1070F
 10
45.1247
 20
16.8277
 30
0.000000
  70
    32
  0
VERTEX
  8
0
  5
10710
 10
45.1462
 20
16.8687
 30
0.000000
  70
    32
  0
VERTEX
  8
0
  5
10711
 10
45.1677
 20
16.9098
 30
0.000000
  70
    32
  0
VERTEX
  8
0
  5
10712
 10
45.1891
 20
16.9509
 30
0.000000
  70
    32
  0
VERTEX
  8
0
  5
10713
 10
45.2104
 20
16.9920
 30
0.000000
  70
    32
  0
VERTEX
  8
0
  5
10714
 10
45.2316
 20
17.0332
 30
0.000000
  70
    32
  0
VERTEX
  8
0
  5
10715
 10
45.2527
 20
17.0744
 30
0.000000
  70
    32
  0
VERTEX
  8
0
  5
10716
 10
45.2738
 20
17.1157
 30
0.000000
  70
    32
  0
VERTEX
  8
0
  5
10717
 10
45.2947
 20
17.1570
 30
0.000000
  70
    32
  0
VERTEX
  8
0
  5
10718
 10
45.3156
 20
17.1984
 30
0.000000
  70
    32
  0
VERTEX
  8
0
  5
10719
 10
45.3364
 20
17.2398
 30
0.000000
  70
    32
  0
VERTEX
  8
0
  5
1071A
 10
45.3571
 20
17.2812
 30
0.000000
  70
    32
  0
VERTEX
  8
0
  5
1071B
 10
45.3778
 20
17.3227
 30
0.000000
  70
    32
  0
VERTEX
  8
0
  5
1071C
 10
45.3983
 20
17.3643
 30
0.000000
  70
    32
  0
VERTEX
  8
0
  5
1071D
 10
45.4188
 20
17.4058
 30
0.000000
  70
    32
  0
VERTEX
  8
0
  5
1071E
 10
45.4391
 20
17.4474
 30
0.000000
  70
    32
  0
VERTEX
  8
0
  5
1071F
 10
45.4594
 20
17.4891
 30
0.000000
  70
    32
  0
VERTEX
  8
0
  5
10720
 10
45.4796
 20
17.5308
 30
0.000000
  70
    32
  0
VERTEX
  8
0
  5
10721
 10
45.4997
 20
17.5725
 30
0.000000
  70
    32
  0
VERTEX
  8
0
  5
10722
 10
45.5198
 20
17.6143
 30
0.000000
  70
    32
  0
VERTEX
  8
0
  5
10723
 10
45.5397
 20
17.6561
 30
0.000000
  70
    32
  0
VERTEX
  8
0
  5
10724
 10
45.5596
 20
17.6980
 30
0.000000
  70
    32
  0
VERTEX
  8
0
  5
10725
 10
45.5793
 20
17.7399
 30
0.000000
  70
    32
  0
VERTEX
  8
0
  5
10726
 10
45.5990
 20
17.7818
 30
0.000000
  70
    32
  0
VERTEX
  8
0
  5
10727
 10
45.6186
 20
17.8238
 30
0.000000
  70
    32
  0
VERTEX
  8
0
  5
10728
 10
45.6382
 20
17.8658
 30
0.000000
  70
    32
  0
VERTEX
  8
0
  5
10729
 10
45.6576
 20
17.9079
 30
0.000000
  70
    32
  0
VERTEX
  8
0
  5
1072A
 10
45.6769
 20
17.9500
 30
0.000000
  70
    32
  0
VERTEX
  8
0
  5
1072B
 10
45.6962
 20
17.9921
 30
0.000000
  70
    32
  0
VERTEX
  8
0
  5
1072C
 10
45.7154
 20
18.0343
 30
0.000000
  70
    32
  0
VERTEX
  8
0
  5
1072D
 10
45.7345
 20
18.0765
 30
0.000000
  70
    32
  0
VERTEX
  8
0
  5
1072E
 10
45.7535
 20
18.1188
 30
0.000000
  70
    32
  0
VERTEX
  8
0
  5
1072F
 10
45.7724
 20
18.1611
 30
0.000000
  70
    32
  0
VERTEX
  8
0
  5
10730
 10
45.7913
 20
18.2034
 30
0.000000
  70
    32
  0
VERTEX
  8
0
  5
10731
 10
45.8100
 20
18.2458
 30
0.000000
  70
    32
  0
VERTEX
  8
0
  5
10732
 10
45.8287
 20
18.2882
 30
0.000000
  70
    32
  0
VERTEX
  8
0
  5
10733
 10
45.8472
 20
18.3306
 30
0.000000
  70
    32
  0
VERTEX
  8
0
  5
10734
 10
45.8657
 20
18.3731
 30
0.000000
  70
    32
  0
VERTEX
  8
0
  5
10735
 10
45.8841
 20
18.4156
 30
0.000000
  70
    32
  0
VERTEX
  8
0
  5
10736
 10
45.9025
 20
18.4581
 30
0.000000
  70
    32
  0
VERTEX
  8
0
  5
10737
 10
45.9207
 20
18.5007
 30
0.000000
  70
    32
  0
VERTEX
  8
0
  5
10738
 10
45.9388
 20
18.5434
 30
0.000000
  70
    32
  0
VERTEX
  8
0
  5
10739
 10
45.9569
 20
18.5860
 30
0.000000
  70
    32
  0
VERTEX
  8
0
  5
1073A
 10
45.9749
 20
18.6287
 30
0.000000
  70
    32
  0
VERTEX
  8
0
  5
1073B
 10
45.9928
 20
18.6714
 30
0.000000
  70
    32
  0
VERTEX
  8
0
  5
1073C
 10
46.0106
 20
18.7142
 30
0.000000
  70
    32
  0
VERTEX
  8
0
  5
1073D
 10
46.0283
 20
18.7570
 30
0.000000
  70
    32
  0
VERTEX
  8
0
  5
1073E
 10
46.0459
 20
18.7998
 30
0.000000
  70
    32
  0
VERTEX
  8
0
  5
1073F
 10
46.0635
 20
18.8427
 30
0.000000
  70
    32
  0
VERTEX
  8
0
  5
10740
 10
46.0809
 20
18.8856
 30
0.000000
  70
    32
  0
VERTEX
  8
0
  5
10741
 10
46.0983
 20
18.9285
 30
0.000000
  70
    32
  0
VERTEX
  8
0
  5
10742
 10
46.1156
 20
18.9715
 30
0.000000
  70
    32
  0
VERTEX
  8
0
  5
10743
 10
46.1328
 20
19.0145
 30
0.000000
  70
    32
  0
VERTEX
  8
0
  5
10744
 10
46.1499
 20
19.0575
 30
0.000000
  70
    32
  0
VERTEX
  8
0
  5
10745
 10
46.1669
 20
19.1006
 30
0.000000
  70
    32
  0
VERTEX
  8
0
  5
10746
 10
46.1839
 20
19.1437
 30
0.000000
  70
    32
  0
VERTEX
  8
0
  5
10747
 10
46.2007
 20
19.1868
 30
0.000000
  70
    32
  0
SEQEND
  8
0
  5
10748
  0
LINE
  5
F7E1
  8
0
 10
25.499955999999649
 20
15.000019999999941
 30
0.0
 11
23.999954999999311
 21
9.0000199999999495
 31
0.0
  0
LINE
  5
F7E2
  8
0
 10
21.671027000000318
 20
23.52635000000009
 30
0.0
 11
16.23433300000033
 21
20.419669999999989
 31
0.0
  0
LINE
  5
F7E3
  8
0
 10
27.0
 20
24.22545000000013
 30
0.0
 11
27.0
 21
15.0
 31
0.0
  0
LINE
  5
F7E4
  8
0
 10
27.0
 20
6.0
 30
0.0
 11
27.0
 21
5.0
 31
0.0
  0
LINE
  5
F7E5
  8
0
 10
27.999964000000539
 20
25.225490000000029
 30
0.0
 11
26.9999630000002
 21
24.225490000000029
 31
0.0
  0
ARC
  5
F7E6
  8
0
 10
22.1674810000004
 20
22.657570000000071
 30
0.0
 40
1.0
 50
30.852850000001808
 51
119.7448839999871
  0
ARC
  5
F7E7
  8
0
 10
16.730461000000101
 20
19.55146000000013
 30
0.0
 40
1.0
 50
119.7448839999871
 51
201.27633999998571
  0
POLYLINE
  8
0
  5
10749
  66
     1
 10
0.000000
 20
0.000000
 30
0.000000
  70
     8
  0
VERTEX
  8
0
  5
1074A
 10
25.5000
 20
15.0000
 30
0.000000
  70
    32
  0
VERTEX
  8
0
  5
1074B
 10
25.4984
 20
15.0300
 30
0.000000
  70
    32
  0
VERTEX
  8
0
  5
1074C
 10
25.4968
 20
15.0600
 30
0.000000
  70
    32
  0
VERTEX
  8
0
  5
1074D
 10
25.4951
 20
15.0900
 30
0.000000
  70
    32
  0
VERTEX
  8
0
  5
1074E
 10
25.4934
 20
15.1200
 30
0.000000
  70
    32
  0
VERTEX
  8
0
  5
1074F
 10
25.4916
 20
15.1500
 30
0.000000
  70
    32
  0
VERTEX
  8
0
  5
10750
 10
25.4898
 20
15.1800
 30
0.000000
  70
    32
  0
VERTEX
  8
0
  5
10751
 10
25.4879
 20
15.2100
 30
0.000000
  70
    32
  0
VERTEX
  8
0
  5
10752
 10
25.4860
 20
15.2399
 30
0.000000
  70
    32
  0
VERTEX
  8
0
  5
10753
 10
25.4840
 20
15.2699
 30
0.000000
  70
    32
  0
VERTEX
  8
0
  5
10754
 10
25.4820
 20
15.2999
 30
0.000000
  70
    32
  0
VERTEX
  8
0
  5
10755
 10
25.4800
 20
15.3299
 30
0.000000
  70
    32
  0
VERTEX
  8
0
  5
10756
 10
25.4779
 20
15.3598
 30
0.000000
  70
    32
  0
VERTEX
  8
0
  5
10757
 10
25.4757
 20
15.3898
 30
0.000000
  70
    32
  0
VERTEX
  8
0
  5
10758
 10
25.4735
 20
15.4198
 30
0.000000
  70
    32
  0
VERTEX
  8
0
  5
10759
 10
25.4712
 20
15.4497
 30
0.000000
  70
    32
  0
VERTEX
  8
0
  5
1075A
 10
25.4689
 20
15.4797
 30
0.000000
  70
    32
  0
VERTEX
  8
0
  5
1075B
 10
25.4666
 20
15.5096
 30
0.000000
  70
    32
  0
VERTEX
  8
0
  5
1075C
 10
25.4642
 20
15.5396
 30
0.000000
  70
    32
  0
VERTEX
  8
0
  5
1075D
 10
25.4617
 20
15.5695
 30
0.000000
  70
    32
  0
VERTEX
  8
0
  5
1075E
 10
25.4592
 20
15.5995
 30
0.000000
  70
    32
  0
VERTEX
  8
0
  5
1075F
 10
25.4567
 20
15.6294
 30
0.000000
  70
    32
  0
VERTEX
  8
0
  5
10760
 10
25.4541
 20
15.6594
 30
0.000000
  70
    32
  0
VERTEX
  8
0
  5
10761
 10
25.4514
 20
15.6893
 30
0.000000
  70
    32
  0
VERTEX
  8
0
  5
10762
 10
25.4487
 20
15.7192
 30
0.000000
  70
    32
  0
VERTEX
  8
0
  5
10763
 10
25.4460
 20
15.7492
 30
0.000000
  70
    32
  0
VERTEX
  8
0
  5
10764
 10
25.4432
 20
15.7791
 30
0.000000
  70
    32
  0
VERTEX
  8
0
  5
10765
 10
25.4403
 20
15.8090
 30
0.000000
  70
    32
  0
VERTEX
  8
0
  5
10766
 10
25.4375
 20
15.8389
 30
0.000000
  70
    32
  0
VERTEX
  8
0
  5
10767
 10
25.4345
 20
15.8688
 30
0.000000
  70
    32
  0
VERTEX
  8
0
  5
10768
 10
25.4315
 20
15.8987
 30
0.000000
  70
    32
  0
VERTEX
  8
0
  5
10769
 10
25.4285
 20
15.9286
 30
0.000000
  70
    32
  0
VERTEX
  8
0
  5
1076A
 10
25.4254
 20
15.9585
 30
0.000000
  70
    32
  0
VERTEX
  8
0
  5
1076B
 10
25.4223
 20
15.9884
 30
0.000000
  70
    32
  0
VERTEX
  8
0
  5
1076C
 10
25.4191
 20
16.0183
 30
0.000000
  70
    32
  0
VERTEX
  8
0
  5
1076D
 10
25.4158
 20
16.0481
 30
0.000000
  70
    32
  0
VERTEX
  8
0
  5
1076E
 10
25.4126
 20
16.0780
 30
0.000000
  70
    32
  0
VERTEX
  8
0
  5
1076F
 10
25.4092
 20
16.1079
 30
0.000000
  70
    32
  0
VERTEX
  8
0
  5
10770
 10
25.4059
 20
16.1377
 30
0.000000
  70
    32
  0
VERTEX
  8
0
  5
10771
 10
25.4024
 20
16.1676
 30
0.000000
  70
    32
  0
VERTEX
  8
0
  5
10772
 10
25.3990
 20
16.1974
 30
0.000000
  70
    32
  0
VERTEX
  8
0
  5
10773
 10
25.3954
 20
16.2273
 30
0.000000
  70
    32
  0
VERTEX
  8
0
  5
10774
 10
25.3919
 20
16.2571
 30
0.000000
  70
    32
  0
VERTEX
  8
0
  5
10775
 10
25.3882
 20
16.2870
 30
0.000000
  70
    32
  0
VERTEX
  8
0
  5
10776
 10
25.3846
 20
16.3168
 30
0.000000
  70
    32
  0
VERTEX
  8
0
  5
10777
 10
25.3808
 20
16.3466
 30
0.000000
  70
    32
  0
VERTEX
  8
0
  5
10778
 10
25.3771
 20
16.3764
 30
0.000000
  70
    32
  0
VERTEX
  8
0
  5
10779
 10
25.3732
 20
16.4062
 30
0.000000
  70
    32
  0
VERTEX
  8
0
  5
1077A
 10
25.3694
 20
16.4360
 30
0.000000
  70
    32
  0
VERTEX
  8
0
  5
1077B
 10
25.3655
 20
16.4658
 30
0.000000
  70
    32
  0
VERTEX
  8
0
  5
1077C
 10
25.3615
 20
16.4956
 30
0.000000
  70
    32
  0
VERTEX
  8
0
  5
1077D
 10
25.3575
 20
16.5254
 30
0.000000
  70
    32
  0
VERTEX
  8
0
  5
1077E
 10
25.3534
 20
16.5552
 30
0.000000
  70
    32
  0
VERTEX
  8
0
  5
1077F
 10
25.3493
 20
16.5849
 30
0.000000
  70
    32
  0
VERTEX
  8
0
  5
10780
 10
25.3451
 20
16.6147
 30
0.000000
  70
    32
  0
VERTEX
  8
0
  5
10781
 10
25.3409
 20
16.6444
 30
0.000000
  70
    32
  0
VERTEX
  8
0
  5
10782
 10
25.3367
 20
16.6742
 30
0.000000
  70
    32
  0
VERTEX
  8
0
  5
10783
 10
25.3323
 20
16.7039
 30
0.000000
  70
    32
  0
VERTEX
  8
0
  5
10784
 10
25.3280
 20
16.7337
 30
0.000000
  70
    32
  0
VERTEX
  8
0
  5
10785
 10
25.3236
 20
16.7634
 30
0.000000
  70
    32
  0
VERTEX
  8
0
  5
10786
 10
25.3191
 20
16.7931
 30
0.000000
  70
    32
  0
VERTEX
  8
0
  5
10787
 10
25.3146
 20
16.8228
 30
0.000000
  70
    32
  0
VERTEX
  8
0
  5
10788
 10
25.3100
 20
16.8525
 30
0.000000
  70
    32
  0
VERTEX
  8
0
  5
10789
 10
25.3054
 20
16.8822
 30
0.000000
  70
    32
  0
VERTEX
  8
0
  5
1078A
 10
25.3008
 20
16.9119
 30
0.000000
  70
    32
  0
VERTEX
  8
0
  5
1078B
 10
25.2961
 20
16.9416
 30
0.000000
  70
    32
  0
VERTEX
  8
0
  5
1078C
 10
25.2913
 20
16.9712
 30
0.000000
  70
    32
  0
VERTEX
  8
0
  5
1078D
 10
25.2865
 20
17.0009
 30
0.000000
  70
    32
  0
VERTEX
  8
0
  5
1078E
 10
25.2817
 20
17.0305
 30
0.000000
  70
    32
  0
VERTEX
  8
0
  5
1078F
 10
25.2768
 20
17.0602
 30
0.000000
  70
    32
  0
VERTEX
  8
0
  5
10790
 10
25.2718
 20
17.0898
 30
0.000000
  70
    32
  0
VERTEX
  8
0
  5
10791
 10
25.2668
 20
17.1195
 30
0.000000
  70
    32
  0
VERTEX
  8
0
  5
10792
 10
25.2618
 20
17.1491
 30
0.000000
  70
    32
  0
VERTEX
  8
0
  5
10793
 10
25.2566
 20
17.1787
 30
0.000000
  70
    32
  0
VERTEX
  8
0
  5
10794
 10
25.2515
 20
17.2083
 30
0.000000
  70
    32
  0
VERTEX
  8
0
  5
10795
 10
25.2463
 20
17.2379
 30
0.000000
  70
    32
  0
VERTEX
  8
0
  5
10796
 10
25.2410
 20
17.2675
 30
0.000000
  70
    32
  0
VERTEX
  8
0
  5
10797
 10
25.2357
 20
17.2971
 30
0.000000
  70
    32
  0
VERTEX
  8
0
  5
10798
 10
25.2304
 20
17.3266
 30
0.000000
  70
    32
  0
VERTEX
  8
0
  5
10799
 10
25.2250
 20
17.3562
 30
0.000000
  70
    32
  0
VERTEX
  8
0
  5
1079A
 10
25.2196
 20
17.3857
 30
0.000000
  70
    32
  0
VERTEX
  8
0
  5
1079B
 10
25.2141
 20
17.4153
 30
0.000000
  70
    32
  0
VERTEX
  8
0
  5
1079C
 10
25.2085
 20
17.4448
 30
0.000000
  70
    32
  0
VERTEX
  8
0
  5
1079D
 10
25.2029
 20
17.4743
 30
0.000000
  70
    32
  0
VERTEX
  8
0
  5
1079E
 10
25.1973
 20
17.5038
 30
0.000000
  70
    32
  0
VERTEX
  8
0
  5
1079F
 10
25.1916
 20
17.5333
 30
0.000000
  70
    32
  0
VERTEX
  8
0
  5
107A0
 10
25.1858
 20
17.5628
 30
0.000000
  70
    32
  0
VERTEX
  8
0
  5
107A1
 10
25.1800
 20
17.5923
 30
0.000000
  70
    32
  0
VERTEX
  8
0
  5
107A2
 10
25.1742
 20
17.6218
 30
0.000000
  70
    32
  0
VERTEX
  8
0
  5
107A3
 10
25.1683
 20
17.6513
 30
0.000000
  70
    32
  0
VERTEX
  8
0
  5
107A4
 10
25.1623
 20
17.6807
 30
0.000000
  70
    32
  0
VERTEX
  8
0
  5
107A5
 10
25.1563
 20
17.7102
 30
0.000000
  70
    32
  0
VERTEX
  8
0
  5
107A6
 10
25.1503
 20
17.7396
 30
0.000000
  70
    32
  0
VERTEX
  8
0
  5
107A7
 10
25.1442
 20
17.7690
 30
0.000000
  70
    32
  0
VERTEX
  8
0
  5
107A8
 10
25.1381
 20
17.7984
 30
0.000000
  70
    32
  0
VERTEX
  8
0
  5
107A9
 10
25.1319
 20
17.8278
 30
0.000000
  70
    32
  0
VERTEX
  8
0
  5
107AA
 10
25.1256
 20
17.8572
 30
0.000000
  70
    32
  0
VERTEX
  8
0
  5
107AB
 10
25.1193
 20
17.8866
 30
0.000000
  70
    32
  0
VERTEX
  8
0
  5
107AC
 10
25.1130
 20
17.9160
 30
0.000000
  70
    32
  0
VERTEX
  8
0
  5
107AD
 10
25.1066
 20
17.9453
 30
0.000000
  70
    32
  0
VERTEX
  8
0
  5
107AE
 10
25.1001
 20
17.9747
 30
0.000000
  70
    32
  0
VERTEX
  8
0
  5
107AF
 10
25.0936
 20
18.0040
 30
0.000000
  70
    32
  0
VERTEX
  8
0
  5
107B0
 10
25.0871
 20
18.0334
 30
0.000000
  70
    32
  0
VERTEX
  8
0
  5
107B1
 10
25.0805
 20
18.0627
 30
0.000000
  70
    32
  0
VERTEX
  8
0
  5
107B2
 10
25.0739
 20
18.0920
 30
0.000000
  70
    32
  0
VERTEX
  8
0
  5
107B3
 10
25.0672
 20
18.1213
 30
0.000000
  70
    32
  0
VERTEX
  8
0
  5
107B4
 10
25.0604
 20
18.1506
 30
0.000000
  70
    32
  0
VERTEX
  8
0
  5
107B5
 10
25.0536
 20
18.1798
 30
0.000000
  70
    32
  0
VERTEX
  8
0
  5
107B6
 10
25.0468
 20
18.2091
 30
0.000000
  70
    32
  0
VERTEX
  8
0
  5
107B7
 10
25.0399
 20
18.2383
 30
0.000000
  70
    32
  0
VERTEX
  8
0
  5
107B8
 10
25.0329
 20
18.2676
 30
0.000000
  70
    32
  0
VERTEX
  8
0
  5
107B9
 10
25.0259
 20
18.2968
 30
0.000000
  70
    32
  0
VERTEX
  8
0
  5
107BA
 10
25.0189
 20
18.3260
 30
0.000000
  70
    32
  0
VERTEX
  8
0
  5
107BB
 10
25.0118
 20
18.3552
 30
0.000000
  70
    32
  0
VERTEX
  8
0
  5
107BC
 10
25.0046
 20
18.3844
 30
0.000000
  70
    32
  0
VERTEX
  8
0
  5
107BD
 10
24.9974
 20
18.4136
 30
0.000000
  70
    32
  0
VERTEX
  8
0
  5
107BE
 10
24.9902
 20
18.4427
 30
0.000000
  70
    32
  0
VERTEX
  8
0
  5
107BF
 10
24.9829
 20
18.4719
 30
0.000000
  70
    32
  0
VERTEX
  8
0
  5
107C0
 10
24.9755
 20
18.5010
 30
0.000000
  70
    32
  0
VERTEX
  8
0
  5
107C1
 10
24.9681
 20
18.5301
 30
0.000000
  70
    32
  0
VERTEX
  8
0
  5
107C2
 10
24.9607
 20
18.5592
 30
0.000000
  70
    32
  0
VERTEX
  8
0
  5
107C3
 10
24.9532
 20
18.5883
 30
0.000000
  70
    32
  0
VERTEX
  8
0
  5
107C4
 10
24.9456
 20
18.6174
 30
0.000000
  70
    32
  0
VERTEX
  8
0
  5
107C5
 10
24.9380
 20
18.6465
 30
0.000000
  70
    32
  0
VERTEX
  8
0
  5
107C6
 10
24.9304
 20
18.6756
 30
0.000000
  70
    32
  0
VERTEX
  8
0
  5
107C7
 10
24.9227
 20
18.7046
 30
0.000000
  70
    32
  0
VERTEX
  8
0
  5
107C8
 10
24.9149
 20
18.7336
 30
0.000000
  70
    32
  0
VERTEX
  8
0
  5
107C9
 10
24.9071
 20
18.7627
 30
0.000000
  70
    32
  0
VERTEX
  8
0
  5
107CA
 10
24.8992
 20
18.7917
 30
0.000000
  70
    32
  0
VERTEX
  8
0
  5
107CB
 10
24.8913
 20
18.8206
 30
0.000000
  70
    32
  0
VERTEX
  8
0
  5
107CC
 10
24.8834
 20
18.8496
 30
0.000000
  70
    32
  0
VERTEX
  8
0
  5
107CD
 10
24.8754
 20
18.8786
 30
0.000000
  70
    32
  0
VERTEX
  8
0
  5
107CE
 10
24.8673
 20
18.9075
 30
0.000000
  70
    32
  0
VERTEX
  8
0
  5
107CF
 10
24.8592
 20
18.9365
 30
0.000000
  70
    32
  0
VERTEX
  8
0
  5
107D0
 10
24.8510
 20
18.9654
 30
0.000000
  70
    32
  0
VERTEX
  8
0
  5
107D1
 10
24.8428
 20
18.9943
 30
0.000000
  70
    32
  0
VERTEX
  8
0
  5
107D2
 10
24.8345
 20
19.0232
 30
0.000000
  70
    32
  0
VERTEX
  8
0
  5
107D3
 10
24.8262
 20
19.0521
 30
0.000000
  70
    32
  0
VERTEX
  8
0
  5
107D4
 10
24.8178
 20
19.0809
 30
0.000000
  70
    32
  0
VERTEX
  8
0
  5
107D5
 10
24.8094
 20
19.1098
 30
0.000000
  70
    32
  0
VERTEX
  8
0
  5
107D6
 10
24.8010
 20
19.1386
 30
0.000000
  70
    32
  0
VERTEX
  8
0
  5
107D7
 10
24.7924
 20
19.1674
 30
0.000000
  70
    32
  0
VERTEX
  8
0
  5
107D8
 10
24.7839
 20
19.1962
 30
0.000000
  70
    32
  0
VERTEX
  8
0
  5
107D9
 10
24.7752
 20
19.2250
 30
0.000000
  70
    32
  0
VERTEX
  8
0
  5
107DA
 10
24.7666
 20
19.2538
 30
0.000000
  70
    32
  0
VERTEX
  8
0
  5
107DB
 10
24.7578
 20
19.2825
 30
0.000000
  70
    32
  0
VERTEX
  8
0
  5
107DC
 10
24.7490
 20
19.3112
 30
0.000000
  70
    32
  0
VERTEX
  8
0
  5
107DD
 10
24.7402
 20
19.3400
 30
0.000000
  70
    32
  0
VERTEX
  8
0
  5
107DE
 10
24.7313
 20
19.3687
 30
0.000000
  70
    32
  0
VERTEX
  8
0
  5
107DF
 10
24.7224
 20
19.3974
 30
0.000000
  70
    32
  0
VERTEX
  8
0
  5
107E0
 10
24.7134
 20
19.4260
 30
0.000000
  70
    32
  0
VERTEX
  8
0
  5
107E1
 10
24.7044
 20
19.4547
 30
0.000000
  70
    32
  0
VERTEX
  8
0
  5
107E2
 10
24.6953
 20
19.4833
 30
0.000000
  70
    32
  0
VERTEX
  8
0
  5
107E3
 10
24.6862
 20
19.5120
 30
0.000000
  70
    32
  0
VERTEX
  8
0
  5
107E4
 10
24.6770
 20
19.5406
 30
0.000000
  70
    32
  0
VERTEX
  8
0
  5
107E5
 10
24.6677
 20
19.5692
 30
0.000000
  70
    32
  0
VERTEX
  8
0
  5
107E6
 10
24.6584
 20
19.5978
 30
0.000000
  70
    32
  0
VERTEX
  8
0
  5
107E7
 10
24.6491
 20
19.6263
 30
0.000000
  70
    32
  0
VERTEX
  8
0
  5
107E8
 10
24.6397
 20
19.6549
 30
0.000000
  70
    32
  0
VERTEX
  8
0
  5
107E9
 10
24.6303
 20
19.6834
 30
0.000000
  70
    32
  0
VERTEX
  8
0
  5
107EA
 10
24.6208
 20
19.7119
 30
0.000000
  70
    32
  0
VERTEX
  8
0
  5
107EB
 10
24.6112
 20
19.7404
 30
0.000000
  70
    32
  0
VERTEX
  8
0
  5
107EC
 10
24.6016
 20
19.7689
 30
0.000000
  70
    32
  0
VERTEX
  8
0
  5
107ED
 10
24.5920
 20
19.7973
 30
0.000000
  70
    32
  0
VERTEX
  8
0
  5
107EE
 10
24.5823
 20
19.8258
 30
0.000000
  70
    32
  0
VERTEX
  8
0
  5
107EF
 10
24.5725
 20
19.8542
 30
0.000000
  70
    32
  0
VERTEX
  8
0
  5
107F0
 10
24.5627
 20
19.8826
 30
0.000000
  70
    32
  0
VERTEX
  8
0
  5
107F1
 10
24.5529
 20
19.9110
 30
0.000000
  70
    32
  0
VERTEX
  8
0
  5
107F2
 10
24.5430
 20
19.9394
 30
0.000000
  70
    32
  0
VERTEX
  8
0
  5
107F3
 10
24.5331
 20
19.9677
 30
0.000000
  70
    32
  0
VERTEX
  8
0
  5
107F4
 10
24.5231
 20
19.9961
 30
0.000000
  70
    32
  0
VERTEX
  8
0
  5
107F5
 10
24.5130
 20
20.0244
 30
0.000000
  70
    32
  0
VERTEX
  8
0
  5
107F6
 10
24.5029
 20
20.0527
 30
0.000000
  70
    32
  0
VERTEX
  8
0
  5
107F7
 10
24.4928
 20
20.0810
 30
0.000000
  70
    32
  0
VERTEX
  8
0
  5
107F8
 10
24.4826
 20
20.1092
 30
0.000000
  70
    32
  0
VERTEX
  8
0
  5
107F9
 10
24.4723
 20
20.1375
 30
0.000000
  70
    32
  0
VERTEX
  8
0
  5
107FA
 10
24.4620
 20
20.1657
 30
0.000000
  70
    32
  0
VERTEX
  8
0
  5
107FB
 10
24.4517
 20
20.1939
 30
0.000000
  70
    32
  0
VERTEX
  8
0
  5
107FC
 10
24.4413
 20
20.2221
 30
0.000000
  70
    32
  0
VERTEX
  8
0
  5
107FD
 10
24.4308
 20
20.2503
 30
0.000000
  70
    32
  0
VERTEX
  8
0
  5
107FE
 10
24.4204
 20
20.2785
 30
0.000000
  70
    32
  0
VERTEX
  8
0
  5
107FF
 10
24.4098
 20
20.3066
 30
0.000000
  70
    32
  0
VERTEX
  8
0
  5
10800
 10
24.3992
 20
20.3347
 30
0.000000
  70
    32
  0
VERTEX
  8
0
  5
10801
 10
24.3886
 20
20.3628
 30
0.000000
  70
    32
  0
VERTEX
  8
0
  5
10802
 10
24.3779
 20
20.3909
 30
0.000000
  70
    32
  0
VERTEX
  8
0
  5
10803
 10
24.3671
 20
20.4190
 30
0.000000
  70
    32
  0
VERTEX
  8
0
  5
10804
 10
24.3563
 20
20.4470
 30
0.000000
  70
    32
  0
VERTEX
  8
0
  5
10805
 10
24.3455
 20
20.4750
 30
0.000000
  70
    32
  0
VERTEX
  8
0
  5
10806
 10
24.3346
 20
20.5030
 30
0.000000
  70
    32
  0
VERTEX
  8
0
  5
10807
 10
24.3237
 20
20.5310
 30
0.000000
  70
    32
  0
VERTEX
  8
0
  5
10808
 10
24.3127
 20
20.5590
 30
0.000000
  70
    32
  0
VERTEX
  8
0
  5
10809
 10
24.3017
 20
20.5870
 30
0.000000
  70
    32
  0
VERTEX
  8
0
  5
1080A
 10
24.2906
 20
20.6149
 30
0.000000
  70
    32
  0
VERTEX
  8
0
  5
1080B
 10
24.2794
 20
20.6428
 30
0.000000
  70
    32
  0
VERTEX
  8
0
  5
1080C
 10
24.2683
 20
20.6707
 30
0.000000
  70
    32
  0
VERTEX
  8
0
  5
1080D
 10
24.2570
 20
20.6986
 30
0.000000
  70
    32
  0
VERTEX
  8
0
  5
1080E
 10
24.2457
 20
20.7264
 30
0.000000
  70
    32
  0
VERTEX
  8
0
  5
1080F
 10
24.2344
 20
20.7542
 30
0.000000
  70
    32
  0
VERTEX
  8
0
  5
10810
 10
24.2230
 20
20.7820
 30
0.000000
  70
    32
  0
VERTEX
  8
0
  5
10811
 10
24.2116
 20
20.8098
 30
0.000000
  70
    32
  0
VERTEX
  8
0
  5
10812
 10
24.2001
 20
20.8376
 30
0.000000
  70
    32
  0
VERTEX
  8
0
  5
10813
 10
24.1886
 20
20.8654
 30
0.000000
  70
    32
  0
VERTEX
  8
0
  5
10814
 10
24.1771
 20
20.8931
 30
0.000000
  70
    32
  0
VERTEX
  8
0
  5
10815
 10
24.1654
 20
20.9208
 30
0.000000
  70
    32
  0
VERTEX
  8
0
  5
10816
 10
24.1538
 20
20.9485
 30
0.000000
  70
    32
  0
VERTEX
  8
0
  5
10817
 10
24.1421
 20
20.9762
 30
0.000000
  70
    32
  0
VERTEX
  8
0
  5
10818
 10
24.1303
 20
21.0038
 30
0.000000
  70
    32
  0
VERTEX
  8
0
  5
10819
 10
24.1185
 20
21.0315
 30
0.000000
  70
    32
  0
VERTEX
  8
0
  5
1081A
 10
24.1066
 20
21.0591
 30
0.000000
  70
    32
  0
VERTEX
  8
0
  5
1081B
 10
24.0947
 20
21.0867
 30
0.000000
  70
    32
  0
VERTEX
  8
0
  5
1081C
 10
24.0828
 20
21.1142
 30
0.000000
  70
    32
  0
VERTEX
  8
0
  5
1081D
 10
24.0708
 20
21.1418
 30
0.000000
  70
    32
  0
VERTEX
  8
0
  5
1081E
 10
24.0587
 20
21.1693
 30
0.000000
  70
    32
  0
VERTEX
  8
0
  5
1081F
 10
24.0466
 20
21.1968
 30
0.000000
  70
    32
  0
VERTEX
  8
0
  5
10820
 10
24.0345
 20
21.2243
 30
0.000000
  70
    32
  0
VERTEX
  8
0
  5
10821
 10
24.0223
 20
21.2518
 30
0.000000
  70
    32
  0
VERTEX
  8
0
  5
10822
 10
24.0101
 20
21.2792
 30
0.000000
  70
    32
  0
VERTEX
  8
0
  5
10823
 10
23.9978
 20
21.3066
 30
0.000000
  70
    32
  0
VERTEX
  8
0
  5
10824
 10
23.9855
 20
21.3340
 30
0.000000
  70
    32
  0
VERTEX
  8
0
  5
10825
 10
23.9731
 20
21.3614
 30
0.000000
  70
    32
  0
VERTEX
  8
0
  5
10826
 10
23.9607
 20
21.3888
 30
0.000000
  70
    32
  0
VERTEX
  8
0
  5
10827
 10
23.9482
 20
21.4161
 30
0.000000
  70
    32
  0
VERTEX
  8
0
  5
10828
 10
23.9357
 20
21.4434
 30
0.000000
  70
    32
  0
VERTEX
  8
0
  5
10829
 10
23.9231
 20
21.4707
 30
0.000000
  70
    32
  0
VERTEX
  8
0
  5
1082A
 10
23.9105
 20
21.4980
 30
0.000000
  70
    32
  0
VERTEX
  8
0
  5
1082B
 10
23.8978
 20
21.5253
 30
0.000000
  70
    32
  0
VERTEX
  8
0
  5
1082C
 10
23.8851
 20
21.5525
 30
0.000000
  70
    32
  0
VERTEX
  8
0
  5
1082D
 10
23.8724
 20
21.5797
 30
0.000000
  70
    32
  0
VERTEX
  8
0
  5
1082E
 10
23.8596
 20
21.6069
 30
0.000000
  70
    32
  0
VERTEX
  8
0
  5
1082F
 10
23.8468
 20
21.6341
 30
0.000000
  70
    32
  0
VERTEX
  8
0
  5
10830
 10
23.8339
 20
21.6612
 30
0.000000
  70
    32
  0
VERTEX
  8
0
  5
10831
 10
23.8209
 20
21.6883
 30
0.000000
  70
    32
  0
VERTEX
  8
0
  5
10832
 10
23.8080
 20
21.7154
 30
0.000000
  70
    32
  0
VERTEX
  8
0
  5
10833
 10
23.7949
 20
21.7425
 30
0.000000
  70
    32
  0
VERTEX
  8
0
  5
10834
 10
23.7819
 20
21.7696
 30
0.000000
  70
    32
  0
VERTEX
  8
0
  5
10835
 10
23.7688
 20
21.7966
 30
0.000000
  70
    32
  0
VERTEX
  8
0
  5
10836
 10
23.7556
 20
21.8236
 30
0.000000
  70
    32
  0
VERTEX
  8
0
  5
10837
 10
23.7424
 20
21.8506
 30
0.000000
  70
    32
  0
VERTEX
  8
0
  5
10838
 10
23.7291
 20
21.8776
 30
0.000000
  70
    32
  0
VERTEX
  8
0
  5
10839
 10
23.7158
 20
21.9045
 30
0.000000
  70
    32
  0
VERTEX
  8
0
  5
1083A
 10
23.7025
 20
21.9315
 30
0.000000
  70
    32
  0
VERTEX
  8
0
  5
1083B
 10
23.6891
 20
21.9584
 30
0.000000
  70
    32
  0
VERTEX
  8
0
  5
1083C
 10
23.6757
 20
21.9853
 30
0.000000
  70
    32
  0
VERTEX
  8
0
  5
1083D
 10
23.6622
 20
22.0121
 30
0.000000
  70
    32
  0
VERTEX
  8
0
  5
1083E
 10
23.6487
 20
22.0390
 30
0.000000
  70
    32
  0
VERTEX
  8
0
  5
1083F
 10
23.6351
 20
22.0658
 30
0.000000
  70
    32
  0
VERTEX
  8
0
  5
10840
 10
23.6215
 20
22.0926
 30
0.000000
  70
    32
  0
VERTEX
  8
0
  5
10841
 10
23.6079
 20
22.1193
 30
0.000000
  70
    32
  0
VERTEX
  8
0
  5
10842
 10
23.5942
 20
22.1461
 30
0.000000
  70
    32
  0
VERTEX
  8
0
  5
10843
 10
23.5804
 20
22.1728
 30
0.000000
  70
    32
  0
VERTEX
  8
0
  5
10844
 10
23.5666
 20
22.1995
 30
0.000000
  70
    32
  0
VERTEX
  8
0
  5
10845
 10
23.5528
 20
22.2262
 30
0.000000
  70
    32
  0
VERTEX
  8
0
  5
10846
 10
23.5389
 20
22.2528
 30
0.000000
  70
    32
  0
VERTEX
  8
0
  5
10847
 10
23.5250
 20
22.2795
 30
0.000000
  70
    32
  0
VERTEX
  8
0
  5
10848
 10
23.5110
 20
22.3061
 30
0.000000
  70
    32
  0
VERTEX
  8
0
  5
10849
 10
23.4970
 20
22.3327
 30
0.000000
  70
    32
  0
VERTEX
  8
0
  5
1084A
 10
23.4830
 20
22.3592
 30
0.000000
  70
    32
  0
VERTEX
  8
0
  5
1084B
 10
23.4689
 20
22.3858
 30
0.000000
  70
    32
  0
VERTEX
  8
0
  5
1084C
 10
23.4547
 20
22.4123
 30
0.000000
  70
    32
  0
VERTEX
  8
0
  5
1084D
 10
23.4405
 20
22.4388
 30
0.000000
  70
    32
  0
VERTEX
  8
0
  5
1084E
 10
23.4263
 20
22.4652
 30
0.000000
  70
    32
  0
VERTEX
  8
0
  5
1084F
 10
23.4120
 20
22.4917
 30
0.000000
  70
    32
  0
VERTEX
  8
0
  5
10850
 10
23.3977
 20
22.5181
 30
0.000000
  70
    32
  0
VERTEX
  8
0
  5
10851
 10
23.3833
 20
22.5445
 30
0.000000
  70
    32
  0
VERTEX
  8
0
  5
10852
 10
23.3689
 20
22.5709
 30
0.000000
  70
    32
  0
VERTEX
  8
0
  5
10853
 10
23.3545
 20
22.5972
 30
0.000000
  70
    32
  0
VERTEX
  8
0
  5
10854
 10
23.3400
 20
22.6235
 30
0.000000
  70
    32
  0
VERTEX
  8
0
  5
10855
 10
23.3255
 20
22.6498
 30
0.000000
  70
    32
  0
VERTEX
  8
0
  5
10856
 10
23.3109
 20
22.6761
 30
0.000000
  70
    32
  0
VERTEX
  8
0
  5
10857
 10
23.2963
 20
22.7024
 30
0.000000
  70
    32
  0
VERTEX
  8
0
  5
10858
 10
23.2816
 20
22.7286
 30
0.000000
  70
    32
  0
VERTEX
  8
0
  5
10859
 10
23.2669
 20
22.7548
 30
0.000000
  70
    32
  0
VERTEX
  8
0
  5
1085A
 10
23.2522
 20
22.7810
 30
0.000000
  70
    32
  0
VERTEX
  8
0
  5
1085B
 10
23.2374
 20
22.8071
 30
0.000000
  70
    32
  0
VERTEX
  8
0
  5
1085C
 10
23.2225
 20
22.8333
 30
0.000000
  70
    32
  0
VERTEX
  8
0
  5
1085D
 10
23.2076
 20
22.8594
 30
0.000000
  70
    32
  0
VERTEX
  8
0
  5
1085E
 10
23.1927
 20
22.8855
 30
0.000000
  70
    32
  0
VERTEX
  8
0
  5
1085F
 10
23.1778
 20
22.9115
 30
0.000000
  70
    32
  0
VERTEX
  8
0
  5
10860
 10
23.1628
 20
22.9375
 30
0.000000
  70
    32
  0
VERTEX
  8
0
  5
10861
 10
23.1477
 20
22.9635
 30
0.000000
  70
    32
  0
VERTEX
  8
0
  5
10862
 10
23.1326
 20
22.9895
 30
0.000000
  70
    32
  0
VERTEX
  8
0
  5
10863
 10
23.1175
 20
23.0155
 30
0.000000
  70
    32
  0
VERTEX
  8
0
  5
10864
 10
23.1023
 20
23.0414
 30
0.000000
  70
    32
  0
VERTEX
  8
0
  5
10865
 10
23.0871
 20
23.0673
 30
0.000000
  70
    32
  0
VERTEX
  8
0
  5
10866
 10
23.0718
 20
23.0932
 30
0.000000
  70
    32
  0
VERTEX
  8
0
  5
10867
 10
23.0565
 20
23.1190
 30
0.000000
  70
    32
  0
VERTEX
  8
0
  5
10868
 10
23.0412
 20
23.1449
 30
0.000000
  70
    32
  0
VERTEX
  8
0
  5
10869
 10
23.0258
 20
23.1707
 30
0.000000
  70
    32
  0
SEQEND
  8
0
  5
1086A
  0
POLYLINE
  8
0
  5
1086B
  66
     1
 10
0.000000
 20
0.000000
 30
0.000000
  70
     8
  0
VERTEX
  8
0
  5
1086C
 10
24.0000
 20
9.00000
 30
0.000000
  70
    32
  0
VERTEX
  8
0
  5
1086D
 10
23.9613
 20
9.02546
 30
0.000000
  70
    32
  0
VERTEX
  8
0
  5
1086E
 10
23.9227
 20
9.05100
 30
0.000000
  70
    32
  0
VERTEX
  8
0
  5
1086F
 10
23.8841
 20
9.07662
 30
0.000000
  70
    32
  0
VERTEX
  8
0
  5
10870
 10
23.8456
 20
9.10232
 30
0.000000
  70
    32
  0
VERTEX
  8
0
  5
10871
 10
23.8071
 20
9.12809
 30
0.000000
  70
    32
  0
VERTEX
  8
0
  5
10872
 10
23.7687
 20
9.15394
 30
0.000000
  70
    32
  0
VERTEX
  8
0
  5
10873
 10
23.7303
 20
9.17987
 30
0.000000
  70
    32
  0
VERTEX
  8
0
  5
10874
 10
23.6920
 20
9.20588
 30
0.000000
  70
    32
  0
VERTEX
  8
0
  5
10875
 10
23.6537
 20
9.23197
 30
0.000000
  70
    32
  0
VERTEX
  8
0
  5
10876
 10
23.6155
 20
9.25814
 30
0.000000
  70
    32
  0
VERTEX
  8
0
  5
10877
 10
23.5773
 20
9.28438
 30
0.000000
  70
    32
  0
VERTEX
  8
0
  5
10878
 10
23.5392
 20
9.31070
 30
0.000000
  70
    32
  0
VERTEX
  8
0
  5
10879
 10
23.5011
 20
9.33710
 30
0.000000
  70
    32
  0
VERTEX
  8
0
  5
1087A
 10
23.4631
 20
9.36358
 30
0.000000
  70
    32
  0
VERTEX
  8
0
  5
1087B
 10
23.4251
 20
9.39014
 30
0.000000
  70
    32
  0
VERTEX
  8
0
  5
1087C
 10
23.3872
 20
9.41677
 30
0.000000
  70
    32
  0
VERTEX
  8
0
  5
1087D
 10
23.3494
 20
9.44348
 30
0.000000
  70
    32
  0
VERTEX
  8
0
  5
1087E
 10
23.3116
 20
9.47027
 30
0.000000
  70
    32
  0
VERTEX
  8
0
  5
1087F
 10
23.2739
 20
9.49714
 30
0.000000
  70
    32
  0
VERTEX
  8
0
  5
10880
 10
23.2362
 20
9.52408
 30
0.000000
  70
    32
  0
VERTEX
  8
0
  5
10881
 10
23.1985
 20
9.55110
 30
0.000000
  70
    32
  0
VERTEX
  8
0
  5
10882
 10
23.1610
 20
9.57820
 30
0.000000
  70
    32
  0
VERTEX
  8
0
  5
10883
 10
23.1234
 20
9.60538
 30
0.000000
  70
    32
  0
VERTEX
  8
0
  5
10884
 10
23.0860
 20
9.63264
 30
0.000000
  70
    32
  0
VERTEX
  8
0
  5
10885
 10
23.0486
 20
9.65997
 30
0.000000
  70
    32
  0
VERTEX
  8
0
  5
10886
 10
23.0112
 20
9.68738
 30
0.000000
  70
    32
  0
VERTEX
  8
0
  5
10887
 10
22.9739
 20
9.71486
 30
0.000000
  70
    32
  0
VERTEX
  8
0
  5
10888
 10
22.9367
 20
9.74243
 30
0.000000
  70
    32
  0
VERTEX
  8
0
  5
10889
 10
22.8995
 20
9.77007
 30
0.000000
  70
    32
  0
VERTEX
  8
0
  5
1088A
 10
22.8624
 20
9.79779
 30
0.000000
  70
    32
  0
VERTEX
  8
0
  5
1088B
 10
22.8253
 20
9.82559
 30
0.000000
  70
    32
  0
VERTEX
  8
0
  5
1088C
 10
22.7883
 20
9.85346
 30
0.000000
  70
    32
  0
VERTEX
  8
0
  5
1088D
 10
22.7513
 20
9.88141
 30
0.000000
  70
    32
  0
VERTEX
  8
0
  5
1088E
 10
22.7144
 20
9.90944
 30
0.000000
  70
    32
  0
VERTEX
  8
0
  5
1088F
 10
22.6776
 20
9.93754
 30
0.000000
  70
    32
  0
VERTEX
  8
0
  5
10890
 10
22.6408
 20
9.96573
 30
0.000000
  70
    32
  0
VERTEX
  8
0
  5
10891
 10
22.6041
 20
9.99398
 30
0.000000
  70
    32
  0
VERTEX
  8
0
  5
10892
 10
22.5674
 20
10.0223
 30
0.000000
  70
    32
  0
VERTEX
  8
0
  5
10893
 10
22.5308
 20
10.0507
 30
0.000000
  70
    32
  0
VERTEX
  8
0
  5
10894
 10
22.4943
 20
10.0792
 30
0.000000
  70
    32
  0
VERTEX
  8
0
  5
10895
 10
22.4578
 20
10.1078
 30
0.000000
  70
    32
  0
VERTEX
  8
0
  5
10896
 10
22.4214
 20
10.1364
 30
0.000000
  70
    32
  0
VERTEX
  8
0
  5
10897
 10
22.3850
 20
10.1652
 30
0.000000
  70
    32
  0
VERTEX
  8
0
  5
10898
 10
22.3487
 20
10.1939
 30
0.000000
  70
    32
  0
VERTEX
  8
0
  5
10899
 10
22.3125
 20
10.2228
 30
0.000000
  70
    32
  0
VERTEX
  8
0
  5
1089A
 10
22.2763
 20
10.2518
 30
0.000000
  70
    32
  0
VERTEX
  8
0
  5
1089B
 10
22.2402
 20
10.2808
 30
0.000000
  70
    32
  0
VERTEX
  8
0
  5
1089C
 10
22.2041
 20
10.3099
 30
0.000000
  70
    32
  0
VERTEX
  8
0
  5
1089D
 10
22.1682
 20
10.3391
 30
0.000000
  70
    32
  0
VERTEX
  8
0
  5
1089E
 10
22.1322
 20
10.3683
 30
0.000000
  70
    32
  0
VERTEX
  8
0
  5
1089F
 10
22.0964
 20
10.3977
 30
0.000000
  70
    32
  0
VERTEX
  8
0
  5
108A0
 10
22.0605
 20
10.4271
 30
0.000000
  70
    32
  0
VERTEX
  8
0
  5
108A1
 10
22.0248
 20
10.4566
 30
0.000000
  70
    32
  0
VERTEX
  8
0
  5
108A2
 10
21.9891
 20
10.4861
 30
0.000000
  70
    32
  0
VERTEX
  8
0
  5
108A3
 10
21.9535
 20
10.5158
 30
0.000000
  70
    32
  0
VERTEX
  8
0
  5
108A4
 10
21.9180
 20
10.5455
 30
0.000000
  70
    32
  0
VERTEX
  8
0
  5
108A5
 10
21.8825
 20
10.5753
 30
0.000000
  70
    32
  0
VERTEX
  8
0
  5
108A6
 10
21.8471
 20
10.6051
 30
0.000000
  70
    32
  0
VERTEX
  8
0
  5
108A7
 10
21.8117
 20
10.6351
 30
0.000000
  70
    32
  0
VERTEX
  8
0
  5
108A8
 10
21.7764
 20
10.6651
 30
0.000000
  70
    32
  0
VERTEX
  8
0
  5
108A9
 10
21.7412
 20
10.6952
 30
0.000000
  70
    32
  0
VERTEX
  8
0
  5
108AA
 10
21.7060
 20
10.7254
 30
0.000000
  70
    32
  0
VERTEX
  8
0
  5
108AB
 10
21.6709
 20
10.7556
 30
0.000000
  70
    32
  0
VERTEX
  8
0
  5
108AC
 10
21.6359
 20
10.7859
 30
0.000000
  70
    32
  0
VERTEX
  8
0
  5
108AD
 10
21.6009
 20
10.8163
 30
0.000000
  70
    32
  0
VERTEX
  8
0
  5
108AE
 10
21.5660
 20
10.8468
 30
0.000000
  70
    32
  0
VERTEX
  8
0
  5
108AF
 10
21.5312
 20
10.8774
 30
0.000000
  70
    32
  0
VERTEX
  8
0
  5
108B0
 10
21.4964
 20
10.9080
 30
0.000000
  70
    32
  0
VERTEX
  8
0
  5
108B1
 10
21.4618
 20
10.9387
 30
0.000000
  70
    32
  0
VERTEX
  8
0
  5
108B2
 10
21.4271
 20
10.9695
 30
0.000000
  70
    32
  0
VERTEX
  8
0
  5
108B3
 10
21.3926
 20
11.0004
 30
0.000000
  70
    32
  0
VERTEX
  8
0
  5
108B4
 10
21.3581
 20
11.0313
 30
0.000000
  70
    32
  0
VERTEX
  8
0
  5
108B5
 10
21.3237
 20
11.0623
 30
0.000000
  70
    32
  0
VERTEX
  8
0
  5
108B6
 10
21.2893
 20
11.0934
 30
0.000000
  70
    32
  0
VERTEX
  8
0
  5
108B7
 10
21.2550
 20
11.1246
 30
0.000000
  70
    32
  0
VERTEX
  8
0
  5
108B8
 10
21.2208
 20
11.1558
 30
0.000000
  70
    32
  0
VERTEX
  8
0
  5
108B9
 10
21.1867
 20
11.1871
 30
0.000000
  70
    32
  0
VERTEX
  8
0
  5
108BA
 10
21.1526
 20
11.2185
 30
0.000000
  70
    32
  0
VERTEX
  8
0
  5
108BB
 10
21.1186
 20
11.2500
 30
0.000000
  70
    32
  0
VERTEX
  8
0
  5
108BC
 10
21.0847
 20
11.2815
 30
0.000000
  70
    32
  0
VERTEX
  8
0
  5
108BD
 10
21.0508
 20
11.3132
 30
0.000000
  70
    32
  0
VERTEX
  8
0
  5
108BE
 10
21.0170
 20
11.3449
 30
0.000000
  70
    32
  0
VERTEX
  8
0
  5
108BF
 10
20.9833
 20
11.3766
 30
0.000000
  70
    32
  0
VERTEX
  8
0
  5
108C0
 10
20.9497
 20
11.4085
 30
0.000000
  70
    32
  0
VERTEX
  8
0
  5
108C1
 10
20.9161
 20
11.4404
 30
0.000000
  70
    32
  0
VERTEX
  8
0
  5
108C2
 10
20.8826
 20
11.4724
 30
0.000000
  70
    32
  0
VERTEX
  8
0
  5
108C3
 10
20.8492
 20
11.5045
 30
0.000000
  70
    32
  0
VERTEX
  8
0
  5
108C4
 10
20.8158
 20
11.5367
 30
0.000000
  70
    32
  0
VERTEX
  8
0
  5
108C5
 10
20.7826
 20
11.5689
 30
0.000000
  70
    32
  0
VERTEX
  8
0
  5
108C6
 10
20.7494
 20
11.6012
 30
0.000000
  70
    32
  0
VERTEX
  8
0
  5
108C7
 10
20.7162
 20
11.6336
 30
0.000000
  70
    32
  0
VERTEX
  8
0
  5
108C8
 10
20.6832
 20
11.6660
 30
0.000000
  70
    32
  0
VERTEX
  8
0
  5
108C9
 10
20.6502
 20
11.6986
 30
0.000000
  70
    32
  0
VERTEX
  8
0
  5
108CA
 10
20.6173
 20
11.7312
 30
0.000000
  70
    32
  0
VERTEX
  8
0
  5
108CB
 10
20.5845
 20
11.7639
 30
0.000000
  70
    32
  0
VERTEX
  8
0
  5
108CC
 10
20.5517
 20
11.7966
 30
0.000000
  70
    32
  0
VERTEX
  8
0
  5
108CD
 10
20.5190
 20
11.8295
 30
0.000000
  70
    32
  0
VERTEX
  8
0
  5
108CE
 10
20.4864
 20
11.8624
 30
0.000000
  70
    32
  0
VERTEX
  8
0
  5
108CF
 10
20.4539
 20
11.8954
 30
0.000000
  70
    32
  0
VERTEX
  8
0
  5
108D0
 10
20.4215
 20
11.9285
 30
0.000000
  70
    32
  0
VERTEX
  8
0
  5
108D1
 10
20.3891
 20
11.9616
 30
0.000000
  70
    32
  0
VERTEX
  8
0
  5
108D2
 10
20.3568
 20
11.9948
 30
0.000000
  70
    32
  0
VERTEX
  8
0
  5
108D3
 10
20.3246
 20
12.0281
 30
0.000000
  70
    32
  0
VERTEX
  8
0
  5
108D4
 10
20.2924
 20
12.0615
 30
0.000000
  70
    32
  0
VERTEX
  8
0
  5
108D5
 10
20.2604
 20
12.0949
 30
0.000000
  70
    32
  0
VERTEX
  8
0
  5
108D6
 10
20.2284
 20
12.1284
 30
0.000000
  70
    32
  0
VERTEX
  8
0
  5
108D7
 10
20.1965
 20
12.1620
 30
0.000000
  70
    32
  0
VERTEX
  8
0
  5
108D8
 10
20.1646
 20
12.1957
 30
0.000000
  70
    32
  0
VERTEX
  8
0
  5
108D9
 10
20.1329
 20
12.2294
 30
0.000000
  70
    32
  0
VERTEX
  8
0
  5
108DA
 10
20.1012
 20
12.2632
 30
0.000000
  70
    32
  0
VERTEX
  8
0
  5
108DB
 10
20.0696
 20
12.2971
 30
0.000000
  70
    32
  0
VERTEX
  8
0
  5
108DC
 10
20.0381
 20
12.3311
 30
0.000000
  70
    32
  0
VERTEX
  8
0
  5
108DD
 10
20.0066
 20
12.3651
 30
0.000000
  70
    32
  0
VERTEX
  8
0
  5
108DE
 10
19.9753
 20
12.3992
 30
0.000000
  70
    32
  0
VERTEX
  8
0
  5
108DF
 10
19.9440
 20
12.4334
 30
0.000000
  70
    32
  0
VERTEX
  8
0
  5
108E0
 10
19.9128
 20
12.4676
 30
0.000000
  70
    32
  0
VERTEX
  8
0
  5
108E1
 10
19.8816
 20
12.5020
 30
0.000000
  70
    32
  0
VERTEX
  8
0
  5
108E2
 10
19.8506
 20
12.5364
 30
0.000000
  70
    32
  0
VERTEX
  8
0
  5
108E3
 10
19.8196
 20
12.5708
 30
0.000000
  70
    32
  0
VERTEX
  8
0
  5
108E4
 10
19.7887
 20
12.6054
 30
0.000000
  70
    32
  0
VERTEX
  8
0
  5
108E5
 10
19.7579
 20
12.6400
 30
0.000000
  70
    32
  0
VERTEX
  8
0
  5
108E6
 10
19.7272
 20
12.6746
 30
0.000000
  70
    32
  0
VERTEX
  8
0
  5
108E7
 10
19.6966
 20
12.7094
 30
0.000000
  70
    32
  0
VERTEX
  8
0
  5
108E8
 10
19.6660
 20
12.7442
 30
0.000000
  70
    32
  0
VERTEX
  8
0
  5
108E9
 10
19.6355
 20
12.7791
 30
0.000000
  70
    32
  0
VERTEX
  8
0
  5
108EA
 10
19.6051
 20
12.8141
 30
0.000000
  70
    32
  0
VERTEX
  8
0
  5
108EB
 10
19.5748
 20
12.8491
 30
0.000000
  70
    32
  0
VERTEX
  8
0
  5
108EC
 10
19.5445
 20
12.8842
 30
0.000000
  70
    32
  0
VERTEX
  8
0
  5
108ED
 10
19.5144
 20
12.9194
 30
0.000000
  70
    32
  0
VERTEX
  8
0
  5
108EE
 10
19.4843
 20
12.9546
 30
0.000000
  70
    32
  0
VERTEX
  8
0
  5
108EF
 10
19.4543
 20
12.9899
 30
0.000000
  70
    32
  0
VERTEX
  8
0
  5
108F0
 10
19.4244
 20
13.0253
 30
0.000000
  70
    32
  0
VERTEX
  8
0
  5
108F1
 10
19.3945
 20
13.0607
 30
0.000000
  70
    32
  0
VERTEX
  8
0
  5
108F2
 10
19.3648
 20
13.0962
 30
0.000000
  70
    32
  0
VERTEX
  8
0
  5
108F3
 10
19.3351
 20
13.1318
 30
0.000000
  70
    32
  0
VERTEX
  8
0
  5
108F4
 10
19.3055
 20
13.1675
 30
0.000000
  70
    32
  0
VERTEX
  8
0
  5
108F5
 10
19.2760
 20
13.2032
 30
0.000000
  70
    32
  0
VERTEX
  8
0
  5
108F6
 10
19.2466
 20
13.2390
 30
0.000000
  70
    32
  0
VERTEX
  8
0
  5
108F7
 10
19.2172
 20
13.2748
 30
0.000000
  70
    32
  0
VERTEX
  8
0
  5
108F8
 10
19.1880
 20
13.3108
 30
0.000000
  70
    32
  0
VERTEX
  8
0
  5
108F9
 10
19.1588
 20
13.3468
 30
0.000000
  70
    32
  0
VERTEX
  8
0
  5
108FA
 10
19.1297
 20
13.3828
 30
0.000000
  70
    32
  0
VERTEX
  8
0
  5
108FB
 10
19.1007
 20
13.4189
 30
0.000000
  70
    32
  0
VERTEX
  8
0
  5
108FC
 10
19.0717
 20
13.4551
 30
0.000000
  70
    32
  0
VERTEX
  8
0
  5
108FD
 10
19.0429
 20
13.4914
 30
0.000000
  70
    32
  0
VERTEX
  8
0
  5
108FE
 10
19.0141
 20
13.5277
 30
0.000000
  70
    32
  0
VERTEX
  8
0
  5
108FF
 10
18.9855
 20
13.5641
 30
0.000000
  70
    32
  0
VERTEX
  8
0
  5
10900
 10
18.9569
 20
13.6006
 30
0.000000
  70
    32
  0
VERTEX
  8
0
  5
10901
 10
18.9284
 20
13.6371
 30
0.000000
  70
    32
  0
VERTEX
  8
0
  5
10902
 10
18.8999
 20
13.6737
 30
0.000000
  70
    32
  0
VERTEX
  8
0
  5
10903
 10
18.8716
 20
13.7103
 30
0.000000
  70
    32
  0
VERTEX
  8
0
  5
10904
 10
18.8433
 20
13.7470
 30
0.000000
  70
    32
  0
VERTEX
  8
0
  5
10905
 10
18.8152
 20
13.7838
 30
0.000000
  70
    32
  0
VERTEX
  8
0
  5
10906
 10
18.7871
 20
13.8207
 30
0.000000
  70
    32
  0
VERTEX
  8
0
  5
10907
 10
18.7591
 20
13.8576
 30
0.000000
  70
    32
  0
VERTEX
  8
0
  5
10908
 10
18.7311
 20
13.8945
 30
0.000000
  70
    32
  0
VERTEX
  8
0
  5
10909
 10
18.7033
 20
13.9316
 30
0.000000
  70
    32
  0
VERTEX
  8
0
  5
1090A
 10
18.6756
 20
13.9687
 30
0.000000
  70
    32
  0
VERTEX
  8
0
  5
1090B
 10
18.6479
 20
14.0058
 30
0.000000
  70
    32
  0
VERTEX
  8
0
  5
1090C
 10
18.6203
 20
14.0431
 30
0.000000
  70
    32
  0
VERTEX
  8
0
  5
1090D
 10
18.5928
 20
14.0803
 30
0.000000
  70
    32
  0
VERTEX
  8
0
  5
1090E
 10
18.5654
 20
14.1177
 30
0.000000
  70
    32
  0
VERTEX
  8
0
  5
1090F
 10
18.5380
 20
14.1551
 30
0.000000
  70
    32
  0
VERTEX
  8
0
  5
10910
 10
18.5108
 20
14.1926
 30
0.000000
  70
    32
  0
VERTEX
  8
0
  5
10911
 10
18.4836
 20
14.2301
 30
0.000000
  70
    32
  0
VERTEX
  8
0
  5
10912
 10
18.4565
 20
14.2677
 30
0.000000
  70
    32
  0
VERTEX
  8
0
  5
10913
 10
18.4295
 20
14.3053
 30
0.000000
  70
    32
  0
VERTEX
  8
0
  5
10914
 10
18.4026
 20
14.3430
 30
0.000000
  70
    32
  0
VERTEX
  8
0
  5
10915
 10
18.3758
 20
14.3808
 30
0.000000
  70
    32
  0
VERTEX
  8
0
  5
10916
 10
18.3490
 20
14.4186
 30
0.000000
  70
    32
  0
VERTEX
  8
0
  5
10917
 10
18.3224
 20
14.4565
 30
0.000000
  70
    32
  0
VERTEX
  8
0
  5
10918
 10
18.2958
 20
14.4945
 30
0.000000
  70
    32
  0
VERTEX
  8
0
  5
10919
 10
18.2693
 20
14.5325
 30
0.000000
  70
    32
  0
VERTEX
  8
0
  5
1091A
 10
18.2428
 20
14.5705
 30
0.000000
  70
    32
  0
VERTEX
  8
0
  5
1091B
 10
18.2165
 20
14.6086
 30
0.000000
  70
    32
  0
VERTEX
  8
0
  5
1091C
 10
18.1903
 20
14.6468
 30
0.000000
  70
    32
  0
VERTEX
  8
0
  5
1091D
 10
18.1641
 20
14.6851
 30
0.000000
  70
    32
  0
VERTEX
  8
0
  5
1091E
 10
18.1380
 20
14.7233
 30
0.000000
  70
    32
  0
VERTEX
  8
0
  5
1091F
 10
18.1120
 20
14.7617
 30
0.000000
  70
    32
  0
VERTEX
  8
0
  5
10920
 10
18.0861
 20
14.8001
 30
0.000000
  70
    32
  0
VERTEX
  8
0
  5
10921
 10
18.0603
 20
14.8386
 30
0.000000
  70
    32
  0
VERTEX
  8
0
  5
10922
 10
18.0345
 20
14.8771
 30
0.000000
  70
    32
  0
VERTEX
  8
0
  5
10923
 10
18.0089
 20
14.9157
 30
0.000000
  70
    32
  0
VERTEX
  8
0
  5
10924
 10
17.9833
 20
14.9543
 30
0.000000
  70
    32
  0
VERTEX
  8
0
  5
10925
 10
17.9578
 20
14.9930
 30
0.000000
  70
    32
  0
VERTEX
  8
0
  5
10926
 10
17.9324
 20
15.0317
 30
0.000000
  70
    32
  0
VERTEX
  8
0
  5
10927
 10
17.9070
 20
15.0705
 30
0.000000
  70
    32
  0
VERTEX
  8
0
  5
10928
 10
17.8818
 20
15.1093
 30
0.000000
  70
    32
  0
VERTEX
  8
0
  5
10929
 10
17.8566
 20
15.1482
 30
0.000000
  70
    32
  0
VERTEX
  8
0
  5
1092A
 10
17.8315
 20
15.1872
 30
0.000000
  70
    32
  0
VERTEX
  8
0
  5
1092B
 10
17.8065
 20
15.2262
 30
0.000000
  70
    32
  0
VERTEX
  8
0
  5
1092C
 10
17.7816
 20
15.2653
 30
0.000000
  70
    32
  0
VERTEX
  8
0
  5
1092D
 10
17.7568
 20
15.3044
 30
0.000000
  70
    32
  0
VERTEX
  8
0
  5
1092E
 10
17.7320
 20
15.3435
 30
0.000000
  70
    32
  0
VERTEX
  8
0
  5
1092F
 10
17.7074
 20
15.3828
 30
0.000000
  70
    32
  0
VERTEX
  8
0
  5
10930
 10
17.6828
 20
15.4220
 30
0.000000
  70
    32
  0
VERTEX
  8
0
  5
10931
 10
17.6583
 20
15.4613
 30
0.000000
  70
    32
  0
VERTEX
  8
0
  5
10932
 10
17.6339
 20
15.5007
 30
0.000000
  70
    32
  0
VERTEX
  8
0
  5
10933
 10
17.6096
 20
15.5401
 30
0.000000
  70
    32
  0
VERTEX
  8
0
  5
10934
 10
17.5853
 20
15.5796
 30
0.000000
  70
    32
  0
VERTEX
  8
0
  5
10935
 10
17.5612
 20
15.6191
 30
0.000000
  70
    32
  0
VERTEX
  8
0
  5
10936
 10
17.5371
 20
15.6587
 30
0.000000
  70
    32
  0
VERTEX
  8
0
  5
10937
 10
17.5131
 20
15.6984
 30
0.000000
  70
    32
  0
VERTEX
  8
0
  5
10938
 10
17.4892
 20
15.7380
 30
0.000000
  70
    32
  0
VERTEX
  8
0
  5
10939
 10
17.4654
 20
15.7778
 30
0.000000
  70
    32
  0
VERTEX
  8
0
  5
1093A
 10
17.4416
 20
15.8175
 30
0.000000
  70
    32
  0
VERTEX
  8
0
  5
1093B
 10
17.4180
 20
15.8574
 30
0.000000
  70
    32
  0
VERTEX
  8
0
  5
1093C
 10
17.3944
 20
15.8973
 30
0.000000
  70
    32
  0
VERTEX
  8
0
  5
1093D
 10
17.3709
 20
15.9372
 30
0.000000
  70
    32
  0
VERTEX
  8
0
  5
1093E
 10
17.3475
 20
15.9772
 30
0.000000
  70
    32
  0
VERTEX
  8
0
  5
1093F
 10
17.3242
 20
16.0172
 30
0.000000
  70
    32
  0
VERTEX
  8
0
  5
10940
 10
17.3009
 20
16.0573
 30
0.000000
  70
    32
  0
VERTEX
  8
0
  5
10941
 10
17.2778
 20
16.0974
 30
0.000000
  70
    32
  0
VERTEX
  8
0
  5
10942
 10
17.2547
 20
16.1376
 30
0.000000
  70
    32
  0
VERTEX
  8
0
  5
10943
 10
17.2317
 20
16.1778
 30
0.000000
  70
    32
  0
VERTEX
  8
0
  5
10944
 10
17.2088
 20
16.2181
 30
0.000000
  70
    32
  0
VERTEX
  8
0
  5
10945
 10
17.1860
 20
16.2584
 30
0.000000
  70
    32
  0
VERTEX
  8
0
  5
10946
 10
17.1632
 20
16.2987
 30
0.000000
  70
    32
  0
VERTEX
  8
0
  5
10947
 10
17.1406
 20
16.3391
 30
0.000000
  70
    32
  0
VERTEX
  8
0
  5
10948
 10
17.1180
 20
16.3796
 30
0.000000
  70
    32
  0
VERTEX
  8
0
  5
10949
 10
17.0955
 20
16.4201
 30
0.000000
  70
    32
  0
VERTEX
  8
0
  5
1094A
 10
17.0731
 20
16.4607
 30
0.000000
  70
    32
  0
VERTEX
  8
0
  5
1094B
 10
17.0508
 20
16.5013
 30
0.000000
  70
    32
  0
VERTEX
  8
0
  5
1094C
 10
17.0286
 20
16.5419
 30
0.000000
  70
    32
  0
VERTEX
  8
0
  5
1094D
 10
17.0065
 20
16.5826
 30
0.000000
  70
    32
  0
VERTEX
  8
0
  5
1094E
 10
16.9844
 20
16.6233
 30
0.000000
  70
    32
  0
VERTEX
  8
0
  5
1094F
 10
16.9624
 20
16.6641
 30
0.000000
  70
    32
  0
VERTEX
  8
0
  5
10950
 10
16.9405
 20
16.7050
 30
0.000000
  70
    32
  0
VERTEX
  8
0
  5
10951
 10
16.9187
 20
16.7458
 30
0.000000
  70
    32
  0
VERTEX
  8
0
  5
10952
 10
16.8970
 20
16.7868
 30
0.000000
  70
    32
  0
VERTEX
  8
0
  5
10953
 10
16.8753
 20
16.8277
 30
0.000000
  70
    32
  0
VERTEX
  8
0
  5
10954
 10
16.8538
 20
16.8687
 30
0.000000
  70
    32
  0
VERTEX
  8
0
  5
10955
 10
16.8323
 20
16.9098
 30
0.000000
  70
    32
  0
VERTEX
  8
0
  5
10956
 10
16.8109
 20
16.9509
 30
0.000000
  70
    32
  0
VERTEX
  8
0
  5
10957
 10
16.7896
 20
16.9920
 30
0.000000
  70
    32
  0
VERTEX
  8
0
  5
10958
 10
16.7684
 20
17.0332
 30
0.000000
  70
    32
  0
VERTEX
  8
0
  5
10959
 10
16.7473
 20
17.0744
 30
0.000000
  70
    32
  0
VERTEX
  8
0
  5
1095A
 10
16.7262
 20
17.1157
 30
0.000000
  70
    32
  0
VERTEX
  8
0
  5
1095B
 10
16.7053
 20
17.1570
 30
0.000000
  70
    32
  0
VERTEX
  8
0
  5
1095C
 10
16.6844
 20
17.1984
 30
0.000000
  70
    32
  0
VERTEX
  8
0
  5
1095D
 10
16.6636
 20
17.2398
 30
0.000000
  70
    32
  0
VERTEX
  8
0
  5
1095E
 10
16.6429
 20
17.2812
 30
0.000000
  70
    32
  0
VERTEX
  8
0
  5
1095F
 10
16.6222
 20
17.3227
 30
0.000000
  70
    32
  0
VERTEX
  8
0
  5
10960
 10
16.6017
 20
17.3643
 30
0.000000
  70
    32
  0
VERTEX
  8
0
  5
10961
 10
16.5812
 20
17.4058
 30
0.000000
  70
    32
  0
VERTEX
  8
0
  5
10962
 10
16.5609
 20
17.4474
 30
0.000000
  70
    32
  0
VERTEX
  8
0
  5
10963
 10
16.5406
 20
17.4891
 30
0.000000
  70
    32
  0
VERTEX
  8
0
  5
10964
 10
16.5204
 20
17.5308
 30
0.000000
  70
    32
  0
VERTEX
  8
0
  5
10965
 10
16.5003
 20
17.5725
 30
0.000000
  70
    32
  0
VERTEX
  8
0
  5
10966
 10
16.4802
 20
17.6143
 30
0.000000
  70
    32
  0
VERTEX
  8
0
  5
10967
 10
16.4603
 20
17.6561
 30
0.000000
  70
    32
  0
VERTEX
  8
0
  5
10968
 10
16.4404
 20
17.6980
 30
0.000000
  70
    32
  0
VERTEX
  8
0
  5
10969
 10
16.4207
 20
17.7399
 30
0.000000
  70
    32
  0
VERTEX
  8
0
  5
1096A
 10
16.4010
 20
17.7818
 30
0.000000
  70
    32
  0
VERTEX
  8
0
  5
1096B
 10
16.3814
 20
17.8238
 30
0.000000
  70
    32
  0
VERTEX
  8
0
  5
1096C
 10
16.3618
 20
17.8658
 30
0.000000
  70
    32
  0
VERTEX
  8
0
  5
1096D
 10
16.3424
 20
17.9079
 30
0.000000
  70
    32
  0
VERTEX
  8
0
  5
1096E
 10
16.3231
 20
17.9500
 30
0.000000
  70
    32
  0
VERTEX
  8
0
  5
1096F
 10
16.3038
 20
17.9921
 30
0.000000
  70
    32
  0
VERTEX
  8
0
  5
10970
 10
16.2846
 20
18.0343
 30
0.000000
  70
    32
  0
VERTEX
  8
0
  5
10971
 10
16.2655
 20
18.0765
 30
0.000000
  70
    32
  0
VERTEX
  8
0
  5
10972
 10
16.2465
 20
18.1188
 30
0.000000
  70
    32
  0
VERTEX
  8
0
  5
10973
 10
16.2276
 20
18.1611
 30
0.000000
  70
    32
  0
VERTEX
  8
0
  5
10974
 10
16.2087
 20
18.2034
 30
0.000000
  70
    32
  0
VERTEX
  8
0
  5
10975
 10
16.1900
 20
18.2458
 30
0.000000
  70
    32
  0
VERTEX
  8
0
  5
10976
 10
16.1713
 20
18.2882
 30
0.000000
  70
    32
  0
VERTEX
  8
0
  5
10977
 10
16.1528
 20
18.3306
 30
0.000000
  70
    32
  0
VERTEX
  8
0
  5
10978
 10
16.1343
 20
18.3731
 30
0.000000
  70
    32
  0
VERTEX
  8
0
  5
10979
 10
16.1159
 20
18.4156
 30
0.000000
  70
    32
  0
VERTEX
  8
0
  5
1097A
 10
16.0975
 20
18.4581
 30
0.000000
  70
    32
  0
VERTEX
  8
0
  5
1097B
 10
16.0793
 20
18.5007
 30
0.000000
  70
    32
  0
VERTEX
  8
0
  5
1097C
 10
16.0612
 20
18.5434
 30
0.000000
  70
    32
  0
VERTEX
  8
0
  5
1097D
 10
16.0431
 20
18.5860
 30
0.000000
  70
    32
  0
VERTEX
  8
0
  5
1097E
 10
16.0251
 20
18.6287
 30
0.000000
  70
    32
  0
VERTEX
  8
0
  5
1097F
 10
16.0072
 20
18.6714
 30
0.000000
  70
    32
  0
VERTEX
  8
0
  5
10980
 10
15.9894
 20
18.7142
 30
0.000000
  70
    32
  0
VERTEX
  8
0
  5
10981
 10
15.9717
 20
18.7570
 30
0.000000
  70
    32
  0
VERTEX
  8
0
  5
10982
 10
15.9541
 20
18.7998
 30
0.000000
  70
    32
  0
VERTEX
  8
0
  5
10983
 10
15.9365
 20
18.8427
 30
0.000000
  70
    32
  0
VERTEX
  8
0
  5
10984
 10
15.9191
 20
18.8856
 30
0.000000
  70
    32
  0
VERTEX
  8
0
  5
10985
 10
15.9017
 20
18.9285
 30
0.000000
  70
    32
  0
VERTEX
  8
0
  5
10986
 10
15.8844
 20
18.9715
 30
0.000000
  70
    32
  0
VERTEX
  8
0
  5
10987
 10
15.8672
 20
19.0145
 30
0.000000
  70
    32
  0
VERTEX
  8
0
  5
10988
 10
15.8501
 20
19.0575
 30
0.000000
  70
    32
  0
VERTEX
  8
0
  5
10989
 10
15.8331
 20
19.1006
 30
0.000000
  70
    32
  0
VERTEX
  8
0
  5
1098A
 10
15.8161
 20
19.1437
 30
0.000000
  70
    32
  0
VERTEX
  8
0
  5
1098B
 10
15.7993
 20
19.1868
 30
0.000000
  70
    32
  0
SEQEND
  8
0
  5
1098C
  0
ARC
  5
F821
  8
0
 10
-31.0
 20
0.0
 30
0.0
 40
5.5
 50
180.0
 51
0.0
  0
LINE
  5
F89A
  8
0
 10
16.387658000000101
 20
78.526125058619755
 30
0.0
 11
25.981285000000291
 21
78.526125058619755
 31
0.0
  0
LINE
  5
F89B
  8
0
 10
16.387658000000101
 20
74.026125058619755
 30
0.0
 11
25.981285000000291
 21
74.026125058619755
 31
0.0
  0
LINE
  5
F89C
  8
0
 10
36.018715000000149
 20
74.026125058619755
 30
0.0
 11
45.61234300000023
 21
74.026125058619755
 31
0.0
  0
LINE
  5
F89D
  8
0
 10
36.018715000000149
 20
78.526125058619755
 30
0.0
 11
45.61234300000023
 21
78.526125058619755
 31
0.0
  0
ARC
  5
F89E
  8
0
 10
31.0
 20
76.276125058619755
 30
0.0
 40
7.0000037999999991
 50
18.749331999995789
 51
161.25067000000399
  0
ARC
  5
F89F
  8
0
 10
31.0
 20
76.276125058619755
 30
0.0
 40
7.0000037999999991
 50
198.74932999999589
 51
341.25067000000399
  0
POLYLINE
  5
F8A0
  8
0
 10
24.646107272318503
 20
73.843618658852947
 30
0.0
 66
     1
 70
     8
  0
VERTEX
  8
0
  5
1098D
 10
24.6461
 20
73.8436
 30
0.000000
  70
    32
  0
VERTEX
  8
0
  5
1098E
 10
24.6713
 20
73.8740
 30
0.000000
  70
    32
  0
VERTEX
  8
0
  5
1098F
 10
24.6962
 20
73.9047
 30
0.000000
  70
    32
  0
VERTEX
  8
0
  5
10990
 10
24.7207
 20
73.9358
 30
0.000000
  70
    32
  0
VERTEX
  8
0
  5
10991
 10
24.7450
 20
73.9672
 30
0.000000
  70
    32
  0
VERTEX
  8
0
  5
10992
 10
24.7689
 20
73.9990
 30
0.000000
  70
    32
  0
VERTEX
  8
0
  5
10993
 10
24.7925
 20
74.0311
 30
0.000000
  70
    32
  0
VERTEX
  8
0
  5
10994
 10
24.8157
 20
74.0635
 30
0.000000
  70
    32
  0
VERTEX
  8
0
  5
10995
 10
24.8386
 20
74.0962
 30
0.000000
  70
    32
  0
VERTEX
  8
0
  5
10996
 10
24.8611
 20
74.1292
 30
0.000000
  70
    32
  0
VERTEX
  8
0
  5
10997
 10
24.8833
 20
74.1626
 30
0.000000
  70
    32
  0
VERTEX
  8
0
  5
10998
 10
24.9052
 20
74.1962
 30
0.000000
  70
    32
  0
VERTEX
  8
0
  5
10999
 10
24.9267
 20
74.2301
 30
0.000000
  70
    32
  0
VERTEX
  8
0
  5
1099A
 10
24.9479
 20
74.2644
 30
0.000000
  70
    32
  0
VERTEX
  8
0
  5
1099B
 10
24.9687
 20
74.2989
 30
0.000000
  70
    32
  0
VERTEX
  8
0
  5
1099C
 10
24.9891
 20
74.3337
 30
0.000000
  70
    32
  0
VERTEX
  8
0
  5
1099D
 10
25.0092
 20
74.3688
 30
0.000000
  70
    32
  0
VERTEX
  8
0
  5
1099E
 10
25.0288
 20
74.4042
 30
0.000000
  70
    32
  0
VERTEX
  8
0
  5
1099F
 10
25.0482
 20
74.4399
 30
0.000000
  70
    32
  0
VERTEX
  8
0
  5
109A0
 10
25.0671
 20
74.4758
 30
0.000000
  70
    32
  0
VERTEX
  8
0
  5
109A1
 10
25.0857
 20
74.5119
 30
0.000000
  70
    32
  0
VERTEX
  8
0
  5
109A2
 10
25.1039
 20
74.5483
 30
0.000000
  70
    32
  0
VERTEX
  8
0
  5
109A3
 10
25.1217
 20
74.5850
 30
0.000000
  70
    32
  0
VERTEX
  8
0
  5
109A4
 10
25.1392
 20
74.6219
 30
0.000000
  70
    32
  0
VERTEX
  8
0
  5
109A5
 10
25.1562
 20
74.6591
 30
0.000000
  70
    32
  0
VERTEX
  8
0
  5
109A6
 10
25.1729
 20
74.6965
 30
0.000000
  70
    32
  0
VERTEX
  8
0
  5
109A7
 10
25.1892
 20
74.7341
 30
0.000000
  70
    32
  0
VERTEX
  8
0
  5
109A8
 10
25.2050
 20
74.7719
 30
0.000000
  70
    32
  0
VERTEX
  8
0
  5
109A9
 10
25.2205
 20
74.8100
 30
0.000000
  70
    32
  0
VERTEX
  8
0
  5
109AA
 10
25.2356
 20
74.8482
 30
0.000000
  70
    32
  0
VERTEX
  8
0
  5
109AB
 10
25.2503
 20
74.8867
 30
0.000000
  70
    32
  0
VERTEX
  8
0
  5
109AC
 10
25.2646
 20
74.9254
 30
0.000000
  70
    32
  0
VERTEX
  8
0
  5
109AD
 10
25.2785
 20
74.9642
 30
0.000000
  70
    32
  0
VERTEX
  8
0
  5
109AE
 10
25.2919
 20
75.0033
 30
0.000000
  70
    32
  0
VERTEX
  8
0
  5
109AF
 10
25.3050
 20
75.0425
 30
0.000000
  70
    32
  0
VERTEX
  8
0
  5
109B0
 10
25.3176
 20
75.0819
 30
0.000000
  70
    32
  0
VERTEX
  8
0
  5
109B1
 10
25.3299
 20
75.1215
 30
0.000000
  70
    32
  0
VERTEX
  8
0
  5
109B2
 10
25.3417
 20
75.1613
 30
0.000000
  70
    32
  0
VERTEX
  8
0
  5
109B3
 10
25.3531
 20
75.2012
 30
0.000000
  70
    32
  0
VERTEX
  8
0
  5
109B4
 10
25.3641
 20
75.2413
 30
0.000000
  70
    32
  0
VERTEX
  8
0
  5
109B5
 10
25.3747
 20
75.2815
 30
0.000000
  70
    32
  0
VERTEX
  8
0
  5
109B6
 10
25.3849
 20
75.3218
 30
0.000000
  70
    32
  0
VERTEX
  8
0
  5
109B7
 10
25.3946
 20
75.3623
 30
0.000000
  70
    32
  0
VERTEX
  8
0
  5
109B8
 10
25.4039
 20
75.4030
 30
0.000000
  70
    32
  0
VERTEX
  8
0
  5
109B9
 10
25.4128
 20
75.4437
 30
0.000000
  70
    32
  0
VERTEX
  8
0
  5
109BA
 10
25.4213
 20
75.4846
 30
0.000000
  70
    32
  0
VERTEX
  8
0
  5
109BB
 10
25.4293
 20
75.5256
 30
0.000000
  70
    32
  0
VERTEX
  8
0
  5
109BC
 10
25.4369
 20
75.5667
 30
0.000000
  70
    32
  0
VERTEX
  8
0
  5
109BD
 10
25.4441
 20
75.6079
 30
0.000000
  70
    32
  0
VERTEX
  8
0
  5
109BE
 10
25.4508
 20
75.6492
 30
0.000000
  70
    32
  0
VERTEX
  8
0
  5
109BF
 10
25.4572
 20
75.6906
 30
0.000000
  70
    32
  0
VERTEX
  8
0
  5
109C0
 10
25.4631
 20
75.7320
 30
0.000000
  70
    32
  0
VERTEX
  8
0
  5
109C1
 10
25.4685
 20
75.7736
 30
0.000000
  70
    32
  0
VERTEX
  8
0
  5
109C2
 10
25.4735
 20
75.8152
 30
0.000000
  70
    32
  0
VERTEX
  8
0
  5
109C3
 10
25.4781
 20
75.8569
 30
0.000000
  70
    32
  0
VERTEX
  8
0
  5
109C4
 10
25.4823
 20
75.8987
 30
0.000000
  70
    32
  0
VERTEX
  8
0
  5
109C5
 10
25.4860
 20
75.9405
 30
0.000000
  70
    32
  0
VERTEX
  8
0
  5
109C6
 10
25.4893
 20
75.9823
 30
0.000000
  70
    32
  0
VERTEX
  8
0
  5
109C7
 10
25.4921
 20
76.0242
 30
0.000000
  70
    32
  0
VERTEX
  8
0
  5
109C8
 10
25.4945
 20
76.0661
 30
0.000000
  70
    32
  0
VERTEX
  8
0
  5
109C9
 10
25.4965
 20
76.1081
 30
0.000000
  70
    32
  0
VERTEX
  8
0
  5
109CA
 10
25.4980
 20
76.1501
 30
0.000000
  70
    32
  0
VERTEX
  8
0
  5
109CB
 10
25.4991
 20
76.1921
 30
0.000000
  70
    32
  0
VERTEX
  8
0
  5
109CC
 10
25.4998
 20
76.2341
 30
0.000000
  70
    32
  0
VERTEX
  8
0
  5
109CD
 10
25.5000
 20
76.2761
 30
0.000000
  70
    32
  0
VERTEX
  8
0
  5
109CE
 10
25.4998
 20
76.3181
 30
0.000000
  70
    32
  0
VERTEX
  8
0
  5
109CF
 10
25.4991
 20
76.3602
 30
0.000000
  70
    32
  0
VERTEX
  8
0
  5
109D0
 10
25.4980
 20
76.4022
 30
0.000000
  70
    32
  0
VERTEX
  8
0
  5
109D1
 10
25.4965
 20
76.4442
 30
0.000000
  70
    32
  0
VERTEX
  8
0
  5
109D2
 10
25.4945
 20
76.4861
 30
0.000000
  70
    32
  0
VERTEX
  8
0
  5
109D3
 10
25.4921
 20
76.5280
 30
0.000000
  70
    32
  0
VERTEX
  8
0
  5
109D4
 10
25.4893
 20
76.5699
 30
0.000000
  70
    32
  0
VERTEX
  8
0
  5
109D5
 10
25.4860
 20
76.6118
 30
0.000000
  70
    32
  0
VERTEX
  8
0
  5
109D6
 10
25.4823
 20
76.6536
 30
0.000000
  70
    32
  0
VERTEX
  8
0
  5
109D7
 10
25.4781
 20
76.6953
 30
0.000000
  70
    32
  0
VERTEX
  8
0
  5
109D8
 10
25.4735
 20
76.7370
 30
0.000000
  70
    32
  0
VERTEX
  8
0
  5
109D9
 10
25.4685
 20
76.7787
 30
0.000000
  70
    32
  0
VERTEX
  8
0
  5
109DA
 10
25.4631
 20
76.8202
 30
0.000000
  70
    32
  0
VERTEX
  8
0
  5
109DB
 10
25.4572
 20
76.8617
 30
0.000000
  70
    32
  0
VERTEX
  8
0
  5
109DC
 10
25.4508
 20
76.9031
 30
0.000000
  70
    32
  0
VERTEX
  8
0
  5
109DD
 10
25.4441
 20
76.9444
 30
0.000000
  70
    32
  0
VERTEX
  8
0
  5
109DE
 10
25.4369
 20
76.9856
 30
0.000000
  70
    32
  0
VERTEX
  8
0
  5
109DF
 10
25.4293
 20
77.0267
 30
0.000000
  70
    32
  0
VERTEX
  8
0
  5
109E0
 10
25.4213
 20
77.0677
 30
0.000000
  70
    32
  0
VERTEX
  8
0
  5
109E1
 10
25.4128
 20
77.1085
 30
0.000000
  70
    32
  0
VERTEX
  8
0
  5
109E2
 10
25.4039
 20
77.1493
 30
0.000000
  70
    32
  0
VERTEX
  8
0
  5
109E3
 10
25.3946
 20
77.1899
 30
0.000000
  70
    32
  0
VERTEX
  8
0
  5
109E4
 10
25.3849
 20
77.2304
 30
0.000000
  70
    32
  0
VERTEX
  8
0
  5
109E5
 10
25.3747
 20
77.2708
 30
0.000000
  70
    32
  0
VERTEX
  8
0
  5
109E6
 10
25.3641
 20
77.3110
 30
0.000000
  70
    32
  0
VERTEX
  8
0
  5
109E7
 10
25.3531
 20
77.3511
 30
0.000000
  70
    32
  0
VERTEX
  8
0
  5
109E8
 10
25.3417
 20
77.3910
 30
0.000000
  70
    32
  0
VERTEX
  8
0
  5
109E9
 10
25.3299
 20
77.4307
 30
0.000000
  70
    32
  0
VERTEX
  8
0
  5
109EA
 10
25.3176
 20
77.4703
 30
0.000000
  70
    32
  0
VERTEX
  8
0
  5
109EB
 10
25.3050
 20
77.5097
 30
0.000000
  70
    32
  0
VERTEX
  8
0
  5
109EC
 10
25.2919
 20
77.5490
 30
0.000000
  70
    32
  0
VERTEX
  8
0
  5
109ED
 10
25.2785
 20
77.5880
 30
0.000000
  70
    32
  0
VERTEX
  8
0
  5
109EE
 10
25.2646
 20
77.6269
 30
0.000000
  70
    32
  0
VERTEX
  8
0
  5
109EF
 10
25.2503
 20
77.6656
 30
0.000000
  70
    32
  0
VERTEX
  8
0
  5
109F0
 10
25.2356
 20
77.7040
 30
0.000000
  70
    32
  0
VERTEX
  8
0
  5
109F1
 10
25.2205
 20
77.7423
 30
0.000000
  70
    32
  0
VERTEX
  8
0
  5
109F2
 10
25.2050
 20
77.7803
 30
0.000000
  70
    32
  0
VERTEX
  8
0
  5
109F3
 10
25.1892
 20
77.8182
 30
0.000000
  70
    32
  0
VERTEX
  8
0
  5
109F4
 10
25.1729
 20
77.8558
 30
0.000000
  70
    32
  0
VERTEX
  8
0
  5
109F5
 10
25.1562
 20
77.8932
 30
0.000000
  70
    32
  0
VERTEX
  8
0
  5
109F6
 10
25.1392
 20
77.9303
 30
0.000000
  70
    32
  0
VERTEX
  8
0
  5
109F7
 10
25.1217
 20
77.9672
 30
0.000000
  70
    32
  0
VERTEX
  8
0
  5
109F8
 10
25.1039
 20
78.0039
 30
0.000000
  70
    32
  0
VERTEX
  8
0
  5
109F9
 10
25.0857
 20
78.0403
 30
0.000000
  70
    32
  0
VERTEX
  8
0
  5
109FA
 10
25.0671
 20
78.0765
 30
0.000000
  70
    32
  0
VERTEX
  8
0
  5
109FB
 10
25.0482
 20
78.1124
 30
0.000000
  70
    32
  0
VERTEX
  8
0
  5
109FC
 10
25.0288
 20
78.1480
 30
0.000000
  70
    32
  0
VERTEX
  8
0
  5
109FD
 10
25.0092
 20
78.1834
 30
0.000000
  70
    32
  0
VERTEX
  8
0
  5
109FE
 10
24.9891
 20
78.2185
 30
0.000000
  70
    32
  0
VERTEX
  8
0
  5
109FF
 10
24.9687
 20
78.2533
 30
0.000000
  70
    32
  0
VERTEX
  8
0
  5
10A00
 10
24.9479
 20
78.2879
 30
0.000000
  70
    32
  0
VERTEX
  8
0
  5
10A01
 10
24.9267
 20
78.3221
 30
0.000000
  70
    32
  0
VERTEX
  8
0
  5
10A02
 10
24.9052
 20
78.3560
 30
0.000000
  70
    32
  0
VERTEX
  8
0
  5
10A03
 10
24.8833
 20
78.3897
 30
0.000000
  70
    32
  0
VERTEX
  8
0
  5
10A04
 10
24.8611
 20
78.4230
 30
0.000000
  70
    32
  0
VERTEX
  8
0
  5
10A05
 10
24.8386
 20
78.4561
 30
0.000000
  70
    32
  0
VERTEX
  8
0
  5
10A06
 10
24.8157
 20
78.4888
 30
0.000000
  70
    32
  0
VERTEX
  8
0
  5
10A07
 10
24.7925
 20
78.5212
 30
0.000000
  70
    32
  0
VERTEX
  8
0
  5
10A08
 10
24.7689
 20
78.5533
 30
0.000000
  70
    32
  0
VERTEX
  8
0
  5
10A09
 10
24.7450
 20
78.5850
 30
0.000000
  70
    32
  0
VERTEX
  8
0
  5
10A0A
 10
24.7207
 20
78.6164
 30
0.000000
  70
    32
  0
VERTEX
  8
0
  5
10A0B
 10
24.6962
 20
78.6475
 30
0.000000
  70
    32
  0
VERTEX
  8
0
  5
10A0C
 10
24.6713
 20
78.6782
 30
0.000000
  70
    32
  0
VERTEX
  8
0
  5
10A0D
 10
24.6461
 20
78.7086
 30
0.000000
  70
    32
  0
SEQEND
  8
0
  5
10A0E
  0
POLYLINE
  5
F8A1
  8
0
 10
45.401915269674582
 20
73.746329576849661
 30
0.0
 66
     1
 70
     8
  0
VERTEX
  8
0
  5
10A0F
 10
45.4019
 20
73.7463
 30
0.000000
  70
    32
  0
VERTEX
  8
0
  5
10A10
 10
45.4274
 20
73.7771
 30
0.000000
  70
    32
  0
VERTEX
  8
0
  5
10A11
 10
45.4525
 20
73.8082
 30
0.000000
  70
    32
  0
VERTEX
  8
0
  5
10A12
 10
45.4774
 20
73.8397
 30
0.000000
  70
    32
  0
VERTEX
  8
0
  5
10A13
 10
45.5019
 20
73.8716
 30
0.000000
  70
    32
  0
VERTEX
  8
0
  5
10A14
 10
45.5261
 20
73.9039
 30
0.000000
  70
    32
  0
VERTEX
  8
0
  5
10A15
 10
45.5499
 20
73.9366
 30
0.000000
  70
    32
  0
VERTEX
  8
0
  5
10A16
 10
45.5735
 20
73.9696
 30
0.000000
  70
    32
  0
VERTEX
  8
0
  5
10A17
 10
45.5967
 20
74.0030
 30
0.000000
  70
    32
  0
VERTEX
  8
0
  5
10A18
 10
45.6195
 20
74.0368
 30
0.000000
  70
    32
  0
VERTEX
  8
0
  5
10A19
 10
45.6420
 20
74.0709
 30
0.000000
  70
    32
  0
VERTEX
  8
0
  5
10A1A
 10
45.6642
 20
74.1054
 30
0.000000
  70
    32
  0
VERTEX
  8
0
  5
10A1B
 10
45.6860
 20
74.1403
 30
0.000000
  70
    32
  0
VERTEX
  8
0
  5
10A1C
 10
45.7074
 20
74.1754
 30
0.000000
  70
    32
  0
VERTEX
  8
0
  5
10A1D
 10
45.7285
 20
74.2109
 30
0.000000
  70
    32
  0
VERTEX
  8
0
  5
10A1E
 10
45.7493
 20
74.2468
 30
0.000000
  70
    32
  0
VERTEX
  8
0
  5
10A1F
 10
45.7697
 20
74.2829
 30
0.000000
  70
    32
  0
VERTEX
  8
0
  5
10A20
 10
45.7897
 20
74.3194
 30
0.000000
  70
    32
  0
VERTEX
  8
0
  5
10A21
 10
45.8093
 20
74.3562
 30
0.000000
  70
    32
  0
VERTEX
  8
0
  5
10A22
 10
45.8285
 20
74.3933
 30
0.000000
  70
    32
  0
VERTEX
  8
0
  5
10A23
 10
45.8474
 20
74.4307
 30
0.000000
  70
    32
  0
VERTEX
  8
0
  5
10A24
 10
45.8659
 20
74.4683
 30
0.000000
  70
    32
  0
VERTEX
  8
0
  5
10A25
 10
45.8840
 20
74.5063
 30
0.000000
  70
    32
  0
VERTEX
  8
0
  5
10A26
 10
45.9018
 20
74.5446
 30
0.000000
  70
    32
  0
VERTEX
  8
0
  5
10A27
 10
45.9191
 20
74.5831
 30
0.000000
  70
    32
  0
VERTEX
  8
0
  5
10A28
 10
45.9361
 20
74.6219
 30
0.000000
  70
    32
  0
VERTEX
  8
0
  5
10A29
 10
45.9526
 20
74.6610
 30
0.000000
  70
    32
  0
VERTEX
  8
0
  5
10A2A
 10
45.9688
 20
74.7003
 30
0.000000
  70
    32
  0
VERTEX
  8
0
  5
10A2B
 10
45.9845
 20
74.7399
 30
0.000000
  70
    32
  0
VERTEX
  8
0
  5
10A2C
 10
45.9999
 20
74.7797
 30
0.000000
  70
    32
  0
VERTEX
  8
0
  5
10A2D
 10
46.0149
 20
74.8197
 30
0.000000
  70
    32
  0
VERTEX
  8
0
  5
10A2E
 10
46.0294
 20
74.8600
 30
0.000000
  70
    32
  0
VERTEX
  8
0
  5
10A2F
 10
46.0435
 20
74.9005
 30
0.000000
  70
    32
  0
VERTEX
  8
0
  5
10A30
 10
46.0573
 20
74.9413
 30
0.000000
  70
    32
  0
VERTEX
  8
0
  5
10A31
 10
46.0706
 20
74.9822
 30
0.000000
  70
    32
  0
VERTEX
  8
0
  5
10A32
 10
46.0835
 20
75.0234
 30
0.000000
  70
    32
  0
VERTEX
  8
0
  5
10A33
 10
46.0960
 20
75.0647
 30
0.000000
  70
    32
  0
VERTEX
  8
0
  5
10A34
 10
46.1080
 20
75.1063
 30
0.000000
  70
    32
  0
VERTEX
  8
0
  5
10A35
 10
46.1197
 20
75.1480
 30
0.000000
  70
    32
  0
VERTEX
  8
0
  5
10A36
 10
46.1309
 20
75.1899
 30
0.000000
  70
    32
  0
VERTEX
  8
0
  5
10A37
 10
46.1417
 20
75.2320
 30
0.000000
  70
    32
  0
VERTEX
  8
0
  5
10A38
 10
46.1520
 20
75.2742
 30
0.000000
  70
    32
  0
VERTEX
  8
0
  5
10A39
 10
46.1620
 20
75.3166
 30
0.000000
  70
    32
  0
VERTEX
  8
0
  5
10A3A
 10
46.1715
 20
75.3592
 30
0.000000
  70
    32
  0
VERTEX
  8
0
  5
10A3B
 10
46.1805
 20
75.4019
 30
0.000000
  70
    32
  0
VERTEX
  8
0
  5
10A3C
 10
46.1892
 20
75.4447
 30
0.000000
  70
    32
  0
VERTEX
  8
0
  5
10A3D
 10
46.1974
 20
75.4877
 30
0.000000
  70
    32
  0
VERTEX
  8
0
  5
10A3E
 10
46.2051
 20
75.5308
 30
0.000000
  70
    32
  0
VERTEX
  8
0
  5
10A3F
 10
46.2125
 20
75.5741
 30
0.000000
  70
    32
  0
VERTEX
  8
0
  5
10A40
 10
46.2194
 20
75.6174
 30
0.000000
  70
    32
  0
VERTEX
  8
0
  5
10A41
 10
46.2258
 20
75.6608
 30
0.000000
  70
    32
  0
VERTEX
  8
0
  5
10A42
 10
46.2318
 20
75.7044
 30
0.000000
  70
    32
  0
VERTEX
  8
0
  5
10A43
 10
46.2374
 20
75.7480
 30
0.000000
  70
    32
  0
VERTEX
  8
0
  5
10A44
 10
46.2425
 20
75.7917
 30
0.000000
  70
    32
  0
VERTEX
  8
0
  5
10A45
 10
46.2472
 20
75.8355
 30
0.000000
  70
    32
  0
VERTEX
  8
0
  5
10A46
 10
46.2514
 20
75.8794
 30
0.000000
  70
    32
  0
VERTEX
  8
0
  5
10A47
 10
46.2552
 20
75.9233
 30
0.000000
  70
    32
  0
VERTEX
  8
0
  5
10A48
 10
46.2586
 20
75.9673
 30
0.000000
  70
    32
  0
VERTEX
  8
0
  5
10A49
 10
46.2615
 20
76.0113
 30
0.000000
  70
    32
  0
VERTEX
  8
0
  5
10A4A
 10
46.2640
 20
76.0554
 30
0.000000
  70
    32
  0
VERTEX
  8
0
  5
10A4B
 10
46.2660
 20
76.0995
 30
0.000000
  70
    32
  0
VERTEX
  8
0
  5
10A4C
 10
46.2675
 20
76.1436
 30
0.000000
  70
    32
  0
VERTEX
  8
0
  5
10A4D
 10
46.2687
 20
76.1878
 30
0.000000
  70
    32
  0
VERTEX
  8
0
  5
10A4E
 10
46.2693
 20
76.2319
 30
0.000000
  70
    32
  0
VERTEX
  8
0
  5
10A4F
 10
46.2695
 20
76.2761
 30
0.000000
  70
    32
  0
VERTEX
  8
0
  5
10A50
 10
46.2693
 20
76.3203
 30
0.000000
  70
    32
  0
VERTEX
  8
0
  5
10A51
 10
46.2687
 20
76.3645
 30
0.000000
  70
    32
  0
VERTEX
  8
0
  5
10A52
 10
46.2675
 20
76.4086
 30
0.000000
  70
    32
  0
VERTEX
  8
0
  5
10A53
 10
46.2660
 20
76.4528
 30
0.000000
  70
    32
  0
VERTEX
  8
0
  5
10A54
 10
46.2640
 20
76.4969
 30
0.000000
  70
    32
  0
VERTEX
  8
0
  5
10A55
 10
46.2615
 20
76.5409
 30
0.000000
  70
    32
  0
VERTEX
  8
0
  5
10A56
 10
46.2586
 20
76.5850
 30
0.000000
  70
    32
  0
VERTEX
  8
0
  5
10A57
 10
46.2552
 20
76.6290
 30
0.000000
  70
    32
  0
VERTEX
  8
0
  5
10A58
 10
46.2514
 20
76.6729
 30
0.000000
  70
    32
  0
VERTEX
  8
0
  5
10A59
 10
46.2472
 20
76.7167
 30
0.000000
  70
    32
  0
VERTEX
  8
0
  5
10A5A
 10
46.2425
 20
76.7605
 30
0.000000
  70
    32
  0
VERTEX
  8
0
  5
10A5B
 10
46.2374
 20
76.8042
 30
0.000000
  70
    32
  0
VERTEX
  8
0
  5
10A5C
 10
46.2318
 20
76.8479
 30
0.000000
  70
    32
  0
VERTEX
  8
0
  5
10A5D
 10
46.2258
 20
76.8914
 30
0.000000
  70
    32
  0
VERTEX
  8
0
  5
10A5E
 10
46.2194
 20
76.9349
 30
0.000000
  70
    32
  0
VERTEX
  8
0
  5
10A5F
 10
46.2125
 20
76.9782
 30
0.000000
  70
    32
  0
VERTEX
  8
0
  5
10A60
 10
46.2051
 20
77.0214
 30
0.000000
  70
    32
  0
VERTEX
  8
0
  5
10A61
 10
46.1974
 20
77.0645
 30
0.000000
  70
    32
  0
VERTEX
  8
0
  5
10A62
 10
46.1892
 20
77.1075
 30
0.000000
  70
    32
  0
VERTEX
  8
0
  5
10A63
 10
46.1805
 20
77.1504
 30
0.000000
  70
    32
  0
VERTEX
  8
0
  5
10A64
 10
46.1715
 20
77.1931
 30
0.000000
  70
    32
  0
VERTEX
  8
0
  5
10A65
 10
46.1620
 20
77.2356
 30
0.000000
  70
    32
  0
VERTEX
  8
0
  5
10A66
 10
46.1520
 20
77.2780
 30
0.000000
  70
    32
  0
VERTEX
  8
0
  5
10A67
 10
46.1417
 20
77.3203
 30
0.000000
  70
    32
  0
VERTEX
  8
0
  5
10A68
 10
46.1309
 20
77.3624
 30
0.000000
  70
    32
  0
VERTEX
  8
0
  5
10A69
 10
46.1197
 20
77.4043
 30
0.000000
  70
    32
  0
VERTEX
  8
0
  5
10A6A
 10
46.1080
 20
77.4460
 30
0.000000
  70
    32
  0
VERTEX
  8
0
  5
10A6B
 10
46.0960
 20
77.4875
 30
0.000000
  70
    32
  0
VERTEX
  8
0
  5
10A6C
 10
46.0835
 20
77.5289
 30
0.000000
  70
    32
  0
VERTEX
  8
0
  5
10A6D
 10
46.0706
 20
77.5700
 30
0.000000
  70
    32
  0
VERTEX
  8
0
  5
10A6E
 10
46.0573
 20
77.6110
 30
0.000000
  70
    32
  0
VERTEX
  8
0
  5
10A6F
 10
46.0435
 20
77.6517
 30
0.000000
  70
    32
  0
VERTEX
  8
0
  5
10A70
 10
46.0294
 20
77.6922
 30
0.000000
  70
    32
  0
VERTEX
  8
0
  5
10A71
 10
46.0149
 20
77.7325
 30
0.000000
  70
    32
  0
VERTEX
  8
0
  5
10A72
 10
45.9999
 20
77.7726
 30
0.000000
  70
    32
  0
VERTEX
  8
0
  5
10A73
 10
45.9845
 20
77.8124
 30
0.000000
  70
    32
  0
VERTEX
  8
0
  5
10A74
 10
45.9688
 20
77.8520
 30
0.000000
  70
    32
  0
VERTEX
  8
0
  5
10A75
 10
45.9526
 20
77.8913
 30
0.000000
  70
    32
  0
VERTEX
  8
0
  5
10A76
 10
45.9361
 20
77.9304
 30
0.000000
  70
    32
  0
VERTEX
  8
0
  5
10A77
 10
45.9191
 20
77.9692
 30
0.000000
  70
    32
  0
VERTEX
  8
0
  5
10A78
 10
45.9018
 20
78.0077
 30
0.000000
  70
    32
  0
VERTEX
  8
0
  5
10A79
 10
45.8840
 20
78.0459
 30
0.000000
  70
    32
  0
VERTEX
  8
0
  5
10A7A
 10
45.8659
 20
78.0839
 30
0.000000
  70
    32
  0
VERTEX
  8
0
  5
10A7B
 10
45.8474
 20
78.1216
 30
0.000000
  70
    32
  0
VERTEX
  8
0
  5
10A7C
 10
45.8285
 20
78.1590
 30
0.000000
  70
    32
  0
VERTEX
  8
0
  5
10A7D
 10
45.8093
 20
78.1961
 30
0.000000
  70
    32
  0
VERTEX
  8
0
  5
10A7E
 10
45.7897
 20
78.2329
 30
0.000000
  70
    32
  0
VERTEX
  8
0
  5
10A7F
 10
45.7696
 20
78.2693
 30
0.000000
  70
    32
  0
VERTEX
  8
0
  5
10A80
 10
45.7493
 20
78.3055
 30
0.000000
  70
    32
  0
VERTEX
  8
0
  5
10A81
 10
45.7285
 20
78.3413
 30
0.000000
  70
    32
  0
VERTEX
  8
0
  5
10A82
 10
45.7074
 20
78.3768
 30
0.000000
  70
    32
  0
VERTEX
  8
0
  5
10A83
 10
45.6860
 20
78.4120
 30
0.000000
  70
    32
  0
VERTEX
  8
0
  5
10A84
 10
45.6642
 20
78.4468
 30
0.000000
  70
    32
  0
VERTEX
  8
0
  5
10A85
 10
45.6420
 20
78.4813
 30
0.000000
  70
    32
  0
VERTEX
  8
0
  5
10A86
 10
45.6195
 20
78.5154
 30
0.000000
  70
    32
  0
VERTEX
  8
0
  5
10A87
 10
45.5967
 20
78.5492
 30
0.000000
  70
    32
  0
VERTEX
  8
0
  5
10A88
 10
45.5735
 20
78.5826
 30
0.000000
  70
    32
  0
VERTEX
  8
0
  5
10A89
 10
45.5499
 20
78.6157
 30
0.000000
  70
    32
  0
VERTEX
  8
0
  5
10A8A
 10
45.5261
 20
78.6483
 30
0.000000
  70
    32
  0
VERTEX
  8
0
  5
10A8B
 10
45.5019
 20
78.6806
 30
0.000000
  70
    32
  0
VERTEX
  8
0
  5
10A8C
 10
45.4774
 20
78.7125
 30
0.000000
  70
    32
  0
VERTEX
  8
0
  5
10A8D
 10
45.4525
 20
78.7441
 30
0.000000
  70
    32
  0
VERTEX
  8
0
  5
10A8E
 10
45.4274
 20
78.7752
 30
0.000000
  70
    32
  0
VERTEX
  8
0
  5
10A8F
 10
45.4019
 20
78.8059
 30
0.000000
  70
    32
  0
SEQEND
  8
0
  5
10A90
  0
POLYLINE
  5
F8A2
  8
0
 10
37.353891105778885
 20
78.708631908902063
 30
0.0
 66
     1
 70
     8
  0
VERTEX
  8
0
  5
10A91
 10
37.3539
 20
78.7086
 30
0.000000
  70
    32
  0
VERTEX
  8
0
  5
10A92
 10
37.3287
 20
78.6782
 30
0.000000
  70
    32
  0
VERTEX
  8
0
  5
10A93
 10
37.3038
 20
78.6475
 30
0.000000
  70
    32
  0
VERTEX
  8
0
  5
10A94
 10
37.2793
 20
78.6164
 30
0.000000
  70
    32
  0
VERTEX
  8
0
  5
10A95
 10
37.2550
 20
78.5850
 30
0.000000
  70
    32
  0
VERTEX
  8
0
  5
10A96
 10
37.2311
 20
78.5533
 30
0.000000
  70
    32
  0
VERTEX
  8
0
  5
10A97
 10
37.2075
 20
78.5212
 30
0.000000
  70
    32
  0
VERTEX
  8
0
  5
10A98
 10
37.1843
 20
78.4888
 30
0.000000
  70
    32
  0
VERTEX
  8
0
  5
10A99
 10
37.1614
 20
78.4561
 30
0.000000
  70
    32
  0
VERTEX
  8
0
  5
10A9A
 10
37.1389
 20
78.4230
 30
0.000000
  70
    32
  0
VERTEX
  8
0
  5
10A9B
 10
37.1166
 20
78.3897
 30
0.000000
  70
    32
  0
VERTEX
  8
0
  5
10A9C
 10
37.0948
 20
78.3560
 30
0.000000
  70
    32
  0
VERTEX
  8
0
  5
10A9D
 10
37.0733
 20
78.3221
 30
0.000000
  70
    32
  0
VERTEX
  8
0
  5
10A9E
 10
37.0521
 20
78.2879
 30
0.000000
  70
    32
  0
VERTEX
  8
0
  5
10A9F
 10
37.0313
 20
78.2533
 30
0.000000
  70
    32
  0
VERTEX
  8
0
  5
10AA0
 10
37.0109
 20
78.2185
 30
0.000000
  70
    32
  0
VERTEX
  8
0
  5
10AA1
 10
36.9908
 20
78.1834
 30
0.000000
  70
    32
  0
VERTEX
  8
0
  5
10AA2
 10
36.9711
 20
78.1480
 30
0.000000
  70
    32
  0
VERTEX
  8
0
  5
10AA3
 10
36.9518
 20
78.1124
 30
0.000000
  70
    32
  0
VERTEX
  8
0
  5
10AA4
 10
36.9329
 20
78.0765
 30
0.000000
  70
    32
  0
VERTEX
  8
0
  5
10AA5
 10
36.9143
 20
78.0403
 30
0.000000
  70
    32
  0
VERTEX
  8
0
  5
10AA6
 10
36.8961
 20
78.0039
 30
0.000000
  70
    32
  0
VERTEX
  8
0
  5
10AA7
 10
36.8783
 20
77.9672
 30
0.000000
  70
    32
  0
VERTEX
  8
0
  5
10AA8
 10
36.8608
 20
77.9303
 30
0.000000
  70
    32
  0
VERTEX
  8
0
  5
10AA9
 10
36.8438
 20
77.8932
 30
0.000000
  70
    32
  0
VERTEX
  8
0
  5
10AAA
 10
36.8271
 20
77.8558
 30
0.000000
  70
    32
  0
VERTEX
  8
0
  5
10AAB
 10
36.8108
 20
77.8182
 30
0.000000
  70
    32
  0
VERTEX
  8
0
  5
10AAC
 10
36.7950
 20
77.7803
 30
0.000000
  70
    32
  0
VERTEX
  8
0
  5
10AAD
 10
36.7795
 20
77.7423
 30
0.000000
  70
    32
  0
VERTEX
  8
0
  5
10AAE
 10
36.7644
 20
77.7040
 30
0.000000
  70
    32
  0
VERTEX
  8
0
  5
10AAF
 10
36.7497
 20
77.6656
 30
0.000000
  70
    32
  0
VERTEX
  8
0
  5
10AB0
 10
36.7354
 20
77.6269
 30
0.000000
  70
    32
  0
VERTEX
  8
0
  5
10AB1
 10
36.7215
 20
77.5880
 30
0.000000
  70
    32
  0
VERTEX
  8
0
  5
10AB2
 10
36.7081
 20
77.5490
 30
0.000000
  70
    32
  0
VERTEX
  8
0
  5
10AB3
 10
36.6950
 20
77.5097
 30
0.000000
  70
    32
  0
VERTEX
  8
0
  5
10AB4
 10
36.6824
 20
77.4703
 30
0.000000
  70
    32
  0
VERTEX
  8
0
  5
10AB5
 10
36.6701
 20
77.4307
 30
0.000000
  70
    32
  0
VERTEX
  8
0
  5
10AB6
 10
36.6583
 20
77.3910
 30
0.000000
  70
    32
  0
VERTEX
  8
0
  5
10AB7
 10
36.6469
 20
77.3511
 30
0.000000
  70
    32
  0
VERTEX
  8
0
  5
10AB8
 10
36.6359
 20
77.3110
 30
0.000000
  70
    32
  0
VERTEX
  8
0
  5
10AB9
 10
36.6253
 20
77.2708
 30
0.000000
  70
    32
  0
VERTEX
  8
0
  5
10ABA
 10
36.6151
 20
77.2304
 30
0.000000
  70
    32
  0
VERTEX
  8
0
  5
10ABB
 10
36.6054
 20
77.1899
 30
0.000000
  70
    32
  0
VERTEX
  8
0
  5
10ABC
 10
36.5961
 20
77.1493
 30
0.000000
  70
    32
  0
VERTEX
  8
0
  5
10ABD
 10
36.5872
 20
77.1085
 30
0.000000
  70
    32
  0
VERTEX
  8
0
  5
10ABE
 10
36.5787
 20
77.0677
 30
0.000000
  70
    32
  0
VERTEX
  8
0
  5
10ABF
 10
36.5707
 20
77.0267
 30
0.000000
  70
    32
  0
VERTEX
  8
0
  5
10AC0
 10
36.5631
 20
76.9856
 30
0.000000
  70
    32
  0
VERTEX
  8
0
  5
10AC1
 10
36.5559
 20
76.9444
 30
0.000000
  70
    32
  0
VERTEX
  8
0
  5
10AC2
 10
36.5491
 20
76.9031
 30
0.000000
  70
    32
  0
VERTEX
  8
0
  5
10AC3
 10
36.5428
 20
76.8617
 30
0.000000
  70
    32
  0
VERTEX
  8
0
  5
10AC4
 10
36.5369
 20
76.8202
 30
0.000000
  70
    32
  0
VERTEX
  8
0
  5
10AC5
 10
36.5315
 20
76.7787
 30
0.000000
  70
    32
  0
VERTEX
  8
0
  5
10AC6
 10
36.5265
 20
76.7370
 30
0.000000
  70
    32
  0
VERTEX
  8
0
  5
10AC7
 10
36.5219
 20
76.6953
 30
0.000000
  70
    32
  0
VERTEX
  8
0
  5
10AC8
 10
36.5177
 20
76.6536
 30
0.000000
  70
    32
  0
VERTEX
  8
0
  5
10AC9
 10
36.5140
 20
76.6118
 30
0.000000
  70
    32
  0
VERTEX
  8
0
  5
10ACA
 10
36.5107
 20
76.5699
 30
0.000000
  70
    32
  0
VERTEX
  8
0
  5
10ACB
 10
36.5079
 20
76.5280
 30
0.000000
  70
    32
  0
VERTEX
  8
0
  5
10ACC
 10
36.5055
 20
76.4861
 30
0.000000
  70
    32
  0
VERTEX
  8
0
  5
10ACD
 10
36.5035
 20
76.4442
 30
0.000000
  70
    32
  0
VERTEX
  8
0
  5
10ACE
 10
36.5020
 20
76.4022
 30
0.000000
  70
    32
  0
VERTEX
  8
0
  5
10ACF
 10
36.5009
 20
76.3602
 30
0.000000
  70
    32
  0
VERTEX
  8
0
  5
10AD0
 10
36.5002
 20
76.3181
 30
0.000000
  70
    32
  0
VERTEX
  8
0
  5
10AD1
 10
36.5000
 20
76.2761
 30
0.000000
  70
    32
  0
VERTEX
  8
0
  5
10AD2
 10
36.5002
 20
76.2341
 30
0.000000
  70
    32
  0
VERTEX
  8
0
  5
10AD3
 10
36.5009
 20
76.1921
 30
0.000000
  70
    32
  0
VERTEX
  8
0
  5
10AD4
 10
36.5020
 20
76.1501
 30
0.000000
  70
    32
  0
VERTEX
  8
0
  5
10AD5
 10
36.5035
 20
76.1081
 30
0.000000
  70
    32
  0
VERTEX
  8
0
  5
10AD6
 10
36.5055
 20
76.0661
 30
0.000000
  70
    32
  0
VERTEX
  8
0
  5
10AD7
 10
36.5079
 20
76.0242
 30
0.000000
  70
    32
  0
VERTEX
  8
0
  5
10AD8
 10
36.5107
 20
75.9823
 30
0.000000
  70
    32
  0
VERTEX
  8
0
  5
10AD9
 10
36.5140
 20
75.9405
 30
0.000000
  70
    32
  0
VERTEX
  8
0
  5
10ADA
 10
36.5177
 20
75.8987
 30
0.000000
  70
    32
  0
VERTEX
  8
0
  5
10ADB
 10
36.5219
 20
75.8569
 30
0.000000
  70
    32
  0
VERTEX
  8
0
  5
10ADC
 10
36.5265
 20
75.8152
 30
0.000000
  70
    32
  0
VERTEX
  8
0
  5
10ADD
 10
36.5315
 20
75.7736
 30
0.000000
  70
    32
  0
VERTEX
  8
0
  5
10ADE
 10
36.5369
 20
75.7320
 30
0.000000
  70
    32
  0
VERTEX
  8
0
  5
10ADF
 10
36.5428
 20
75.6906
 30
0.000000
  70
    32
  0
VERTEX
  8
0
  5
10AE0
 10
36.5491
 20
75.6492
 30
0.000000
  70
    32
  0
VERTEX
  8
0
  5
10AE1
 10
36.5559
 20
75.6079
 30
0.000000
  70
    32
  0
VERTEX
  8
0
  5
10AE2
 10
36.5631
 20
75.5667
 30
0.000000
  70
    32
  0
VERTEX
  8
0
  5
10AE3
 10
36.5707
 20
75.5256
 30
0.000000
  70
    32
  0
VERTEX
  8
0
  5
10AE4
 10
36.5787
 20
75.4846
 30
0.000000
  70
    32
  0
VERTEX
  8
0
  5
10AE5
 10
36.5872
 20
75.4437
 30
0.000000
  70
    32
  0
VERTEX
  8
0
  5
10AE6
 10
36.5961
 20
75.4030
 30
0.000000
  70
    32
  0
VERTEX
  8
0
  5
10AE7
 10
36.6054
 20
75.3623
 30
0.000000
  70
    32
  0
VERTEX
  8
0
  5
10AE8
 10
36.6151
 20
75.3218
 30
0.000000
  70
    32
  0
VERTEX
  8
0
  5
10AE9
 10
36.6253
 20
75.2815
 30
0.000000
  70
    32
  0
VERTEX
  8
0
  5
10AEA
 10
36.6359
 20
75.2413
 30
0.000000
  70
    32
  0
VERTEX
  8
0
  5
10AEB
 10
36.6469
 20
75.2012
 30
0.000000
  70
    32
  0
VERTEX
  8
0
  5
10AEC
 10
36.6583
 20
75.1613
 30
0.000000
  70
    32
  0
VERTEX
  8
0
  5
10AED
 10
36.6701
 20
75.1215
 30
0.000000
  70
    32
  0
VERTEX
  8
0
  5
10AEE
 10
36.6824
 20
75.0819
 30
0.000000
  70
    32
  0
VERTEX
  8
0
  5
10AEF
 10
36.6950
 20
75.0425
 30
0.000000
  70
    32
  0
VERTEX
  8
0
  5
10AF0
 10
36.7081
 20
75.0033
 30
0.000000
  70
    32
  0
VERTEX
  8
0
  5
10AF1
 10
36.7215
 20
74.9642
 30
0.000000
  70
    32
  0
VERTEX
  8
0
  5
10AF2
 10
36.7354
 20
74.9254
 30
0.000000
  70
    32
  0
VERTEX
  8
0
  5
10AF3
 10
36.7497
 20
74.8867
 30
0.000000
  70
    32
  0
VERTEX
  8
0
  5
10AF4
 10
36.7644
 20
74.8482
 30
0.000000
  70
    32
  0
VERTEX
  8
0
  5
10AF5
 10
36.7795
 20
74.8100
 30
0.000000
  70
    32
  0
VERTEX
  8
0
  5
10AF6
 10
36.7950
 20
74.7719
 30
0.000000
  70
    32
  0
VERTEX
  8
0
  5
10AF7
 10
36.8108
 20
74.7341
 30
0.000000
  70
    32
  0
VERTEX
  8
0
  5
10AF8
 10
36.8271
 20
74.6965
 30
0.000000
  70
    32
  0
VERTEX
  8
0
  5
10AF9
 10
36.8438
 20
74.6591
 30
0.000000
  70
    32
  0
VERTEX
  8
0
  5
10AFA
 10
36.8608
 20
74.6219
 30
0.000000
  70
    32
  0
VERTEX
  8
0
  5
10AFB
 10
36.8783
 20
74.5850
 30
0.000000
  70
    32
  0
VERTEX
  8
0
  5
10AFC
 10
36.8961
 20
74.5483
 30
0.000000
  70
    32
  0
VERTEX
  8
0
  5
10AFD
 10
36.9143
 20
74.5119
 30
0.000000
  70
    32
  0
VERTEX
  8
0
  5
10AFE
 10
36.9329
 20
74.4758
 30
0.000000
  70
    32
  0
VERTEX
  8
0
  5
10AFF
 10
36.9518
 20
74.4399
 30
0.000000
  70
    32
  0
VERTEX
  8
0
  5
10B00
 10
36.9711
 20
74.4042
 30
0.000000
  70
    32
  0
VERTEX
  8
0
  5
10B01
 10
36.9908
 20
74.3688
 30
0.000000
  70
    32
  0
VERTEX
  8
0
  5
10B02
 10
37.0109
 20
74.3337
 30
0.000000
  70
    32
  0
VERTEX
  8
0
  5
10B03
 10
37.0313
 20
74.2989
 30
0.000000
  70
    32
  0
VERTEX
  8
0
  5
10B04
 10
37.0521
 20
74.2644
 30
0.000000
  70
    32
  0
VERTEX
  8
0
  5
10B05
 10
37.0733
 20
74.2301
 30
0.000000
  70
    32
  0
VERTEX
  8
0
  5
10B06
 10
37.0948
 20
74.1962
 30
0.000000
  70
    32
  0
VERTEX
  8
0
  5
10B07
 10
37.1166
 20
74.1626
 30
0.000000
  70
    32
  0
VERTEX
  8
0
  5
10B08
 10
37.1389
 20
74.1292
 30
0.000000
  70
    32
  0
VERTEX
  8
0
  5
10B09
 10
37.1614
 20
74.0962
 30
0.000000
  70
    32
  0
VERTEX
  8
0
  5
10B0A
 10
37.1843
 20
74.0635
 30
0.000000
  70
    32
  0
VERTEX
  8
0
  5
10B0B
 10
37.2075
 20
74.0311
 30
0.000000
  70
    32
  0
VERTEX
  8
0
  5
10B0C
 10
37.2311
 20
73.9990
 30
0.000000
  70
    32
  0
VERTEX
  8
0
  5
10B0D
 10
37.2550
 20
73.9672
 30
0.000000
  70
    32
  0
VERTEX
  8
0
  5
10B0E
 10
37.2793
 20
73.9358
 30
0.000000
  70
    32
  0
VERTEX
  8
0
  5
10B0F
 10
37.3038
 20
73.9047
 30
0.000000
  70
    32
  0
VERTEX
  8
0
  5
10B10
 10
37.3287
 20
73.8740
 30
0.000000
  70
    32
  0
VERTEX
  8
0
  5
10B11
 10
37.3539
 20
73.8436
 30
0.000000
  70
    32
  0
SEQEND
  8
0
  5
10B12
  0
POLYLINE
  5
F8A3
  8
0
 10
16.598086961523549
 20
78.805923198937762
 30
0.0
 66
     1
 70
     8
  0
VERTEX
  8
0
  5
10B13
 10
16.5981
 20
78.8059
 30
0.000000
  70
    32
  0
VERTEX
  8
0
  5
10B14
 10
16.5726
 20
78.7752
 30
0.000000
  70
    32
  0
VERTEX
  8
0
  5
10B15
 10
16.5475
 20
78.7441
 30
0.000000
  70
    32
  0
VERTEX
  8
0
  5
10B16
 10
16.5226
 20
78.7125
 30
0.000000
  70
    32
  0
VERTEX
  8
0
  5
10B17
 10
16.4981
 20
78.6806
 30
0.000000
  70
    32
  0
VERTEX
  8
0
  5
10B18
 10
16.4739
 20
78.6483
 30
0.000000
  70
    32
  0
VERTEX
  8
0
  5
10B19
 10
16.4501
 20
78.6157
 30
0.000000
  70
    32
  0
VERTEX
  8
0
  5
10B1A
 10
16.4265
 20
78.5826
 30
0.000000
  70
    32
  0
VERTEX
  8
0
  5
10B1B
 10
16.4033
 20
78.5492
 30
0.000000
  70
    32
  0
VERTEX
  8
0
  5
10B1C
 10
16.3805
 20
78.5154
 30
0.000000
  70
    32
  0
VERTEX
  8
0
  5
10B1D
 10
16.3580
 20
78.4813
 30
0.000000
  70
    32
  0
VERTEX
  8
0
  5
10B1E
 10
16.3358
 20
78.4468
 30
0.000000
  70
    32
  0
VERTEX
  8
0
  5
10B1F
 10
16.3140
 20
78.4120
 30
0.000000
  70
    32
  0
VERTEX
  8
0
  5
10B20
 10
16.2926
 20
78.3768
 30
0.000000
  70
    32
  0
VERTEX
  8
0
  5
10B21
 10
16.2715
 20
78.3413
 30
0.000000
  70
    32
  0
VERTEX
  8
0
  5
10B22
 10
16.2507
 20
78.3055
 30
0.000000
  70
    32
  0
VERTEX
  8
0
  5
10B23
 10
16.2304
 20
78.2693
 30
0.000000
  70
    32
  0
VERTEX
  8
0
  5
10B24
 10
16.2103
 20
78.2329
 30
0.000000
  70
    32
  0
VERTEX
  8
0
  5
10B25
 10
16.1907
 20
78.1961
 30
0.000000
  70
    32
  0
VERTEX
  8
0
  5
10B26
 10
16.1715
 20
78.1590
 30
0.000000
  70
    32
  0
VERTEX
  8
0
  5
10B27
 10
16.1526
 20
78.1216
 30
0.000000
  70
    32
  0
VERTEX
  8
0
  5
10B28
 10
16.1341
 20
78.0839
 30
0.000000
  70
    32
  0
VERTEX
  8
0
  5
10B29
 10
16.1160
 20
78.0459
 30
0.000000
  70
    32
  0
VERTEX
  8
0
  5
10B2A
 10
16.0982
 20
78.0077
 30
0.000000
  70
    32
  0
VERTEX
  8
0
  5
10B2B
 10
16.0809
 20
77.9692
 30
0.000000
  70
    32
  0
VERTEX
  8
0
  5
10B2C
 10
16.0639
 20
77.9304
 30
0.000000
  70
    32
  0
VERTEX
  8
0
  5
10B2D
 10
16.0474
 20
77.8913
 30
0.000000
  70
    32
  0
VERTEX
  8
0
  5
10B2E
 10
16.0312
 20
77.8520
 30
0.000000
  70
    32
  0
VERTEX
  8
0
  5
10B2F
 10
16.0155
 20
77.8124
 30
0.000000
  70
    32
  0
VERTEX
  8
0
  5
10B30
 10
16.0001
 20
77.7726
 30
0.000000
  70
    32
  0
VERTEX
  8
0
  5
10B31
 10
15.9851
 20
77.7325
 30
0.000000
  70
    32
  0
VERTEX
  8
0
  5
10B32
 10
15.9706
 20
77.6922
 30
0.000000
  70
    32
  0
VERTEX
  8
0
  5
10B33
 10
15.9565
 20
77.6517
 30
0.000000
  70
    32
  0
VERTEX
  8
0
  5
10B34
 10
15.9427
 20
77.6110
 30
0.000000
  70
    32
  0
VERTEX
  8
0
  5
10B35
 10
15.9294
 20
77.5700
 30
0.000000
  70
    32
  0
VERTEX
  8
0
  5
10B36
 10
15.9165
 20
77.5289
 30
0.000000
  70
    32
  0
VERTEX
  8
0
  5
10B37
 10
15.9040
 20
77.4875
 30
0.000000
  70
    32
  0
VERTEX
  8
0
  5
10B38
 10
15.8920
 20
77.4460
 30
0.000000
  70
    32
  0
VERTEX
  8
0
  5
10B39
 10
15.8803
 20
77.4043
 30
0.000000
  70
    32
  0
VERTEX
  8
0
  5
10B3A
 10
15.8691
 20
77.3624
 30
0.000000
  70
    32
  0
VERTEX
  8
0
  5
10B3B
 10
15.8583
 20
77.3203
 30
0.000000
  70
    32
  0
VERTEX
  8
0
  5
10B3C
 10
15.8480
 20
77.2780
 30
0.000000
  70
    32
  0
VERTEX
  8
0
  5
10B3D
 10
15.8380
 20
77.2356
 30
0.000000
  70
    32
  0
VERTEX
  8
0
  5
10B3E
 10
15.8285
 20
77.1931
 30
0.000000
  70
    32
  0
VERTEX
  8
0
  5
10B3F
 10
15.8195
 20
77.1504
 30
0.000000
  70
    32
  0
VERTEX
  8
0
  5
10B40
 10
15.8108
 20
77.1075
 30
0.000000
  70
    32
  0
VERTEX
  8
0
  5
10B41
 10
15.8026
 20
77.0645
 30
0.000000
  70
    32
  0
VERTEX
  8
0
  5
10B42
 10
15.7949
 20
77.0214
 30
0.000000
  70
    32
  0
VERTEX
  8
0
  5
10B43
 10
15.7875
 20
76.9782
 30
0.000000
  70
    32
  0
VERTEX
  8
0
  5
10B44
 10
15.7806
 20
76.9349
 30
0.000000
  70
    32
  0
VERTEX
  8
0
  5
10B45
 10
15.7742
 20
76.8914
 30
0.000000
  70
    32
  0
VERTEX
  8
0
  5
10B46
 10
15.7682
 20
76.8479
 30
0.000000
  70
    32
  0
VERTEX
  8
0
  5
10B47
 10
15.7626
 20
76.8042
 30
0.000000
  70
    32
  0
VERTEX
  8
0
  5
10B48
 10
15.7575
 20
76.7605
 30
0.000000
  70
    32
  0
VERTEX
  8
0
  5
10B49
 10
15.7528
 20
76.7167
 30
0.000000
  70
    32
  0
VERTEX
  8
0
  5
10B4A
 10
15.7486
 20
76.6729
 30
0.000000
  70
    32
  0
VERTEX
  8
0
  5
10B4B
 10
15.7448
 20
76.6290
 30
0.000000
  70
    32
  0
VERTEX
  8
0
  5
10B4C
 10
15.7414
 20
76.5850
 30
0.000000
  70
    32
  0
VERTEX
  8
0
  5
10B4D
 10
15.7385
 20
76.5409
 30
0.000000
  70
    32
  0
VERTEX
  8
0
  5
10B4E
 10
15.7360
 20
76.4969
 30
0.000000
  70
    32
  0
VERTEX
  8
0
  5
10B4F
 10
15.7340
 20
76.4528
 30
0.000000
  70
    32
  0
VERTEX
  8
0
  5
10B50
 10
15.7325
 20
76.4086
 30
0.000000
  70
    32
  0
VERTEX
  8
0
  5
10B51
 10
15.7313
 20
76.3645
 30
0.000000
  70
    32
  0
VERTEX
  8
0
  5
10B52
 10
15.7307
 20
76.3203
 30
0.000000
  70
    32
  0
VERTEX
  8
0
  5
10B53
 10
15.7305
 20
76.2761
 30
0.000000
  70
    32
  0
VERTEX
  8
0
  5
10B54
 10
15.7307
 20
76.2319
 30
0.000000
  70
    32
  0
VERTEX
  8
0
  5
10B55
 10
15.7313
 20
76.1878
 30
0.000000
  70
    32
  0
VERTEX
  8
0
  5
10B56
 10
15.7325
 20
76.1436
 30
0.000000
  70
    32
  0
VERTEX
  8
0
  5
10B57
 10
15.7340
 20
76.0995
 30
0.000000
  70
    32
  0
VERTEX
  8
0
  5
10B58
 10
15.7360
 20
76.0554
 30
0.000000
  70
    32
  0
VERTEX
  8
0
  5
10B59
 10
15.7385
 20
76.0113
 30
0.000000
  70
    32
  0
VERTEX
  8
0
  5
10B5A
 10
15.7414
 20
75.9673
 30
0.000000
  70
    32
  0
VERTEX
  8
0
  5
10B5B
 10
15.7448
 20
75.9233
 30
0.000000
  70
    32
  0
VERTEX
  8
0
  5
10B5C
 10
15.7486
 20
75.8794
 30
0.000000
  70
    32
  0
VERTEX
  8
0
  5
10B5D
 10
15.7528
 20
75.8355
 30
0.000000
  70
    32
  0
VERTEX
  8
0
  5
10B5E
 10
15.7575
 20
75.7917
 30
0.000000
  70
    32
  0
VERTEX
  8
0
  5
10B5F
 10
15.7626
 20
75.7480
 30
0.000000
  70
    32
  0
VERTEX
  8
0
  5
10B60
 10
15.7682
 20
75.7044
 30
0.000000
  70
    32
  0
VERTEX
  8
0
  5
10B61
 10
15.7742
 20
75.6608
 30
0.000000
  70
    32
  0
VERTEX
  8
0
  5
10B62
 10
15.7806
 20
75.6174
 30
0.000000
  70
    32
  0
VERTEX
  8
0
  5
10B63
 10
15.7875
 20
75.5741
 30
0.000000
  70
    32
  0
VERTEX
  8
0
  5
10B64
 10
15.7949
 20
75.5308
 30
0.000000
  70
    32
  0
VERTEX
  8
0
  5
10B65
 10
15.8026
 20
75.4877
 30
0.000000
  70
    32
  0
VERTEX
  8
0
  5
10B66
 10
15.8108
 20
75.4447
 30
0.000000
  70
    32
  0
VERTEX
  8
0
  5
10B67
 10
15.8195
 20
75.4019
 30
0.000000
  70
    32
  0
VERTEX
  8
0
  5
10B68
 10
15.8285
 20
75.3592
 30
0.000000
  70
    32
  0
VERTEX
  8
0
  5
10B69
 10
15.8380
 20
75.3166
 30
0.000000
  70
    32
  0
VERTEX
  8
0
  5
10B6A
 10
15.8480
 20
75.2742
 30
0.000000
  70
    32
  0
VERTEX
  8
0
  5
10B6B
 10
15.8583
 20
75.2320
 30
0.000000
  70
    32
  0
VERTEX
  8
0
  5
10B6C
 10
15.8691
 20
75.1899
 30
0.000000
  70
    32
  0
VERTEX
  8
0
  5
10B6D
 10
15.8803
 20
75.1480
 30
0.000000
  70
    32
  0
VERTEX
  8
0
  5
10B6E
 10
15.8920
 20
75.1063
 30
0.000000
  70
    32
  0
VERTEX
  8
0
  5
10B6F
 10
15.9040
 20
75.0647
 30
0.000000
  70
    32
  0
VERTEX
  8
0
  5
10B70
 10
15.9165
 20
75.0234
 30
0.000000
  70
    32
  0
VERTEX
  8
0
  5
10B71
 10
15.9294
 20
74.9822
 30
0.000000
  70
    32
  0
VERTEX
  8
0
  5
10B72
 10
15.9427
 20
74.9413
 30
0.000000
  70
    32
  0
VERTEX
  8
0
  5
10B73
 10
15.9565
 20
74.9005
 30
0.000000
  70
    32
  0
VERTEX
  8
0
  5
10B74
 10
15.9706
 20
74.8600
 30
0.000000
  70
    32
  0
VERTEX
  8
0
  5
10B75
 10
15.9851
 20
74.8197
 30
0.000000
  70
    32
  0
VERTEX
  8
0
  5
10B76
 10
16.0001
 20
74.7797
 30
0.000000
  70
    32
  0
VERTEX
  8
0
  5
10B77
 10
16.0155
 20
74.7399
 30
0.000000
  70
    32
  0
VERTEX
  8
0
  5
10B78
 10
16.0312
 20
74.7003
 30
0.000000
  70
    32
  0
VERTEX
  8
0
  5
10B79
 10
16.0474
 20
74.6610
 30
0.000000
  70
    32
  0
VERTEX
  8
0
  5
10B7A
 10
16.0639
 20
74.6219
 30
0.000000
  70
    32
  0
VERTEX
  8
0
  5
10B7B
 10
16.0809
 20
74.5831
 30
0.000000
  70
    32
  0
VERTEX
  8
0
  5
10B7C
 10
16.0982
 20
74.5446
 30
0.000000
  70
    32
  0
VERTEX
  8
0
  5
10B7D
 10
16.1160
 20
74.5063
 30
0.000000
  70
    32
  0
VERTEX
  8
0
  5
10B7E
 10
16.1341
 20
74.4683
 30
0.000000
  70
    32
  0
VERTEX
  8
0
  5
10B7F
 10
16.1526
 20
74.4307
 30
0.000000
  70
    32
  0
VERTEX
  8
0
  5
10B80
 10
16.1715
 20
74.3933
 30
0.000000
  70
    32
  0
VERTEX
  8
0
  5
10B81
 10
16.1907
 20
74.3562
 30
0.000000
  70
    32
  0
VERTEX
  8
0
  5
10B82
 10
16.2103
 20
74.3194
 30
0.000000
  70
    32
  0
VERTEX
  8
0
  5
10B83
 10
16.2303
 20
74.2829
 30
0.000000
  70
    32
  0
VERTEX
  8
0
  5
10B84
 10
16.2507
 20
74.2468
 30
0.000000
  70
    32
  0
VERTEX
  8
0
  5
10B85
 10
16.2715
 20
74.2109
 30
0.000000
  70
    32
  0
VERTEX
  8
0
  5
10B86
 10
16.2926
 20
74.1754
 30
0.000000
  70
    32
  0
VERTEX
  8
0
  5
10B87
 10
16.3140
 20
74.1403
 30
0.000000
  70
    32
  0
VERTEX
  8
0
  5
10B88
 10
16.3358
 20
74.1054
 30
0.000000
  70
    32
  0
VERTEX
  8
0
  5
10B89
 10
16.3580
 20
74.0709
 30
0.000000
  70
    32
  0
VERTEX
  8
0
  5
10B8A
 10
16.3805
 20
74.0368
 30
0.000000
  70
    32
  0
VERTEX
  8
0
  5
10B8B
 10
16.4033
 20
74.0030
 30
0.000000
  70
    32
  0
VERTEX
  8
0
  5
10B8C
 10
16.4265
 20
73.9696
 30
0.000000
  70
    32
  0
VERTEX
  8
0
  5
10B8D
 10
16.4501
 20
73.9366
 30
0.000000
  70
    32
  0
VERTEX
  8
0
  5
10B8E
 10
16.4739
 20
73.9039
 30
0.000000
  70
    32
  0
VERTEX
  8
0
  5
10B8F
 10
16.4981
 20
73.8716
 30
0.000000
  70
    32
  0
VERTEX
  8
0
  5
10B90
 10
16.5226
 20
73.8397
 30
0.000000
  70
    32
  0
VERTEX
  8
0
  5
10B91
 10
16.5475
 20
73.8082
 30
0.000000
  70
    32
  0
VERTEX
  8
0
  5
10B92
 10
16.5726
 20
73.7771
 30
0.000000
  70
    32
  0
VERTEX
  8
0
  5
10B93
 10
16.5981
 20
73.7463
 30
0.000000
  70
    32
  0
SEQEND
  8
0
  5
10B94
  0
LINE
  5
F8CA
  8
0
 10
20.348529999999752
 20
74.026125058619755
 30
0.0
 11
20.348530000000199
 21
70.755555058620075
 31
0.0
  0
LINE
  5
F8CB
  8
0
 10
33.598086449680522
 20
69.776125058619755
 30
0.0
 11
39.5
 21
69.776125058619755
 31
0.0
  0
LINE
  5
F8CC
  8
0
 10
33.598086449680522
 20
82.776125058619755
 30
0.0
 11
39.5
 21
82.776125058619755
 31
0.0
  0
LINE
  5
FA3E
  8
0
 10
99.297998083407492
 20
6.0
 30
0.0
 11
107.29799808340699
 21
6.0
 31
0.0
  0
LINE
  5
FA3F
  8
0
 10
105.2979942834076
 20
9.0
 30
0.0
 11
119.29800188340769
 21
9.0
 31
0.0
  0
LINE
  5
FA40
  8
0
 10
99.297998083407492
 20
20.75
 30
0.0
 11
99.297998083407492
 21
6.0
 31
0.0
  0
LINE
  5
FA41
  8
0
 10
118.79799808340699
 20
-7.0000000000002274
 30
0.0
 11
118.79799808340741
 21
-18.73666146654034
 31
0.0
  0
LINE
  5
FA42
  8
0
 10
118.79799808340741
 20
22.25
 30
0.0
 11
118.79799808340741
 21
11.00001500000007
 31
0.0
  0
LINE
  5
FA43
  8
0
 10
121.29799808340741
 20
5.0
 30
0.0
 11
122.79799808340751
 21
5.0
 31
0.0
  0
LINE
  5
FA44
  8
0
 10
105.79799808340741
 20
22.25
 30
0.0
 11
105.79799808340741
 21
11.00001500000007
 31
0.0
  0
LINE
  5
FA45
  8
0
 10
106.79799808340741
 20
15.0
 30
0.0
 11
110.04799808340751
 21
15.0
 31
0.0
  0
LINE
  5
FA47
  8
0
 10
116.29799808340751
 20
24.225447999999911
 30
0.0
 11
116.29799808340751
 21
15.0
 31
0.0
  0
LINE
  5
FA4A
  8
0
 10
109.29799808340741
 20
25.225447999999911
 30
0.0
 11
115.29799808340751
 21
25.225447999999911
 31
0.0
  0
LINE
  5
FA4C
  8
0
 10
99.297998083407492
 20
7.5
 30
0.0
 11
105.79799808340699
 21
7.5
 31
0.0
  0
LINE
  5
FA4D
  8
0
 10
105.79799808340741
 20
-8.5
 30
0.0
 11
118.79799808340741
 21
-8.5
 31
0.0
  0
LINE
  5
FA4E
  8
0
 10
101.79799808340751
 20
-7.0
 30
0.0
 11
105.79799808340741
 21
-7.0
 31
0.0
  0
LINE
  5
FA4F
  8
0
 10
121.29799808340741
 20
5.0
 30
0.0
 11
121.29799808340741
 21
-5.5
 31
0.0
  0
LINE
  5
FA50
  8
0
 10
111.04799808340741
 20
23.657554000000111
 30
0.0
 11
113.54799808340741
 21
23.657554000000111
 31
0.0
  0
LINE
  5
FA51
  8
0
 10
111.04799808340741
 20
20.0
 30
0.0
 11
113.54799808340741
 21
20.0
 31
0.0
  0
LINE
  5
FA52
  8
0
 10
108.29799808340741
 20
9.0
 30
0.0
 11
108.29799808340741
 21
-4.1241161249206471
 31
0.0
  0
LINE
  5
FA53
  8
0
 10
98.297998083407506
 20
-10.70339048180653
 30
0.0
 11
98.297998083407506
 21
-22.00000000000011
 31
0.0
  0
LINE
  5
FA54
  8
0
 10
106.79799518340759
 20
15.00000399999999
 30
0.0
 11
105.2979942834076
 21
9.0
 31
0.0
  0
LINE
  5
FA56
  8
0
 10
103.29799808340741
 20
5.0
 30
0.0
 11
103.29799808340741
 21
-5.5
 31
0.0
  0
LINE
  5
FA57
  8
0
 10
105.79799808340741
 20
-7.0
 30
0.0
 11
105.79799808340741
 21
-18.73666146654034
 31
0.0
  0
LINE
  5
FA58
  8
0
 10
126.29799808340741
 20
-10.70339048180653
 30
0.0
 11
126.29799808340741
 21
-22.00000000000011
 31
0.0
  0
LINE
  5
FA59
  8
0
 10
115.2979985834076
 20
25.225447999999911
 30
0.0
 11
116.29799948340759
 21
24.225447999999911
 31
0.0
  0
LINE
  5
FA5A
  8
0
 10
105.79799808340741
 20
9.0
 30
0.0
 11
105.79799808340741
 21
7.5
 31
0.0
  0
LINE
  5
FA5B
  8
0
 10
116.29799808340751
 20
9.0
 30
0.0
 11
116.29799808340699
 21
-4.1241161249213292
 31
0.0
  0
LINE
  5
FA5C
  8
0
 10
114.54799808340741
 20
22.657554000000111
 30
0.0
 11
114.54799808340741
 21
9.0
 31
0.0
  0
LINE
  5
FA5D
  8
0
 10
118.79799808340741
 20
9.0
 30
0.0
 11
118.79799808340741
 21
7.5
 31
0.0
  0
LINE
  5
FA5E
  8
0
 10
101.79799808340751
 20
5.0
 30
0.0
 11
101.79799808340751
 21
-7.0
 31
0.0
  0
LINE
  5
FA5F
  8
0
 10
122.79799808340751
 20
5.0
 30
0.0
 11
122.79799808340751
 21
-7.0
 31
0.0
  0
LINE
  5
FA60
  8
0
 10
110.04799808340751
 20
22.657554000000111
 30
0.0
 11
110.04799808340751
 21
9.0
 31
0.0
  0
LINE
  5
FA61
  8
0
 10
117.7980009834077
 20
15.00000399999999
 30
0.0
 11
119.29800188340769
 21
9.0
 31
0.0
  0
LINE
  5
FA62
  8
0
 10
101.79799808340751
 20
5.0
 30
0.0
 11
103.29799808340741
 21
5.0
 31
0.0
  0
LINE
  5
FA63
  8
0
 10
114.54799808340741
 20
15.0
 30
0.0
 11
117.79799808340741
 21
15.0
 31
0.0
  0
LINE
  5
FA64
  8
0
 10
103.29799808340741
 20
2.5
 30
0.0
 11
108.29799808340741
 21
2.5
 31
0.0
  0
LINE
  5
FA65
  8
0
 10
116.29799808340699
 20
2.5
 30
0.0
 11
121.29799808340741
 21
2.5
 31
0.0
  0
LINE
  5
FA66
  8
0
 10
103.29799808340741
 20
-2.5
 30
0.0
 11
108.29799808340741
 21
-2.5
 31
0.0
  0
LINE
  5
FA67
  8
0
 10
116.29799808340699
 20
-2.5
 30
0.0
 11
121.29799808340741
 21
-2.5
 31
0.0
  0
LINE
  5
FA68
  8
0
 10
103.29799808340741
 20
-5.5
 30
0.0
 11
107.29799808340741
 21
-5.5
 31
0.0
  0
LINE
  5
FA69
  8
0
 10
109.29799758340771
 20
25.225447999999911
 30
0.0
 11
108.2979966834077
 21
24.225447999999911
 31
0.0
  0
LINE
  5
FA6A
  8
0
 10
108.29799808340741
 20
24.225447999999911
 30
0.0
 11
108.29799808340741
 21
15.0
 31
0.0
  0
LINE
  5
FA6B
  8
0
 10
125.29799808340741
 20
20.75
 30
0.0
 11
125.29799808340741
 21
6.0
 31
0.0
  0
ARC
  5
FA6C
  8
0
 10
113.54799808340741
 20
21.0
 30
0.0
 40
1.0
 50
270.0
 51
0.0
  0
ARC
  5
FA6D
  8
0
 10
111.04799808340741
 20
22.657554000000111
 30
0.0
 40
1.0
 50
90.0
 51
180.0
  0
ARC
  5
FA6E
  8
0
 10
111.04799808340741
 20
21.0
 30
0.0
 40
1.0
 50
180.0
 51
270.0
  0
ARC
  5
FA6F
  8
0
 10
113.54799808340741
 20
22.657554000000111
 30
0.0
 40
1.0
 50
0.0
 51
90.0
  0
POLYLINE
  5
FA70
  8
0
 10
101.79799808340751
 20
2.9999999000000002
 30
0.0
 66
     1
 70
     8
  0
VERTEX
  8
0
  5
10B95
 10
101.798
 20
3.00000
 30
0.000000
  70
    32
  0
VERTEX
  8
0
  5
10B96
 10
101.761
 20
2.99910
 30
0.000000
  70
    32
  0
VERTEX
  8
0
  5
10B97
 10
101.724
 20
2.99639
 30
0.000000
  70
    32
  0
VERTEX
  8
0
  5
10B98
 10
101.688
 20
2.99187
 30
0.000000
  70
    32
  0
VERTEX
  8
0
  5
10B99
 10
101.651
 20
2.98555
 30
0.000000
  70
    32
  0
VERTEX
  8
0
  5
10B9A
 10
101.614
 20
2.97744
 30
0.000000
  70
    32
  0
VERTEX
  8
0
  5
10B9B
 10
101.578
 20
2.96753
 30
0.000000
  70
    32
  0
VERTEX
  8
0
  5
10B9C
 10
101.542
 20
2.95583
 30
0.000000
  70
    32
  0
VERTEX
  8
0
  5
10B9D
 10
101.505
 20
2.94236
 30
0.000000
  70
    32
  0
VERTEX
  8
0
  5
10B9E
 10
101.469
 20
2.92711
 30
0.000000
  70
    32
  0
VERTEX
  8
0
  5
10B9F
 10
101.434
 20
2.91009
 30
0.000000
  70
    32
  0
VERTEX
  8
0
  5
10BA0
 10
101.398
 20
2.89133
 30
0.000000
  70
    32
  0
VERTEX
  8
0
  5
10BA1
 10
101.363
 20
2.87082
 30
0.000000
  70
    32
  0
VERTEX
  8
0
  5
10BA2
 10
101.327
 20
2.84858
 30
0.000000
  70
    32
  0
VERTEX
  8
0
  5
10BA3
 10
101.293
 20
2.82463
 30
0.000000
  70
    32
  0
VERTEX
  8
0
  5
10BA4
 10
101.258
 20
2.79898
 30
0.000000
  70
    32
  0
VERTEX
  8
0
  5
10BA5
 10
101.224
 20
2.77164
 30
0.000000
  70
    32
  0
VERTEX
  8
0
  5
10BA6
 10
101.190
 20
2.74263
 30
0.000000
  70
    32
  0
VERTEX
  8
0
  5
10BA7
 10
101.157
 20
2.71197
 30
0.000000
  70
    32
  0
VERTEX
  8
0
  5
10BA8
 10
101.124
 20
2.67967
 30
0.000000
  70
    32
  0
VERTEX
  8
0
  5
10BA9
 10
101.091
 20
2.64576
 30
0.000000
  70
    32
  0
VERTEX
  8
0
  5
10BAA
 10
101.059
 20
2.61026
 30
0.000000
  70
    32
  0
VERTEX
  8
0
  5
10BAB
 10
101.027
 20
2.57319
 30
0.000000
  70
    32
  0
VERTEX
  8
0
  5
10BAC
 10
100.996
 20
2.53456
 30
0.000000
  70
    32
  0
VERTEX
  8
0
  5
10BAD
 10
100.965
 20
2.49441
 30
0.000000
  70
    32
  0
VERTEX
  8
0
  5
10BAE
 10
100.934
 20
2.45275
 30
0.000000
  70
    32
  0
VERTEX
  8
0
  5
10BAF
 10
100.904
 20
2.40962
 30
0.000000
  70
    32
  0
VERTEX
  8
0
  5
10BB0
 10
100.875
 20
2.36504
 30
0.000000
  70
    32
  0
VERTEX
  8
0
  5
10BB1
 10
100.846
 20
2.31903
 30
0.000000
  70
    32
  0
VERTEX
  8
0
  5
10BB2
 10
100.818
 20
2.27163
 30
0.000000
  70
    32
  0
VERTEX
  8
0
  5
10BB3
 10
100.791
 20
2.22285
 30
0.000000
  70
    32
  0
VERTEX
  8
0
  5
10BB4
 10
100.764
 20
2.17274
 30
0.000000
  70
    32
  0
VERTEX
  8
0
  5
10BB5
 10
100.737
 20
2.12132
 30
0.000000
  70
    32
  0
VERTEX
  8
0
  5
10BB6
 10
100.712
 20
2.06862
 30
0.000000
  70
    32
  0
VERTEX
  8
0
  5
10BB7
 10
100.687
 20
2.01468
 30
0.000000
  70
    32
  0
VERTEX
  8
0
  5
10BB8
 10
100.662
 20
1.95952
 30
0.000000
  70
    32
  0
VERTEX
  8
0
  5
10BB9
 10
100.638
 20
1.90318
 30
0.000000
  70
    32
  0
VERTEX
  8
0
  5
10BBA
 10
100.615
 20
1.84569
 30
0.000000
  70
    32
  0
VERTEX
  8
0
  5
10BBB
 10
100.593
 20
1.78710
 30
0.000000
  70
    32
  0
VERTEX
  8
0
  5
10BBC
 10
100.572
 20
1.72742
 30
0.000000
  70
    32
  0
VERTEX
  8
0
  5
10BBD
 10
100.551
 20
1.66671
 30
0.000000
  70
    32
  0
VERTEX
  8
0
  5
10BBE
 10
100.531
 20
1.60499
 30
0.000000
  70
    32
  0
VERTEX
  8
0
  5
10BBF
 10
100.511
 20
1.54231
 30
0.000000
  70
    32
  0
VERTEX
  8
0
  5
10BC0
 10
100.493
 20
1.47869
 30
0.000000
  70
    32
  0
VERTEX
  8
0
  5
10BC1
 10
100.475
 20
1.41419
 30
0.000000
  70
    32
  0
VERTEX
  8
0
  5
10BC2
 10
100.458
 20
1.34883
 30
0.000000
  70
    32
  0
VERTEX
  8
0
  5
10BC3
 10
100.442
 20
1.28267
 30
0.000000
  70
    32
  0
VERTEX
  8
0
  5
10BC4
 10
100.427
 20
1.21572
 30
0.000000
  70
    32
  0
VERTEX
  8
0
  5
10BC5
 10
100.412
 20
1.14805
 30
0.000000
  70
    32
  0
VERTEX
  8
0
  5
10BC6
 10
100.399
 20
1.07969
 30
0.000000
  70
    32
  0
VERTEX
  8
0
  5
10BC7
 10
100.386
 20
1.01067
 30
0.000000
  70
    32
  0
VERTEX
  8
0
  5
10BC8
 10
100.374
 20
0.941045
 30
0.000000
  70
    32
  0
VERTEX
  8
0
  5
10BC9
 10
100.363
 20
0.870854
 30
0.000000
  70
    32
  0
VERTEX
  8
0
  5
10BCA
 10
100.352
 20
0.800138
 30
0.000000
  70
    32
  0
VERTEX
  8
0
  5
10BCB
 10
100.343
 20
0.728940
 30
0.000000
  70
    32
  0
VERTEX
  8
0
  5
10BCC
 10
100.334
 20
0.657304
 30
0.000000
  70
    32
  0
VERTEX
  8
0
  5
10BCD
 10
100.327
 20
0.585271
 30
0.000000
  70
    32
  0
VERTEX
  8
0
  5
10BCE
 10
100.320
 20
0.512886
 30
0.000000
  70
    32
  0
VERTEX
  8
0
  5
10BCF
 10
100.314
 20
0.440191
 30
0.000000
  70
    32
  0
VERTEX
  8
0
  5
10BD0
 10
100.309
 20
0.367232
 30
0.000000
  70
    32
  0
VERTEX
  8
0
  5
10BD1
 10
100.305
 20
0.294051
 30
0.000000
  70
    32
  0
VERTEX
  8
0
  5
10BD2
 10
100.302
 20
0.220694
 30
0.000000
  70
    32
  0
VERTEX
  8
0
  5
10BD3
 10
100.300
 20
0.147203
 30
0.000000
  70
    32
  0
VERTEX
  8
0
  5
10BD4
 10
100.298
 20
0.0736236
 30
0.000000
  70
    32
  0
VERTEX
  8
0
  5
10BD5
 10
100.298
 20
-3.48077e-008
 30
0.000000
  70
    32
  0
VERTEX
  8
0
  5
10BD6
 10
100.298
 20
-0.0736237
 30
0.000000
  70
    32
  0
VERTEX
  8
0
  5
10BD7
 10
100.300
 20
-0.147203
 30
0.000000
  70
    32
  0
VERTEX
  8
0
  5
10BD8
 10
100.302
 20
-0.220694
 30
0.000000
  70
    32
  0
VERTEX
  8
0
  5
10BD9
 10
100.305
 20
-0.294051
 30
0.000000
  70
    32
  0
VERTEX
  8
0
  5
10BDA
 10
100.309
 20
-0.367232
 30
0.000000
  70
    32
  0
VERTEX
  8
0
  5
10BDB
 10
100.314
 20
-0.440191
 30
0.000000
  70
    32
  0
VERTEX
  8
0
  5
10BDC
 10
100.320
 20
-0.512886
 30
0.000000
  70
    32
  0
VERTEX
  8
0
  5
10BDD
 10
100.327
 20
-0.585271
 30
0.000000
  70
    32
  0
VERTEX
  8
0
  5
10BDE
 10
100.334
 20
-0.657304
 30
0.000000
  70
    32
  0
VERTEX
  8
0
  5
10BDF
 10
100.343
 20
-0.728941
 30
0.000000
  70
    32
  0
VERTEX
  8
0
  5
10BE0
 10
100.352
 20
-0.800138
 30
0.000000
  70
    32
  0
VERTEX
  8
0
  5
10BE1
 10
100.363
 20
-0.870854
 30
0.000000
  70
    32
  0
VERTEX
  8
0
  5
10BE2
 10
100.374
 20
-0.941045
 30
0.000000
  70
    32
  0
VERTEX
  8
0
  5
10BE3
 10
100.386
 20
-1.01067
 30
0.000000
  70
    32
  0
VERTEX
  8
0
  5
10BE4
 10
100.399
 20
-1.07969
 30
0.000000
  70
    32
  0
VERTEX
  8
0
  5
10BE5
 10
100.412
 20
-1.14805
 30
0.000000
  70
    32
  0
VERTEX
  8
0
  5
10BE6
 10
100.427
 20
-1.21572
 30
0.000000
  70
    32
  0
VERTEX
  8
0
  5
10BE7
 10
100.442
 20
-1.28267
 30
0.000000
  70
    32
  0
VERTEX
  8
0
  5
10BE8
 10
100.458
 20
-1.34883
 30
0.000000
  70
    32
  0
VERTEX
  8
0
  5
10BE9
 10
100.475
 20
-1.41419
 30
0.000000
  70
    32
  0
VERTEX
  8
0
  5
10BEA
 10
100.493
 20
-1.47869
 30
0.000000
  70
    32
  0
VERTEX
  8
0
  5
10BEB
 10
100.511
 20
-1.54231
 30
0.000000
  70
    32
  0
VERTEX
  8
0
  5
10BEC
 10
100.531
 20
-1.60499
 30
0.000000
  70
    32
  0
VERTEX
  8
0
  5
10BED
 10
100.551
 20
-1.66671
 30
0.000000
  70
    32
  0
VERTEX
  8
0
  5
10BEE
 10
100.572
 20
-1.72742
 30
0.000000
  70
    32
  0
VERTEX
  8
0
  5
10BEF
 10
100.593
 20
-1.78710
 30
0.000000
  70
    32
  0
VERTEX
  8
0
  5
10BF0
 10
100.615
 20
-1.84569
 30
0.000000
  70
    32
  0
VERTEX
  8
0
  5
10BF1
 10
100.638
 20
-1.90318
 30
0.000000
  70
    32
  0
VERTEX
  8
0
  5
10BF2
 10
100.662
 20
-1.95952
 30
0.000000
  70
    32
  0
VERTEX
  8
0
  5
10BF3
 10
100.687
 20
-2.01468
 30
0.000000
  70
    32
  0
VERTEX
  8
0
  5
10BF4
 10
100.712
 20
-2.06862
 30
0.000000
  70
    32
  0
VERTEX
  8
0
  5
10BF5
 10
100.737
 20
-2.12132
 30
0.000000
  70
    32
  0
VERTEX
  8
0
  5
10BF6
 10
100.764
 20
-2.17274
 30
0.000000
  70
    32
  0
VERTEX
  8
0
  5
10BF7
 10
100.791
 20
-2.22285
 30
0.000000
  70
    32
  0
VERTEX
  8
0
  5
10BF8
 10
100.818
 20
-2.27163
 30
0.000000
  70
    32
  0
VERTEX
  8
0
  5
10BF9
 10
100.846
 20
-2.31903
 30
0.000000
  70
    32
  0
VERTEX
  8
0
  5
10BFA
 10
100.875
 20
-2.36504
 30
0.000000
  70
    32
  0
VERTEX
  8
0
  5
10BFB
 10
100.904
 20
-2.40962
 30
0.000000
  70
    32
  0
VERTEX
  8
0
  5
10BFC
 10
100.934
 20
-2.45275
 30
0.000000
  70
    32
  0
VERTEX
  8
0
  5
10BFD
 10
100.965
 20
-2.49441
 30
0.000000
  70
    32
  0
VERTEX
  8
0
  5
10BFE
 10
100.996
 20
-2.53456
 30
0.000000
  70
    32
  0
VERTEX
  8
0
  5
10BFF
 10
101.027
 20
-2.57319
 30
0.000000
  70
    32
  0
VERTEX
  8
0
  5
10C00
 10
101.059
 20
-2.61026
 30
0.000000
  70
    32
  0
VERTEX
  8
0
  5
10C01
 10
101.091
 20
-2.64576
 30
0.000000
  70
    32
  0
VERTEX
  8
0
  5
10C02
 10
101.124
 20
-2.67967
 30
0.000000
  70
    32
  0
VERTEX
  8
0
  5
10C03
 10
101.157
 20
-2.71197
 30
0.000000
  70
    32
  0
VERTEX
  8
0
  5
10C04
 10
101.190
 20
-2.74263
 30
0.000000
  70
    32
  0
VERTEX
  8
0
  5
10C05
 10
101.224
 20
-2.77164
 30
0.000000
  70
    32
  0
VERTEX
  8
0
  5
10C06
 10
101.258
 20
-2.79898
 30
0.000000
  70
    32
  0
VERTEX
  8
0
  5
10C07
 10
101.293
 20
-2.82463
 30
0.000000
  70
    32
  0
VERTEX
  8
0
  5
10C08
 10
101.327
 20
-2.84858
 30
0.000000
  70
    32
  0
VERTEX
  8
0
  5
10C09
 10
101.363
 20
-2.87082
 30
0.000000
  70
    32
  0
VERTEX
  8
0
  5
10C0A
 10
101.398
 20
-2.89133
 30
0.000000
  70
    32
  0
VERTEX
  8
0
  5
10C0B
 10
101.434
 20
-2.91009
 30
0.000000
  70
    32
  0
VERTEX
  8
0
  5
10C0C
 10
101.469
 20
-2.92711
 30
0.000000
  70
    32
  0
VERTEX
  8
0
  5
10C0D
 10
101.505
 20
-2.94236
 30
0.000000
  70
    32
  0
VERTEX
  8
0
  5
10C0E
 10
101.542
 20
-2.95583
 30
0.000000
  70
    32
  0
VERTEX
  8
0
  5
10C0F
 10
101.578
 20
-2.96753
 30
0.000000
  70
    32
  0
VERTEX
  8
0
  5
10C10
 10
101.614
 20
-2.97744
 30
0.000000
  70
    32
  0
VERTEX
  8
0
  5
10C11
 10
101.651
 20
-2.98555
 30
0.000000
  70
    32
  0
VERTEX
  8
0
  5
10C12
 10
101.688
 20
-2.99187
 30
0.000000
  70
    32
  0
VERTEX
  8
0
  5
10C13
 10
101.724
 20
-2.99639
 30
0.000000
  70
    32
  0
VERTEX
  8
0
  5
10C14
 10
101.761
 20
-2.99910
 30
0.000000
  70
    32
  0
VERTEX
  8
0
  5
10C15
 10
101.798
 20
-3.00000
 30
0.000000
  70
    32
  0
SEQEND
  8
0
  5
10C16
  0
POLYLINE
  5
FA71
  8
0
 10
122.79799811821516
 20
-2.9999998999999997
 30
0.0
 66
     1
 70
     8
  0
VERTEX
  8
0
  5
10C17
 10
122.798
 20
-3.00000
 30
0.000000
  70
    32
  0
VERTEX
  8
0
  5
10C18
 10
122.835
 20
-2.99910
 30
0.000000
  70
    32
  0
VERTEX
  8
0
  5
10C19
 10
122.872
 20
-2.99639
 30
0.000000
  70
    32
  0
VERTEX
  8
0
  5
10C1A
 10
122.908
 20
-2.99187
 30
0.000000
  70
    32
  0
VERTEX
  8
0
  5
10C1B
 10
122.945
 20
-2.98555
 30
0.000000
  70
    32
  0
VERTEX
  8
0
  5
10C1C
 10
122.982
 20
-2.97744
 30
0.000000
  70
    32
  0
VERTEX
  8
0
  5
10C1D
 10
123.018
 20
-2.96753
 30
0.000000
  70
    32
  0
VERTEX
  8
0
  5
10C1E
 10
123.054
 20
-2.95583
 30
0.000000
  70
    32
  0
VERTEX
  8
0
  5
10C1F
 10
123.091
 20
-2.94236
 30
0.000000
  70
    32
  0
VERTEX
  8
0
  5
10C20
 10
123.127
 20
-2.92711
 30
0.000000
  70
    32
  0
VERTEX
  8
0
  5
10C21
 10
123.162
 20
-2.91009
 30
0.000000
  70
    32
  0
VERTEX
  8
0
  5
10C22
 10
123.198
 20
-2.89133
 30
0.000000
  70
    32
  0
VERTEX
  8
0
  5
10C23
 10
123.233
 20
-2.87082
 30
0.000000
  70
    32
  0
VERTEX
  8
0
  5
10C24
 10
123.269
 20
-2.84858
 30
0.000000
  70
    32
  0
VERTEX
  8
0
  5
10C25
 10
123.303
 20
-2.82463
 30
0.000000
  70
    32
  0
VERTEX
  8
0
  5
10C26
 10
123.338
 20
-2.79898
 30
0.000000
  70
    32
  0
VERTEX
  8
0
  5
10C27
 10
123.372
 20
-2.77164
 30
0.000000
  70
    32
  0
VERTEX
  8
0
  5
10C28
 10
123.406
 20
-2.74263
 30
0.000000
  70
    32
  0
VERTEX
  8
0
  5
10C29
 10
123.439
 20
-2.71197
 30
0.000000
  70
    32
  0
VERTEX
  8
0
  5
10C2A
 10
123.472
 20
-2.67967
 30
0.000000
  70
    32
  0
VERTEX
  8
0
  5
10C2B
 10
123.505
 20
-2.64576
 30
0.000000
  70
    32
  0
VERTEX
  8
0
  5
10C2C
 10
123.537
 20
-2.61026
 30
0.000000
  70
    32
  0
VERTEX
  8
0
  5
10C2D
 10
123.569
 20
-2.57319
 30
0.000000
  70
    32
  0
VERTEX
  8
0
  5
10C2E
 10
123.600
 20
-2.53456
 30
0.000000
  70
    32
  0
VERTEX
  8
0
  5
10C2F
 10
123.631
 20
-2.49441
 30
0.000000
  70
    32
  0
VERTEX
  8
0
  5
10C30
 10
123.662
 20
-2.45275
 30
0.000000
  70
    32
  0
VERTEX
  8
0
  5
10C31
 10
123.692
 20
-2.40962
 30
0.000000
  70
    32
  0
VERTEX
  8
0
  5
10C32
 10
123.721
 20
-2.36504
 30
0.000000
  70
    32
  0
VERTEX
  8
0
  5
10C33
 10
123.750
 20
-2.31903
 30
0.000000
  70
    32
  0
VERTEX
  8
0
  5
10C34
 10
123.778
 20
-2.27163
 30
0.000000
  70
    32
  0
VERTEX
  8
0
  5
10C35
 10
123.805
 20
-2.22285
 30
0.000000
  70
    32
  0
VERTEX
  8
0
  5
10C36
 10
123.832
 20
-2.17274
 30
0.000000
  70
    32
  0
VERTEX
  8
0
  5
10C37
 10
123.859
 20
-2.12132
 30
0.000000
  70
    32
  0
VERTEX
  8
0
  5
10C38
 10
123.884
 20
-2.06862
 30
0.000000
  70
    32
  0
VERTEX
  8
0
  5
10C39
 10
123.909
 20
-2.01468
 30
0.000000
  70
    32
  0
VERTEX
  8
0
  5
10C3A
 10
123.934
 20
-1.95952
 30
0.000000
  70
    32
  0
VERTEX
  8
0
  5
10C3B
 10
123.958
 20
-1.90318
 30
0.000000
  70
    32
  0
VERTEX
  8
0
  5
10C3C
 10
123.981
 20
-1.84569
 30
0.000000
  70
    32
  0
VERTEX
  8
0
  5
10C3D
 10
124.003
 20
-1.78710
 30
0.000000
  70
    32
  0
VERTEX
  8
0
  5
10C3E
 10
124.024
 20
-1.72742
 30
0.000000
  70
    32
  0
VERTEX
  8
0
  5
10C3F
 10
124.045
 20
-1.66671
 30
0.000000
  70
    32
  0
VERTEX
  8
0
  5
10C40
 10
124.065
 20
-1.60499
 30
0.000000
  70
    32
  0
VERTEX
  8
0
  5
10C41
 10
124.085
 20
-1.54231
 30
0.000000
  70
    32
  0
VERTEX
  8
0
  5
10C42
 10
124.103
 20
-1.47869
 30
0.000000
  70
    32
  0
VERTEX
  8
0
  5
10C43
 10
124.121
 20
-1.41419
 30
0.000000
  70
    32
  0
VERTEX
  8
0
  5
10C44
 10
124.138
 20
-1.34883
 30
0.000000
  70
    32
  0
VERTEX
  8
0
  5
10C45
 10
124.154
 20
-1.28267
 30
0.000000
  70
    32
  0
VERTEX
  8
0
  5
10C46
 10
124.169
 20
-1.21572
 30
0.000000
  70
    32
  0
VERTEX
  8
0
  5
10C47
 10
124.184
 20
-1.14805
 30
0.000000
  70
    32
  0
VERTEX
  8
0
  5
10C48
 10
124.197
 20
-1.07969
 30
0.000000
  70
    32
  0
VERTEX
  8
0
  5
10C49
 10
124.210
 20
-1.01067
 30
0.000000
  70
    32
  0
VERTEX
  8
0
  5
10C4A
 10
124.222
 20
-0.941045
 30
0.000000
  70
    32
  0
VERTEX
  8
0
  5
10C4B
 10
124.233
 20
-0.870854
 30
0.000000
  70
    32
  0
VERTEX
  8
0
  5
10C4C
 10
124.244
 20
-0.800138
 30
0.000000
  70
    32
  0
VERTEX
  8
0
  5
10C4D
 10
124.253
 20
-0.728940
 30
0.000000
  70
    32
  0
VERTEX
  8
0
  5
10C4E
 10
124.262
 20
-0.657304
 30
0.000000
  70
    32
  0
VERTEX
  8
0
  5
10C4F
 10
124.269
 20
-0.585271
 30
0.000000
  70
    32
  0
VERTEX
  8
0
  5
10C50
 10
124.276
 20
-0.512886
 30
0.000000
  70
    32
  0
VERTEX
  8
0
  5
10C51
 10
124.282
 20
-0.440191
 30
0.000000
  70
    32
  0
VERTEX
  8
0
  5
10C52
 10
124.287
 20
-0.367232
 30
0.000000
  70
    32
  0
VERTEX
  8
0
  5
10C53
 10
124.291
 20
-0.294051
 30
0.000000
  70
    32
  0
VERTEX
  8
0
  5
10C54
 10
124.294
 20
-0.220694
 30
0.000000
  70
    32
  0
VERTEX
  8
0
  5
10C55
 10
124.296
 20
-0.147203
 30
0.000000
  70
    32
  0
VERTEX
  8
0
  5
10C56
 10
124.298
 20
-0.0736236
 30
0.000000
  70
    32
  0
VERTEX
  8
0
  5
10C57
 10
124.298
 20
3.48077e-008
 30
0.000000
  70
    32
  0
VERTEX
  8
0
  5
10C58
 10
124.298
 20
0.0736237
 30
0.000000
  70
    32
  0
VERTEX
  8
0
  5
10C59
 10
124.296
 20
0.147203
 30
0.000000
  70
    32
  0
VERTEX
  8
0
  5
10C5A
 10
124.294
 20
0.220694
 30
0.000000
  70
    32
  0
VERTEX
  8
0
  5
10C5B
 10
124.291
 20
0.294051
 30
0.000000
  70
    32
  0
VERTEX
  8
0
  5
10C5C
 10
124.287
 20
0.367232
 30
0.000000
  70
    32
  0
VERTEX
  8
0
  5
10C5D
 10
124.282
 20
0.440191
 30
0.000000
  70
    32
  0
VERTEX
  8
0
  5
10C5E
 10
124.276
 20
0.512886
 30
0.000000
  70
    32
  0
VERTEX
  8
0
  5
10C5F
 10
124.269
 20
0.585271
 30
0.000000
  70
    32
  0
VERTEX
  8
0
  5
10C60
 10
124.262
 20
0.657304
 30
0.000000
  70
    32
  0
VERTEX
  8
0
  5
10C61
 10
124.253
 20
0.728941
 30
0.000000
  70
    32
  0
VERTEX
  8
0
  5
10C62
 10
124.244
 20
0.800138
 30
0.000000
  70
    32
  0
VERTEX
  8
0
  5
10C63
 10
124.233
 20
0.870854
 30
0.000000
  70
    32
  0
VERTEX
  8
0
  5
10C64
 10
124.222
 20
0.941045
 30
0.000000
  70
    32
  0
VERTEX
  8
0
  5
10C65
 10
124.210
 20
1.01067
 30
0.000000
  70
    32
  0
VERTEX
  8
0
  5
10C66
 10
124.197
 20
1.07969
 30
0.000000
  70
    32
  0
VERTEX
  8
0
  5
10C67
 10
124.184
 20
1.14805
 30
0.000000
  70
    32
  0
VERTEX
  8
0
  5
10C68
 10
124.169
 20
1.21572
 30
0.000000
  70
    32
  0
VERTEX
  8
0
  5
10C69
 10
124.154
 20
1.28267
 30
0.000000
  70
    32
  0
VERTEX
  8
0
  5
10C6A
 10
124.138
 20
1.34883
 30
0.000000
  70
    32
  0
VERTEX
  8
0
  5
10C6B
 10
124.121
 20
1.41419
 30
0.000000
  70
    32
  0
VERTEX
  8
0
  5
10C6C
 10
124.103
 20
1.47869
 30
0.000000
  70
    32
  0
VERTEX
  8
0
  5
10C6D
 10
124.085
 20
1.54231
 30
0.000000
  70
    32
  0
VERTEX
  8
0
  5
10C6E
 10
124.065
 20
1.60499
 30
0.000000
  70
    32
  0
VERTEX
  8
0
  5
10C6F
 10
124.045
 20
1.66671
 30
0.000000
  70
    32
  0
VERTEX
  8
0
  5
10C70
 10
124.024
 20
1.72742
 30
0.000000
  70
    32
  0
VERTEX
  8
0
  5
10C71
 10
124.003
 20
1.78710
 30
0.000000
  70
    32
  0
VERTEX
  8
0
  5
10C72
 10
123.981
 20
1.84569
 30
0.000000
  70
    32
  0
VERTEX
  8
0
  5
10C73
 10
123.958
 20
1.90318
 30
0.000000
  70
    32
  0
VERTEX
  8
0
  5
10C74
 10
123.934
 20
1.95952
 30
0.000000
  70
    32
  0
VERTEX
  8
0
  5
10C75
 10
123.909
 20
2.01468
 30
0.000000
  70
    32
  0
VERTEX
  8
0
  5
10C76
 10
123.884
 20
2.06862
 30
0.000000
  70
    32
  0
VERTEX
  8
0
  5
10C77
 10
123.859
 20
2.12132
 30
0.000000
  70
    32
  0
VERTEX
  8
0
  5
10C78
 10
123.832
 20
2.17274
 30
0.000000
  70
    32
  0
VERTEX
  8
0
  5
10C79
 10
123.805
 20
2.22285
 30
0.000000
  70
    32
  0
VERTEX
  8
0
  5
10C7A
 10
123.778
 20
2.27163
 30
0.000000
  70
    32
  0
VERTEX
  8
0
  5
10C7B
 10
123.750
 20
2.31903
 30
0.000000
  70
    32
  0
VERTEX
  8
0
  5
10C7C
 10
123.721
 20
2.36504
 30
0.000000
  70
    32
  0
VERTEX
  8
0
  5
10C7D
 10
123.692
 20
2.40962
 30
0.000000
  70
    32
  0
VERTEX
  8
0
  5
10C7E
 10
123.662
 20
2.45275
 30
0.000000
  70
    32
  0
VERTEX
  8
0
  5
10C7F
 10
123.631
 20
2.49441
 30
0.000000
  70
    32
  0
VERTEX
  8
0
  5
10C80
 10
123.600
 20
2.53456
 30
0.000000
  70
    32
  0
VERTEX
  8
0
  5
10C81
 10
123.569
 20
2.57319
 30
0.000000
  70
    32
  0
VERTEX
  8
0
  5
10C82
 10
123.537
 20
2.61026
 30
0.000000
  70
    32
  0
VERTEX
  8
0
  5
10C83
 10
123.505
 20
2.64576
 30
0.000000
  70
    32
  0
VERTEX
  8
0
  5
10C84
 10
123.472
 20
2.67967
 30
0.000000
  70
    32
  0
VERTEX
  8
0
  5
10C85
 10
123.439
 20
2.71197
 30
0.000000
  70
    32
  0
VERTEX
  8
0
  5
10C86
 10
123.406
 20
2.74263
 30
0.000000
  70
    32
  0
VERTEX
  8
0
  5
10C87
 10
123.372
 20
2.77164
 30
0.000000
  70
    32
  0
VERTEX
  8
0
  5
10C88
 10
123.338
 20
2.79898
 30
0.000000
  70
    32
  0
VERTEX
  8
0
  5
10C89
 10
123.303
 20
2.82463
 30
0.000000
  70
    32
  0
VERTEX
  8
0
  5
10C8A
 10
123.269
 20
2.84858
 30
0.000000
  70
    32
  0
VERTEX
  8
0
  5
10C8B
 10
123.233
 20
2.87082
 30
0.000000
  70
    32
  0
VERTEX
  8
0
  5
10C8C
 10
123.198
 20
2.89133
 30
0.000000
  70
    32
  0
VERTEX
  8
0
  5
10C8D
 10
123.162
 20
2.91009
 30
0.000000
  70
    32
  0
VERTEX
  8
0
  5
10C8E
 10
123.127
 20
2.92711
 30
0.000000
  70
    32
  0
VERTEX
  8
0
  5
10C8F
 10
123.091
 20
2.94236
 30
0.000000
  70
    32
  0
VERTEX
  8
0
  5
10C90
 10
123.054
 20
2.95583
 30
0.000000
  70
    32
  0
VERTEX
  8
0
  5
10C91
 10
123.018
 20
2.96753
 30
0.000000
  70
    32
  0
VERTEX
  8
0
  5
10C92
 10
122.982
 20
2.97744
 30
0.000000
  70
    32
  0
VERTEX
  8
0
  5
10C93
 10
122.945
 20
2.98555
 30
0.000000
  70
    32
  0
VERTEX
  8
0
  5
10C94
 10
122.908
 20
2.99187
 30
0.000000
  70
    32
  0
VERTEX
  8
0
  5
10C95
 10
122.872
 20
2.99639
 30
0.000000
  70
    32
  0
VERTEX
  8
0
  5
10C96
 10
122.835
 20
2.99910
 30
0.000000
  70
    32
  0
VERTEX
  8
0
  5
10C97
 10
122.798
 20
3.00000
 30
0.000000
  70
    32
  0
SEQEND
  8
0
  5
10C98
  0
ARC
  5
FA72
  8
0
 10
112.2979980834079
 20
2.8040871053544829
 30
0.0
 40
8.0
 50
239.99999999999619
 51
299.99999999999721
  0
LINE
  5
FA73
  8
0
 10
105.79799808340741
 20
22.25
 30
0.0
 11
108.29799808340699
 21
22.25
 31
0.0
  0
LINE
  5
FA74
  8
0
 10
98.297998083407506
 20
-22.00000000000011
 30
0.0
 11
126.29799808340741
 21
-22.00000000000011
 31
0.0
  0
LINE
  5
FAA5
  8
0
 10
99.297998083407492
 20
20.75
 30
0.0
 11
105.79799808340699
 21
20.75
 31
0.0
  0
LINE
  5
FAA6
  8
0
 10
118.79799808340699
 20
20.75
 30
0.0
 11
125.29799808340741
 21
20.75
 31
0.0
  0
LINE
  5
FAA7
  8
0
 10
116.29799808340699
 20
22.25
 30
0.0
 11
118.79799808340741
 21
22.25
 31
0.0
  0
LINE
  5
FAA8
  8
0
 10
101.29799808340741
 20
-43.000004000000096
 30
0.0
 11
123.29799808340741
 21
-43.000004000000096
 31
0.0
  0
LINE
  5
FAA9
  8
0
  6
CENTER
 10
112.29799808340751
 20
-45.918320000000101
 30
0.0
 11
112.29799808340751
 21
24.81469700000002
 31
0.0
  0
LINE
  5
FAAA
  8
0
 10
123.29799808340741
 20
-22.00000000000011
 30
0.0
 11
123.29799808340741
 21
-43.000004000000096
 31
0.0
  0
LINE
  5
FAAB
  8
0
 10
101.29799808340741
 20
-22.00000000000011
 30
0.0
 11
101.29799808340741
 21
-43.000004000000096
 31
0.0
  0
LINE
  5
FAAE
  8
0
 10
98.297998083407506
 20
-16.988896216065541
 30
0.0
 11
105.79799808340741
 21
-16.988896216065541
 31
0.0
  0
LINE
  5
FAAF
  8
0
 10
118.79799808340741
 20
-16.988896216065541
 30
0.0
 11
126.29799808340741
 21
-16.988896216065541
 31
0.0
  0
LINE
  5
FAB0
  8
0
 10
105.79799808340741
 20
-18.73666146654034
 30
0.0
 11
118.79799808340741
 21
-18.73666146654034
 31
0.0
  0
LINE
  5
FAE6
  8
0
 10
98.297998083407506
 20
-10.70339048180653
 30
0.0
 11
101.79799808340751
 21
-7.0
 31
0.0
  0
LINE
  5
FAE7
  8
0
 10
122.7979980834079
 20
-7.0
 30
0.0
 11
126.29799808340741
 21
-10.70339048180653
 31
0.0
  0
LINE
  5
FC54
  8
0
 10
107.29799808340741
 20
-5.5
 30
0.0
 11
107.29799808340741
 21
-7.0
 31
0.0
  0
LINE
  5
FC55
  8
0
 10
117.29799808340741
 20
-5.5
 30
0.0
 11
117.29799808340741
 21
-7.0
 31
0.0
  0
LINE
  5
FC56
  8
0
 10
117.29799808340741
 20
-5.5
 30
0.0
 11
121.29799808340741
 21
-5.5
 31
0.0
  0
LINE
  5
FC57
  8
0
 10
118.79799808340699
 20
-7.0000000000002274
 30
0.0
 11
122.7979980834079
 21
-7.0
 31
0.0
  0
LINE
  5
FC58
  8
0
 10
107.29799808340741
 20
-7.0
 30
0.0
 11
117.29799808340741
 21
-7.0
 31
0.0
  0
LINE
  5
FEF2
  8
0
 10
107.29799808340741
 20
7.5
 30
0.0
 11
107.29799808340741
 21
6.0
 31
0.0
  0
LINE
  5
FEF4
  8
0
 10
117.29799808340699
 20
6.0
 30
0.0
 11
125.29799808340741
 21
6.0
 31
0.0
  0
LINE
  5
FEF5
  8
0
 10
107.29799808340741
 20
7.5
 30
0.0
 11
108.04799808340699
 21
7.5
 31
0.0
  0
LINE
  5
FEF6
  8
0
 10
117.2979980834065
 20
7.5
 30
0.0
 11
117.29799808340699
 21
6.0
 31
0.0
  0
LINE
  5
FEF7
  8
0
 10
118.79799808340741
 20
7.5
 30
0.0
 11
125.29799808340741
 21
7.5
 31
0.0
  0
LINE
  5
FEFA
  8
0
 10
108.04799808340699
 20
9.0
 30
0.0
 11
108.04799808340699
 21
7.5
 31
0.0
  0
LINE
  5
FEFB
  8
0
 10
116.54799808340699
 20
9.0
 30
0.0
 11
116.54799808340699
 21
7.5
 31
0.0
  0
LINE
  5
FEFC
  8
0
 10
116.54799808340699
 20
7.5
 30
0.0
 11
117.2979980834065
 21
7.5
 31
0.0
  0
LINE
  5
10075
  8
0
  6
CENTER
 10
96.578650867111264
 20
0.0000000000002274
 30
0.0
 11
128.01734529970409
 21
0.0000000000002274
 31
0.0
  0
LINE
  5
1007B
  8
0
  6
CENTER
 10
0.0
 20
91.171795058619637
 30
0.0
 11
0.0
 21
61.380455058619873
 31
0.0
  0
LINE
  5
1007D
  8
0
  6
CENTER
 10
31.0
 20
85.057706362544195
 30
0.0
 11
31.0
 21
67.4945438163777
 31
0.0
  0
CIRCLE
  5
10094
  8
0
 10
31.0
 20
76.276125058619755
 30
0.0
 40
4.0
  0
CIRCLE
  5
10095
  8
0
 10
31.0
 20
76.276125058619755
 30
0.0
 40
5.5
  0
CIRCLE
  5
10096
  8
0
 10
31.0
 20
76.276125058619755
 30
0.0
 40
3.0
  0
CIRCLE
  5
100AB
  8
0
 10
31.0
 20
0.0
 30
0.0
 40
2.9999998999996929
  0
CIRCLE
  5
100AD
  8
0
 10
-31.0
 20
0.0
 30
0.0
 40
2.9999998999996929
  0
TEXT
  5
10263
  8
0
 10
-174.42637459232341
 20
165.45481739829731
 30
0.0
 40
30.0
  1
P-HANGER(S) 1.5S
 72
     4
 11
41.002196836247997
 21
178.3119602554402
 31
0.0
  0
ENDSEC
  0
EOF
