  0
SECTION
  2
HEADER
  9
$ACADVER
  1
AC1009
  9
$INSBASE
 10
0.0
 20
0.0
 30
0.0
  9
$EXTMIN
 10
-147.2835174494663
 20
-45.75372909999998
 30
0.0
  9
$EXTMAX
 10
229.2879111219622
 20
211.6907497362796
 30
0.0
  9
$LIMMIN
 10
0.0
 20
0.0
  9
$LIMMAX
 10
420.0
 20
297.0
  9
$ORTHOMODE
 70
     0
  9
$REGENMODE
 70
     1
  9
$FILLMODE
 70
     1
  9
$QTEXTMODE
 70
     0
  9
$MIRRTEXT
 70
     1
  9
$DRAGMODE
 70
     2
  9
$LTSCALE
 40
1.0
  9
$OSMODE
 70
    37
  9
$ATTMODE
 70
     1
  9
$TEXTSIZE
 40
73.985717453579113
  9
$TRACEWID
 40
1.0
  9
$TEXTSTYLE
  7
STANDARD
  9
$CLAYER
  8
0
  9
$CELTYPE
  6
BYLAYER
  9
$CECOLOR
 62
   256
  9
$DIMSCALE
 40
1.0
  9
$DIMASZ
 40
0.18
  9
$DIMEXO
 40
0.0625
  9
$DIMDLI
 40
0.38
  9
$DIMRND
 40
0.0
  9
$DIMDLE
 40
0.0
  9
$DIMEXE
 40
0.18
  9
$DIMTP
 40
0.0
  9
$DIMTM
 40
0.0
  9
$DIMTXT
 40
0.18
  9
$DIMCEN
 40
0.09
  9
$DIMTSZ
 40
0.0
  9
$DIMTOL
 70
     0
  9
$DIMLIM
 70
     0
  9
$DIMTIH
 70
     1
  9
$DIMTOH
 70
     1
  9
$DIMSE1
 70
     0
  9
$DIMSE2
 70
     0
  9
$DIMTAD
 70
     0
  9
$DIMZIN
 70
     0
  9
$DIMBLK
  1

  9
$DIMASO
 70
     1
  9
$DIMSHO
 70
     1
  9
$DIMPOST
  1

  9
$DIMAPOST
  1

  9
$DIMALT
 70
     0
  9
$DIMALTD
 70
     2
  9
$DIMALTF
 40
25.399999999999999
  9
$DIMLFAC
 40
1.0
  9
$DIMTOFL
 70
     0
  9
$DIMTVP
 40
0.0
  9
$DIMTIX
 70
     0
  9
$DIMSOXD
 70
     0
  9
$DIMSAH
 70
     0
  9
$DIMBLK1
  1

  9
$DIMBLK2
  1

  9
$DIMSTYLE
  2
STANDARD
  9
$DIMCLRD
 70
     0
  9
$DIMCLRE
 70
     0
  9
$DIMCLRT
 70
     0
  9
$DIMTFAC
 40
1.0
  9
$DIMGAP
 40
0.09
  9
$LUNITS
 70
     2
  9
$LUPREC
 70
     8
  9
$SKETCHINC
 40
1.0
  9
$FILLETRAD
 40
0.0
  9
$AUNITS
 70
     0
  9
$AUPREC
 70
     8
  9
$MENU
  1
.
  9
$ELEVATION
 40
0.0
  9
$PELEVATION
 40
0.0
  9
$THICKNESS
 40
0.0
  9
$LIMCHECK
 70
     0
  9
$BLIPMODE
 70
     0
  9
$CHAMFERA
 40
2.5
  9
$CHAMFERB
 40
2.5
  9
$SKPOLY
 70
     0
  9
$TDCREATE
 40
2454749.4701119331
  9
$TDUPDATE
 40
2454749.7564910641
  9
$TDINDWG
 40
0.1764275694
  9
$TDUSRTIMER
 40
0.176427037
  9
$USRTIMER
 70
     1
  9
$ANGBASE
 50
0.0
  9
$ANGDIR
 70
     1
  9
$PDMODE
 70
     0
  9
$PDSIZE
 40
0.0
  9
$PLINEWID
 40
0.0
  9
$COORDS
 70
     1
  9
$SPLFRAME
 70
     0
  9
$SPLINETYPE
 70
     6
  9
$SPLINESEGS
 70
     8
  9
$ATTDIA
 70
     0
  9
$ATTREQ
 70
     1
  9
$HANDLING
 70
 22529
  9
$HANDSEED
  5
10C99
  9
$SURFTAB1
 70
     6
  9
$SURFTAB2
 70
     6
  9
$SURFTYPE
 70
     6
  9
$SURFU
 70
     6
  9
$SURFV
 70
     6
  9
$UCSNAME
  2

  9
$UCSORG
 10
0.0
 20
0.0
 30
0.0
  9
$UCSXDIR
 10
1.0
 20
0.0
 30
0.0
  9
$UCSYDIR
 10
0.0
 20
1.0
 30
0.0
  9
$PUCSNAME
  2

  9
$PUCSORG
 10
0.0
 20
0.0
 30
0.0
  9
$PUCSXDIR
 10
1.0
 20
0.0
 30
0.0
  9
$PUCSYDIR
 10
0.0
 20
1.0
 30
0.0
  9
$USERI1
 70
     0
  9
$USERI2
 70
     0
  9
$USERI3
 70
     0
  9
$USERI4
 70
     0
  9
$USERI5
 70
     0
  9
$USERR1
 40
0.0
  9
$USERR2
 40
0.0
  9
$USERR3
 40
0.0
  9
$USERR4
 40
0.0
  9
$USERR5
 40
0.0
  9
$WORLDVIEW
 70
     1
  9
$SHADEDGE
 70
     3
  9
$SHADEDIF
 70
    70
  9
$TILEMODE
 70
     1
  9
$MAXACTVP
 70
    48
  9
$PLIMCHECK
 70
     0
  9
$PEXTMIN
 10
1.0000000000000000E+020
 20
1.0000000000000000E+020
 30
1.0000000000000000E+020
  9
$PEXTMAX
 10
-1.0000000000000000E+020
 20
-1.0000000000000000E+020
 30
-1.0000000000000000E+020
  9
$PLIMMIN
 10
0.0
 20
0.0
  9
$PLIMMAX
 10
420.0
 20
297.0
  9
$UNITMODE
 70
     0
  9
$VISRETAIN
 70
     1
  9
$PLINEGEN
 70
     0
  9
$PSLTSCALE
 70
     1
  0
ENDSEC
  0
SECTION
  2
TABLES
  0
TABLE
  2
VPORT
 70
     2
  0
VPORT
  2
*ACTIVE
 70
     0
 10
0.0
 20
0.0
 11
1.0
 21
1.0
 12
41.011746746769091
 22
82.972430314434405
 13
0.0
 23
0.0
 14
2.5
 24
2.5
 15
10.0
 25
10.0
 16
0.0
 26
0.0
 36
1.0
 17
0.0
 27
0.0
 37
0.0
 40
259.45189398728962
 41
1.531806615776081
 42
50.0
 43
0.0
 44
0.0
 50
0.0
 51
0.0
 71
     0
 72
   100
 73
     1
 74
     3
 75
     0
 76
     0
 77
     0
 78
     0
  0
ENDTAB
  0
TABLE
  2
LTYPE
 70
     2
  0
LTYPE
  2
CONTINUOUS
 70
     0
  3
Solid line
 72
    65
 73
     0
 40
0.0
  0
LTYPE
  2
CENTER
 70
     0
  3
__ . __
 72
    65
 73
     4
 40
7.0
 49
4.0
 49
-1.0
 49
1.0
 49
-1.0
  0
ENDTAB
  0
TABLE
  2
LAYER
 70
     1
  0
LAYER
  2
0
 70
     0
 62
     7
  6
CONTINUOUS
  0
ENDTAB
  0
TABLE
  2
STYLE
 70
     2
  0
STYLE
  2
STANDARD
 70
     0
 40
0.0
 41
0.7
 50
0.0
 71
     0
 42
73.985717453579113
  3
romans.shx
  4
bigfont.shx
  0
STYLE
  2
TSKDIM
 70
     0
 40
0.0
 41
0.75
 50
0.0
 71
     0
 42
4.0
  3
romans.shx
  4
EXTFONT.SHX
  0
ENDTAB
  0
TABLE
  2
VIEW
 70
     0
  0
ENDTAB
  0
TABLE
  2
UCS
 70
     0
  0
ENDTAB
  0
TABLE
  2
APPID
 70
    43
  0
APPID
  2
ACAD
 70
     0
  0
APPID
  2
MCAD_NO_VIS
 70
     0
  0
APPID
  2
ACAD_TEMP_GRAPHIC
 70
     0
  0
APPID
  2
ACATTRIBSERVICES
 70
     0
  0
APPID
  2
AD_DRAW
 70
     0
  0
APPID
  2
DESIGNERASSEMBLIES
 70
     0
  0
APPID
  2
ASURF_PCURVE_APPNAME
 70
     0
  0
APPID
  2
ACADM_DIM_EDIT
 70
     0
  0
APPID
  2
GENIUS_GENDIM_13
 70
     0
  0
APPID
  2
GENIUS_GENDTOL_13
 70
     0
  0
APPID
  2
GENIUS_GE3DTOL_13
 70
     0
  0
APPID
  2
AMG_3D2D_5_0
 70
     0
  0
APPID
  2
AMDT_DM_ADJ
 70
     0
  0
APPID
  2
CK_MATE-SERIES
 70
     0
  0
APPID
  2
GEVID1042077799
 70
     0
  0
APPID
  2
GEVMK
 70
     0
  0
APPID
  2
GEVDC
 70
     0
  0
APPID
  2
GENIUS_GENBH_13
 70
     0
  0
APPID
  2
GENIUS_GENOLIS_13
 70
     0
  0
APPID
  2
GENIUS_GENOENT_13
 70
     0
  0
APPID
  2
GENIUS_GENODEF_13
 70
     0
  0
APPID
  2
GENIUS_GENOBJ-NBEHI-BHF_13
 70
     0
  0
APPID
  2
GENIUS_GENOREF_13
 70
     0
  0
APPID
  2
GENIUS_GENOBJ-NBEHI-BHB_13
 70
     0
  0
APPID
  2
GEVID1042183772
 70
     0
  0
APPID
  2
GEVID1042183773
 70
     0
  0
APPID
  2
GEVID1042183774
 70
     0
  0
APPID
  2
DCO15
 70
     0
  0
APPID
  2
ACAD_DSTYLE_DIMARC_LENGTH_
 70
     0
  0
APPID
  2
ACAD_DSTYLE_DIMJOGGED_JOGA
 70
     0
  0
APPID
  2
ACAD_MLEADERVER
 70
     0
  0
APPID
  2
ACAD_DSTYLE_DIMJAG
 70
     0
  0
APPID
  2
ACAD_DSTYLE_DIMTALN
 70
     0
  0
APPID
  2
ACAD_PSEXT
 70
     0
  0
APPID
  2
ACAD_EXEMPT_FROM_CAD_STANDARDS
 70
     0
  0
APPID
  2
ACAECLAYERSTANDARD
 70
     0
  0
APPID
  2
ACAD_DSTYLE_DIMINSPECT
 70
     0
  0
APPID
  2
ACAD_DSTYLE_DIM_LINETYPE
 70
     0
  0
APPID
  2
ACAD_DSTYLE_DIM_EXT1_LINETYPE
 70
     0
  0
APPID
  2
ACAD_DSTYLE_DIM_EXT2_LINETYPE
 70
     0
  0
APPID
  2
ACADANNOTATIVE
 70
     0
  0
APPID
  2
ACAD_DSTYLE_DIMANGULAR_EXT
 70
     0
  0
APPID
  2
GENIUS_GENOBJ-N-FIL_13
 70
     0
  0
ENDTAB
  0
TABLE
  2
DIMSTYLE
 70
     1
  0
DIMSTYLE
  2
STANDARD
 70
     0
  3

  4

  5

  6

  7

 40
1.0
 41
0.18
 42
0.0625
 43
0.38
 44
0.18
 45
0.0
 46
0.0
 47
0.0
 48
0.0
140
0.18
141
0.09
142
0.0
143
25.399999999999999
144
1.0
145
0.0
146
1.0
147
0.09
 71
     0
 72
     0
 73
     1
 74
     1
 75
     0
 76
     0
 77
     0
 78
     0
170
     0
171
     2
172
     0
173
     0
174
     0
175
     0
176
     0
177
     0
178
     0
  0
ENDTAB
  0
ENDSEC
  0
SECTION
  2
BLOCKS
  0
BLOCK
  8
0
  2
$MODEL_SPACE
 70
     0
 10
0.0
 20
0.0
 30
0.0
  3
$MODEL_SPACE
  1

  0
ENDBLK
  5
21
  8
0
  0
BLOCK
 67
     1
  8
0
  2
$PAPER_SPACE
 70
     0
 10
0.0
 20
0.0
 30
0.0
  3
$PAPER_SPACE
  1

  0
ENDBLK
  5
1D
 67
     1
  8
0
  0
BLOCK
  8
0
  2
_OPEN
 70
     0
 10
0.0
 20
0.0
 30
0.0
  3
_OPEN
  1

  0
LINE
  5
15A
  8
0
  6
BYBLOCK
 62
     0
 10
-1.0
 20
0.1666666666666666
 30
0.0
 11
0.0
 21
0.0
 31
0.0
  0
LINE
  5
15B
  8
0
  6
BYBLOCK
 62
     0
 10
-1.0
 20
-0.1666666666666666
 30
0.0
 11
0.0
 21
0.0
 31
0.0
  0
LINE
  5
15C
  8
0
  6
BYBLOCK
 62
     0
 10
0.0
 20
0.0
 30
0.0
 11
-1.0
 21
0.0
 31
0.0
  0
ENDBLK
  5
15E
  8
0
  0
ENDSEC
  0
SECTION
  2
ENTITIES
  0
LINE
  5
BBB
  8
0
 10
-10.850010000000109
 20
-16.5
 30
0.0
 11
11.0
 21
-16.5
 31
0.0
  0
LINE
  5
BBC
  8
0
 10
-10.0
 20
-15.0
 30
0.0
 11
10.02561999999989
 21
-15.0
 31
0.0
  0
LINE
  5
BBE
  8
0
 10
-11.5
 20
-8.7357030000000577
 30
0.0
 11
-11.5
 21
-15.5
 31
0.0
  0
LINE
  5
BBF
  8
0
 10
11.5
 20
-8.7357030000000577
 30
0.0
 11
11.5
 21
-15.5
 31
0.0
  0
LINE
  5
BC0
  8
0
 10
10.0
 20
-7.9096529999999339
 30
0.0
 11
10.0
 21
-15.0
 31
0.0
  0
LINE
  5
BC1
  8
0
 10
-10.0
 20
-7.9096529999999339
 30
0.0
 11
-10.0
 21
-15.0
 31
0.0
  0
LINE
  5
BC3
  8
0
 10
-25.5
 20
-8.5
 30
0.0
 11
-25.5
 21
9.0
 31
0.0
  0
LINE
  5
BC4
  8
0
 10
34.0
 20
3.0
 30
0.0
 11
34.0
 21
-8.5
 31
0.0
  0
LINE
  5
BC5
  8
0
 10
-25.5
 20
-7.0
 30
0.0
 11
-12.98315000000002
 21
-7.0
 31
0.0
  0
LINE
  5
BC6
  8
0
 10
-25.5
 20
-8.5
 30
0.0
 11
-13.795380000000019
 21
-8.5
 31
0.0
  0
LINE
  5
BC7
  8
0
 10
11.50271999999995
 20
-5.5
 30
0.0
 11
22.0
 21
-5.5
 31
0.0
  0
LINE
  5
BC8
  8
0
 10
12.983169999999969
 20
-7.0
 30
0.0
 11
34.0
 21
-7.0
 31
0.0
  0
LINE
  5
BC9
  8
0
 10
13.795380000000019
 20
-8.5
 30
0.0
 11
34.0
 21
-8.5
 31
0.0
  0
LINE
  5
BCA
  8
0
  6
CENTER
 10
-20.0
 20
-10.38954200000012
 30
0.0
 11
-20.0
 21
9.8932409999997617
 31
0.0
  0
LINE
  5
BCB
  8
0
 10
-14.5
 20
-7.0
 30
0.0
 11
-14.5
 21
7.5
 31
0.0
  0
LINE
  5
BCC
  8
0
  6
CENTER
 10
28.0
 20
-9.8452529999999552
 30
0.0
 11
28.0
 21
26.969209999999968
 31
0.0
  0
LINE
  5
BCD
  8
0
 10
22.0
 20
3.0
 30
0.0
 11
22.0
 21
-7.0
 31
0.0
  0
LINE
  5
BCE
  8
0
 10
24.0
 20
5.0
 30
0.0
 11
32.0
 21
5.0
 31
0.0
  0
LINE
  5
BCF
  8
0
 10
-14.5
 20
-5.5
 30
0.0
 11
-11.50271999999995
 21
-5.5
 31
0.0
  0
LINE
  5
C01
  8
0
  6
CENTER
 10
0.0
 20
-40.418319999999987
 30
0.0
 11
0.0
 21
17.950919999999769
 31
0.0
  0
LINE
  5
C05
  8
0
 10
-10.850010000000109
 20
-37.50000799999998
 30
0.0
 11
10.850010000000109
 21
-37.50000799999998
 31
0.0
  0
LINE
  5
C07
  8
0
 10
-10.850010000000109
 20
-16.5
 30
0.0
 11
-10.850010000000109
 21
-37.50000799999998
 31
0.0
  0
LINE
  5
C08
  8
0
 10
10.850010000000109
 20
-16.5
 30
0.0
 11
10.850010000000109
 21
-37.50000799999998
 31
0.0
  0
LINE
  5
C4C
  8
0
 10
-9.6999999999998181
 20
-13.999997000000119
 30
0.0
 11
-10.0
 21
-14.29999700000007
 31
0.0
  0
LINE
  5
C4E
  8
0
 10
9.7000000000002728
 20
-14.0
 30
0.0
 11
-9.6999999999998181
 21
-14.0
 31
0.0
  0
LINE
  5
C4F
  8
0
 10
9.7000000000002728
 20
-13.999997000000119
 30
0.0
 11
10.0000100000002
 21
-14.300001999999941
 31
0.0
  0
ARC
  5
C51
  8
0
 10
0.0
 20
0.0
 30
0.0
 40
14.25
 50
211.6406599999988
 51
214.94801000000581
  0
ARC
  5
C52
  8
0
 10
0.0
 20
0.0
 30
0.0
 40
15.75
 50
214.55270999999809
 51
223.10028999998769
  0
ARC
  5
C53
  8
0
 10
0.0
 20
0.0
 30
0.0
 40
14.25
 50
325.05198000000621
 51
328.35934000000111
  0
ARC
  5
C54
  8
0
 10
0.0
 20
0.0
 30
0.0
 40
15.75
 50
316.89969999998692
 51
325.44729000000177
  0
ARC
  5
C58
  8
0
 10
24.0
 20
3.0
 30
0.0
 40
2.0
 50
90.000003000010722
 51
180.000010000001
  0
ARC
  5
C59
  8
0
 10
32.0
 20
3.0
 30
0.0
 40
2.0
 50
0.0
 51
90.000003000010722
  0
ARC
  5
C5B
  8
0
 10
-10.5
 20
-15.5
 30
0.0
 40
1.0
 50
179.99998999999889
 51
270.0
  0
ARC
  5
C5C
  8
0
 10
10.5
 20
-15.5
 30
0.0
 40
1.0
 50
270.0
 51
0.0
  0
ARC
  5
C5D
  8
0
 10
-13.795380000000019
 20
-9.5
 30
0.0
 40
1.0
 50
34.552710999997672
 51
90.000003000010722
  0
ARC
  5
C5E
  8
0
 10
-12.98315000000002
 20
-8.0
 30
0.0
 40
1.0
 50
31.64065699999373
 51
90.000003000010722
  0
ARC
  5
C5F
  8
0
 10
-12.5
 20
-8.7357030000000577
 30
0.0
 40
1.0
 50
0.0
 51
34.948014999994449
  0
ARC
  5
C60
  8
0
 10
12.5
 20
-8.7357030000000577
 30
0.0
 40
1.0
 50
145.05198999999419
 51
180.000010000001
  0
ARC
  5
C61
  8
0
 10
12.983169999999969
 20
-8.0
 30
0.0
 40
1.0
 50
90.000003000010722
 51
148.35934000000111
  0
ARC
  5
C62
  8
0
 10
13.795380000000019
 20
-9.5
 30
0.0
 40
1.0
 50
90.000003000010722
 51
145.4472900000018
  0
ARC
  5
C69
  8
0
 10
0.0
 20
0.0
 30
0.0
 40
12.75
 50
205.5546999999994
 51
218.34274999998661
  0
ARC
  5
C6A
  8
0
 10
0.0
 20
0.0
 30
0.0
 40
12.75
 50
321.65725000001328
 51
334.44530000000049
  0
LINE
  5
30D7
  8
0
  6
CENTER
 10
-28.019619999999119
 20
0.0
 30
0.0
 11
39.344470000000001
 21
0.0
 31
0.0
  0
LINE
  5
30D8
  8
0
  6
CENTER
 10
0.0
 20
101.69344168231591
 30
0.0
 11
0.0
 21
71.902101682316243
 31
0.0
  0
LINE
  5
30DC
  8
0
 10
36.5
 20
9.0
 30
0.0
 11
36.5
 21
6.0
 31
0.0
  0
LINE
  5
30DF
  8
0
 10
-25.5
 20
7.5
 30
0.0
 11
-12.661449999999601
 21
7.5
 31
0.0
  0
LINE
  5
30E0
  8
0
 10
-25.5
 20
9.0
 30
0.0
 11
-13.43734999999924
 21
9.0
 31
0.0
  0
LINE
  5
30E1
  8
0
 10
11.83481000000028
 20
6.0
 30
0.0
 11
36.5
 21
6.0
 31
0.0
  0
LINE
  5
30E2
  8
0
 10
12.66147000000001
 20
7.5
 30
0.0
 11
36.5
 21
7.5
 31
0.0
  0
LINE
  5
30E3
  8
0
 10
13.437360000000799
 20
9.0
 30
0.0
 11
36.5
 21
9.0
 31
0.0
  0
LINE
  5
30E4
  8
0
  6
CENTER
 10
-31.016539999999619
 20
86.797771682316124
 30
0.0
 11
36.946520000000419
 21
86.797771682316124
 31
0.0
  0
LINE
  5
30E6
  8
0
 10
-10.783159999999951
 20
73.797771682316124
 30
0.0
 11
36.5
 21
73.797771682316124
 31
0.0
  0
LINE
  5
30E7
  8
0
 10
-10.783159999999951
 20
99.797771682316124
 30
0.0
 11
36.5
 21
99.797771682316124
 31
0.0
  0
LINE
  5
30E8
  8
0
 10
36.5
 20
99.797771682316124
 30
0.0
 11
36.5
 21
91.047771682316124
 31
0.0
  0
LINE
  5
30E9
  8
0
 10
33.562153647645573
 20
91.047771682316124
 30
0.0
 11
36.5
 21
91.047771682316124
 31
0.0
  0
LINE
  5
30EA
  8
0
 10
33.562153647645573
 20
82.547771682316124
 30
0.0
 11
36.5
 21
82.547771682316124
 31
0.0
  0
LINE
  5
30EB
  8
0
 10
-25.5
 20
93.297771682316124
 30
0.0
 11
25.40191355031947
 21
93.297771682316124
 31
0.0
  0
LINE
  5
30EC
  8
0
 10
-25.5
 20
80.297771682316124
 30
0.0
 11
25.40191355031947
 21
80.297771682316124
 31
0.0
  0
LINE
  5
30ED
  8
0
 10
36.5
 20
82.547771682316124
 30
0.0
 11
36.5
 21
73.797771682316124
 31
0.0
  0
LINE
  5
30EE
  8
0
 10
-25.5
 20
99.297771682316124
 30
0.0
 11
-25.5
 21
74.297771682316124
 31
0.0
  0
LINE
  5
30EF
  8
0
 10
-25.5
 20
74.297771682316124
 30
0.0
 11
-14.5
 21
74.297771682316124
 31
0.0
  0
LINE
  5
30F0
  8
0
 10
-25.5
 20
99.297771682316124
 30
0.0
 11
-14.5
 21
99.297771682316124
 31
0.0
  0
LINE
  5
30F1
  8
0
  6
CENTER
 10
-20.0
 20
100.346971682316
 30
0.0
 11
-20.0
 21
72.931351682315835
 31
0.0
  0
LINE
  5
30F2
  8
0
 10
-14.5
 20
99.297771682316124
 30
0.0
 11
-14.5
 21
97.797771682316124
 31
0.0
  0
LINE
  5
30FA
  8
0
 10
-12.625499999999191
 20
75.439901682315849
 30
0.0
 11
-11.549759999999869
 21
74.155651682316147
 31
0.0
  0
LINE
  5
30FB
  8
0
 10
-11.549759999999869
 20
99.439891682316102
 30
0.0
 11
-12.625499999999191
 21
98.155631682316184
 31
0.0
  0
LINE
  5
30FC
  8
0
 10
-12.92525999999998
 20
92.949081682315864
 30
0.0
 11
-12.92525999999998
 21
80.62602168231615
 31
0.0
  0
LINE
  5
30FD
  8
0
 10
-12.116619999999781
 20
98.226271682316124
 30
0.0
 11
-12.116619999999781
 21
93.708721682316082
 31
0.0
  0
LINE
  5
30FE
  8
0
 10
-12.116619999999781
 20
79.850861682316008
 30
0.0
 11
-12.116619999999781
 21
75.272281682316134
 31
0.0
  0
LINE
  5
30FF
  8
0
 10
-14.5
 20
75.797771682316124
 30
0.0
 11
-14.5
 21
74.297771682316124
 31
0.0
  0
LINE
  5
3100
  8
0
 10
-14.5
 20
75.797771682316124
 30
0.0
 11
-13.392089999999371
 21
75.797771682316124
 31
0.0
  0
LINE
  5
3101
  8
0
 10
-14.5
 20
97.797771682316124
 30
0.0
 11
-12.92525999999998
 21
97.797771682316124
 31
0.0
  0
LINE
  5
3102
  8
0
 10
-14.5
 20
6.0
 30
0.0
 11
-11.834789999999879
 21
6.0
 31
0.0
  0
LINE
  5
3103
  8
0
 10
12.11662000000069
 20
99.198471682315827
 30
0.0
 11
12.11662000000069
 21
94.080721682315925
 31
0.0
  0
LINE
  5
3104
  8
0
 10
12.92525999999998
 20
92.820971682315758
 30
0.0
 11
12.92525999999998
 21
88.078596201955406
 31
0.0
  0
LINE
  5
3105
  8
0
 10
12.11662000000069
 20
79.829751682315873
 30
0.0
 11
12.11662000000069
 21
74.318331682316057
 31
0.0
  0
ARC
  5
310B
  8
0
 10
0.0
 20
0.0
 30
0.0
 40
12.75
 50
30.60327699998637
 51
149.39669000000879
  0
ARC
  5
310C
  8
0
 10
0.0
 20
0.0
 30
0.0
 40
14.25
 50
33.874595999970339
 51
146.1254099999841
  0
ARC
  5
310D
  8
0
 10
0.0
 20
0.0
 30
0.0
 40
15.75
 50
36.656405999998128
 51
143.3435999999972
  0
ARC
  5
310E
  8
0
 10
-13.43734999999924
 20
10.0
 30
0.0
 40
1.0
 50
270.0
 51
323.3435899999684
  0
ARC
  5
310F
  8
0
 10
-12.661449999999601
 20
8.5
 30
0.0
 40
1.0
 50
270.0
 51
326.12540000000558
  0
ARC
  5
3110
  8
0
 10
-11.834789999999879
 20
7.0
 30
0.0
 40
1.0
 50
294.7247200000001
 51
329.39670999999549
  0
ARC
  5
3111
  8
0
 10
13.437360000000799
 20
10.0
 30
0.0
 40
1.0
 50
216.65640000000269
 51
270.0
  0
ARC
  5
3112
  8
0
 10
12.66147000000001
 20
8.5
 30
0.0
 40
1.0
 50
213.87459000001579
 51
270.0
  0
ARC
  5
3113
  8
0
 10
11.83481000000028
 20
7.0
 30
0.0
 40
1.0
 50
210.60329999999769
 51
270.0
  0
ARC
  5
3115
  8
0
 10
-13.392089999999371
 20
74.797771682316124
 30
0.0
 40
1.0
 50
39.950650999992
 51
90.000002999984659
  0
ARC
  5
3116
  8
0
 10
-10.783159999999951
 20
74.797771682316124
 30
0.0
 40
1.0
 50
219.95064999999511
 51
270.0
  0
ARC
  5
3117
  8
0
 10
-13.392089999999371
 20
98.797771682316124
 30
0.0
 40
1.0
 50
268.12411000001248
 51
320.04934999998812
  0
ARC
  5
3118
  8
0
 10
-10.783159999999951
 20
98.797771682316124
 30
0.0
 40
1.0
 50
90.000002999984659
 51
140.04935000000481
  0
LINE
  5
F7C1
  8
0
 10
33.5
 20
15.0
 30
0.0
 11
22.5
 21
15.0
 31
0.0
  0
LINE
  5
F7C2
  8
0
 10
33.500044000000337
 20
15.000019999999941
 30
0.0
 11
35.000045000000682
 21
9.0000199999999495
 31
0.0
  0
LINE
  5
F7C3
  8
0
 10
37.328972999999671
 20
23.52635000000009
 30
0.0
 11
42.765666999999667
 21
20.419669999999989
 31
0.0
  0
LINE
  5
F7C4
  8
0
 10
32.0
 20
24.22545000000013
 30
0.0
 11
32.0
 21
15.0
 31
0.0
  0
LINE
  5
F7C5
  8
0
 10
32.0
 20
6.0
 30
0.0
 11
32.0
 21
5.0
 31
0.0
  0
LINE
  5
F7C6
  8
0
 10
31.0
 20
25.22545000000013
 30
0.0
 11
25.0
 21
25.22545000000013
 31
0.0
  0
LINE
  5
F7C7
  8
0
 10
31.000035999999451
 20
25.225490000000029
 30
0.0
 11
32.000036999999793
 21
24.225490000000029
 31
0.0
  0
ARC
  5
F7C8
  8
0
 10
36.832518999999593
 20
22.657570000000071
 30
0.0
 40
1.0
 50
60.255116000012798
 51
149.14714999999811
  0
ARC
  5
F7C9
  8
0
 10
42.269538999999902
 20
19.55146000000013
 30
0.0
 40
1.0
 50
338.7236600000021
 51
60.255116000012798
  0
POLYLINE
  8
0
  5
10505
  66
     1
 10
0.000000
 20
0.000000
 30
0.000000
  70
     8
  0
VERTEX
  8
0
  5
10506
 10
33.5000
 20
15.0000
 30
0.000000
  70
    32
  0
VERTEX
  8
0
  5
10507
 10
33.5016
 20
15.0300
 30
0.000000
  70
    32
  0
VERTEX
  8
0
  5
10508
 10
33.5032
 20
15.0600
 30
0.000000
  70
    32
  0
VERTEX
  8
0
  5
10509
 10
33.5049
 20
15.0900
 30
0.000000
  70
    32
  0
VERTEX
  8
0
  5
1050A
 10
33.5066
 20
15.1200
 30
0.000000
  70
    32
  0
VERTEX
  8
0
  5
1050B
 10
33.5084
 20
15.1500
 30
0.000000
  70
    32
  0
VERTEX
  8
0
  5
1050C
 10
33.5102
 20
15.1800
 30
0.000000
  70
    32
  0
VERTEX
  8
0
  5
1050D
 10
33.5121
 20
15.2100
 30
0.000000
  70
    32
  0
VERTEX
  8
0
  5
1050E
 10
33.5140
 20
15.2399
 30
0.000000
  70
    32
  0
VERTEX
  8
0
  5
1050F
 10
33.5160
 20
15.2699
 30
0.000000
  70
    32
  0
VERTEX
  8
0
  5
10510
 10
33.5180
 20
15.2999
 30
0.000000
  70
    32
  0
VERTEX
  8
0
  5
10511
 10
33.5200
 20
15.3299
 30
0.000000
  70
    32
  0
VERTEX
  8
0
  5
10512
 10
33.5221
 20
15.3598
 30
0.000000
  70
    32
  0
VERTEX
  8
0
  5
10513
 10
33.5243
 20
15.3898
 30
0.000000
  70
    32
  0
VERTEX
  8
0
  5
10514
 10
33.5265
 20
15.4198
 30
0.000000
  70
    32
  0
VERTEX
  8
0
  5
10515
 10
33.5288
 20
15.4497
 30
0.000000
  70
    32
  0
VERTEX
  8
0
  5
10516
 10
33.5311
 20
15.4797
 30
0.000000
  70
    32
  0
VERTEX
  8
0
  5
10517
 10
33.5334
 20
15.5096
 30
0.000000
  70
    32
  0
VERTEX
  8
0
  5
10518
 10
33.5358
 20
15.5396
 30
0.000000
  70
    32
  0
VERTEX
  8
0
  5
10519
 10
33.5383
 20
15.5695
 30
0.000000
  70
    32
  0
VERTEX
  8
0
  5
1051A
 10
33.5408
 20
15.5995
 30
0.000000
  70
    32
  0
VERTEX
  8
0
  5
1051B
 10
33.5433
 20
15.6294
 30
0.000000
  70
    32
  0
VERTEX
  8
0
  5
1051C
 10
33.5459
 20
15.6594
 30
0.000000
  70
    32
  0
VERTEX
  8
0
  5
1051D
 10
33.5486
 20
15.6893
 30
0.000000
  70
    32
  0
VERTEX
  8
0
  5
1051E
 10
33.5513
 20
15.7192
 30
0.000000
  70
    32
  0
VERTEX
  8
0
  5
1051F
 10
33.5540
 20
15.7492
 30
0.000000
  70
    32
  0
VERTEX
  8
0
  5
10520
 10
33.5568
 20
15.7791
 30
0.000000
  70
    32
  0
VERTEX
  8
0
  5
10521
 10
33.5597
 20
15.8090
 30
0.000000
  70
    32
  0
VERTEX
  8
0
  5
10522
 10
33.5625
 20
15.8389
 30
0.000000
  70
    32
  0
VERTEX
  8
0
  5
10523
 10
33.5655
 20
15.8688
 30
0.000000
  70
    32
  0
VERTEX
  8
0
  5
10524
 10
33.5685
 20
15.8987
 30
0.000000
  70
    32
  0
VERTEX
  8
0
  5
10525
 10
33.5715
 20
15.9286
 30
0.000000
  70
    32
  0
VERTEX
  8
0
  5
10526
 10
33.5746
 20
15.9585
 30
0.000000
  70
    32
  0
VERTEX
  8
0
  5
10527
 10
33.5777
 20
15.9884
 30
0.000000
  70
    32
  0
VERTEX
  8
0
  5
10528
 10
33.5809
 20
16.0183
 30
0.000000
  70
    32
  0
VERTEX
  8
0
  5
10529
 10
33.5842
 20
16.0481
 30
0.000000
  70
    32
  0
VERTEX
  8
0
  5
1052A
 10
33.5874
 20
16.0780
 30
0.000000
  70
    32
  0
VERTEX
  8
0
  5
1052B
 10
33.5908
 20
16.1079
 30
0.000000
  70
    32
  0
VERTEX
  8
0
  5
1052C
 10
33.5941
 20
16.1377
 30
0.000000
  70
    32
  0
VERTEX
  8
0
  5
1052D
 10
33.5976
 20
16.1676
 30
0.000000
  70
    32
  0
VERTEX
  8
0
  5
1052E
 10
33.6010
 20
16.1974
 30
0.000000
  70
    32
  0
VERTEX
  8
0
  5
1052F
 10
33.6046
 20
16.2273
 30
0.000000
  70
    32
  0
VERTEX
  8
0
  5
10530
 10
33.6081
 20
16.2571
 30
0.000000
  70
    32
  0
VERTEX
  8
0
  5
10531
 10
33.6118
 20
16.2870
 30
0.000000
  70
    32
  0
VERTEX
  8
0
  5
10532
 10
33.6154
 20
16.3168
 30
0.000000
  70
    32
  0
VERTEX
  8
0
  5
10533
 10
33.6192
 20
16.3466
 30
0.000000
  70
    32
  0
VERTEX
  8
0
  5
10534
 10
33.6229
 20
16.3764
 30
0.000000
  70
    32
  0
VERTEX
  8
0
  5
10535
 10
33.6268
 20
16.4062
 30
0.000000
  70
    32
  0
VERTEX
  8
0
  5
10536
 10
33.6306
 20
16.4360
 30
0.000000
  70
    32
  0
VERTEX
  8
0
  5
10537
 10
33.6345
 20
16.4658
 30
0.000000
  70
    32
  0
VERTEX
  8
0
  5
10538
 10
33.6385
 20
16.4956
 30
0.000000
  70
    32
  0
VERTEX
  8
0
  5
10539
 10
33.6425
 20
16.5254
 30
0.000000
  70
    32
  0
VERTEX
  8
0
  5
1053A
 10
33.6466
 20
16.5552
 30
0.000000
  70
    32
  0
VERTEX
  8
0
  5
1053B
 10
33.6507
 20
16.5849
 30
0.000000
  70
    32
  0
VERTEX
  8
0
  5
1053C
 10
33.6549
 20
16.6147
 30
0.000000
  70
    32
  0
VERTEX
  8
0
  5
1053D
 10
33.6591
 20
16.6444
 30
0.000000
  70
    32
  0
VERTEX
  8
0
  5
1053E
 10
33.6633
 20
16.6742
 30
0.000000
  70
    32
  0
VERTEX
  8
0
  5
1053F
 10
33.6677
 20
16.7039
 30
0.000000
  70
    32
  0
VERTEX
  8
0
  5
10540
 10
33.6720
 20
16.7337
 30
0.000000
  70
    32
  0
VERTEX
  8
0
  5
10541
 10
33.6764
 20
16.7634
 30
0.000000
  70
    32
  0
VERTEX
  8
0
  5
10542
 10
33.6809
 20
16.7931
 30
0.000000
  70
    32
  0
VERTEX
  8
0
  5
10543
 10
33.6854
 20
16.8228
 30
0.000000
  70
    32
  0
VERTEX
  8
0
  5
10544
 10
33.6900
 20
16.8525
 30
0.000000
  70
    32
  0
VERTEX
  8
0
  5
10545
 10
33.6946
 20
16.8822
 30
0.000000
  70
    32
  0
VERTEX
  8
0
  5
10546
 10
33.6992
 20
16.9119
 30
0.000000
  70
    32
  0
VERTEX
  8
0
  5
10547
 10
33.7039
 20
16.9416
 30
0.000000
  70
    32
  0
VERTEX
  8
0
  5
10548
 10
33.7087
 20
16.9712
 30
0.000000
  70
    32
  0
VERTEX
  8
0
  5
10549
 10
33.7135
 20
17.0009
 30
0.000000
  70
    32
  0
VERTEX
  8
0
  5
1054A
 10
33.7183
 20
17.0305
 30
0.000000
  70
    32
  0
VERTEX
  8
0
  5
1054B
 10
33.7232
 20
17.0602
 30
0.000000
  70
    32
  0
VERTEX
  8
0
  5
1054C
 10
33.7282
 20
17.0898
 30
0.000000
  70
    32
  0
VERTEX
  8
0
  5
1054D
 10
33.7332
 20
17.1195
 30
0.000000
  70
    32
  0
VERTEX
  8
0
  5
1054E
 10
33.7382
 20
17.1491
 30
0.000000
  70
    32
  0
VERTEX
  8
0
  5
1054F
 10
33.7434
 20
17.1787
 30
0.000000
  70
    32
  0
VERTEX
  8
0
  5
10550
 10
33.7485
 20
17.2083
 30
0.000000
  70
    32
  0
VERTEX
  8
0
  5
10551
 10
33.7537
 20
17.2379
 30
0.000000
  70
    32
  0
VERTEX
  8
0
  5
10552
 10
33.7590
 20
17.2675
 30
0.000000
  70
    32
  0
VERTEX
  8
0
  5
10553
 10
33.7643
 20
17.2971
 30
0.000000
  70
    32
  0
VERTEX
  8
0
  5
10554
 10
33.7696
 20
17.3266
 30
0.000000
  70
    32
  0
VERTEX
  8
0
  5
10555
 10
33.7750
 20
17.3562
 30
0.000000
  70
    32
  0
VERTEX
  8
0
  5
10556
 10
33.7804
 20
17.3857
 30
0.000000
  70
    32
  0
VERTEX
  8
0
  5
10557
 10
33.7859
 20
17.4153
 30
0.000000
  70
    32
  0
VERTEX
  8
0
  5
10558
 10
33.7915
 20
17.4448
 30
0.000000
  70
    32
  0
VERTEX
  8
0
  5
10559
 10
33.7971
 20
17.4743
 30
0.000000
  70
    32
  0
VERTEX
  8
0
  5
1055A
 10
33.8027
 20
17.5038
 30
0.000000
  70
    32
  0
VERTEX
  8
0
  5
1055B
 10
33.8084
 20
17.5333
 30
0.000000
  70
    32
  0
VERTEX
  8
0
  5
1055C
 10
33.8142
 20
17.5628
 30
0.000000
  70
    32
  0
VERTEX
  8
0
  5
1055D
 10
33.8200
 20
17.5923
 30
0.000000
  70
    32
  0
VERTEX
  8
0
  5
1055E
 10
33.8258
 20
17.6218
 30
0.000000
  70
    32
  0
VERTEX
  8
0
  5
1055F
 10
33.8317
 20
17.6513
 30
0.000000
  70
    32
  0
VERTEX
  8
0
  5
10560
 10
33.8377
 20
17.6807
 30
0.000000
  70
    32
  0
VERTEX
  8
0
  5
10561
 10
33.8437
 20
17.7102
 30
0.000000
  70
    32
  0
VERTEX
  8
0
  5
10562
 10
33.8497
 20
17.7396
 30
0.000000
  70
    32
  0
VERTEX
  8
0
  5
10563
 10
33.8558
 20
17.7690
 30
0.000000
  70
    32
  0
VERTEX
  8
0
  5
10564
 10
33.8619
 20
17.7984
 30
0.000000
  70
    32
  0
VERTEX
  8
0
  5
10565
 10
33.8681
 20
17.8278
 30
0.000000
  70
    32
  0
VERTEX
  8
0
  5
10566
 10
33.8744
 20
17.8572
 30
0.000000
  70
    32
  0
VERTEX
  8
0
  5
10567
 10
33.8807
 20
17.8866
 30
0.000000
  70
    32
  0
VERTEX
  8
0
  5
10568
 10
33.8870
 20
17.9160
 30
0.000000
  70
    32
  0
VERTEX
  8
0
  5
10569
 10
33.8934
 20
17.9453
 30
0.000000
  70
    32
  0
VERTEX
  8
0
  5
1056A
 10
33.8999
 20
17.9747
 30
0.000000
  70
    32
  0
VERTEX
  8
0
  5
1056B
 10
33.9064
 20
18.0040
 30
0.000000
  70
    32
  0
VERTEX
  8
0
  5
1056C
 10
33.9129
 20
18.0334
 30
0.000000
  70
    32
  0
VERTEX
  8
0
  5
1056D
 10
33.9195
 20
18.0627
 30
0.000000
  70
    32
  0
VERTEX
  8
0
  5
1056E
 10
33.9261
 20
18.0920
 30
0.000000
  70
    32
  0
VERTEX
  8
0
  5
1056F
 10
33.9328
 20
18.1213
 30
0.000000
  70
    32
  0
VERTEX
  8
0
  5
10570
 10
33.9396
 20
18.1506
 30
0.000000
  70
    32
  0
VERTEX
  8
0
  5
10571
 10
33.9464
 20
18.1798
 30
0.000000
  70
    32
  0
VERTEX
  8
0
  5
10572
 10
33.9532
 20
18.2091
 30
0.000000
  70
    32
  0
VERTEX
  8
0
  5
10573
 10
33.9601
 20
18.2383
 30
0.000000
  70
    32
  0
VERTEX
  8
0
  5
10574
 10
33.9671
 20
18.2676
 30
0.000000
  70
    32
  0
VERTEX
  8
0
  5
10575
 10
33.9741
 20
18.2968
 30
0.000000
  70
    32
  0
VERTEX
  8
0
  5
10576
 10
33.9811
 20
18.3260
 30
0.000000
  70
    32
  0
VERTEX
  8
0
  5
10577
 10
33.9882
 20
18.3552
 30
0.000000
  70
    32
  0
VERTEX
  8
0
  5
10578
 10
33.9954
 20
18.3844
 30
0.000000
  70
    32
  0
VERTEX
  8
0
  5
10579
 10
34.0026
 20
18.4136
 30
0.000000
  70
    32
  0
VERTEX
  8
0
  5
1057A
 10
34.0098
 20
18.4427
 30
0.000000
  70
    32
  0
VERTEX
  8
0
  5
1057B
 10
34.0171
 20
18.4719
 30
0.000000
  70
    32
  0
VERTEX
  8
0
  5
1057C
 10
34.0245
 20
18.5010
 30
0.000000
  70
    32
  0
VERTEX
  8
0
  5
1057D
 10
34.0319
 20
18.5301
 30
0.000000
  70
    32
  0
VERTEX
  8
0
  5
1057E
 10
34.0393
 20
18.5592
 30
0.000000
  70
    32
  0
VERTEX
  8
0
  5
1057F
 10
34.0468
 20
18.5883
 30
0.000000
  70
    32
  0
VERTEX
  8
0
  5
10580
 10
34.0544
 20
18.6174
 30
0.000000
  70
    32
  0
VERTEX
  8
0
  5
10581
 10
34.0620
 20
18.6465
 30
0.000000
  70
    32
  0
VERTEX
  8
0
  5
10582
 10
34.0696
 20
18.6756
 30
0.000000
  70
    32
  0
VERTEX
  8
0
  5
10583
 10
34.0773
 20
18.7046
 30
0.000000
  70
    32
  0
VERTEX
  8
0
  5
10584
 10
34.0851
 20
18.7336
 30
0.000000
  70
    32
  0
VERTEX
  8
0
  5
10585
 10
34.0929
 20
18.7627
 30
0.000000
  70
    32
  0
VERTEX
  8
0
  5
10586
 10
34.1008
 20
18.7917
 30
0.000000
  70
    32
  0
VERTEX
  8
0
  5
10587
 10
34.1087
 20
18.8206
 30
0.000000
  70
    32
  0
VERTEX
  8
0
  5
10588
 10
34.1166
 20
18.8496
 30
0.000000
  70
    32
  0
VERTEX
  8
0
  5
10589
 10
34.1246
 20
18.8786
 30
0.000000
  70
    32
  0
VERTEX
  8
0
  5
1058A
 10
34.1327
 20
18.9075
 30
0.000000
  70
    32
  0
VERTEX
  8
0
  5
1058B
 10
34.1408
 20
18.9365
 30
0.000000
  70
    32
  0
VERTEX
  8
0
  5
1058C
 10
34.1490
 20
18.9654
 30
0.000000
  70
    32
  0
VERTEX
  8
0
  5
1058D
 10
34.1572
 20
18.9943
 30
0.000000
  70
    32
  0
VERTEX
  8
0
  5
1058E
 10
34.1655
 20
19.0232
 30
0.000000
  70
    32
  0
VERTEX
  8
0
  5
1058F
 10
34.1738
 20
19.0521
 30
0.000000
  70
    32
  0
VERTEX
  8
0
  5
10590
 10
34.1822
 20
19.0809
 30
0.000000
  70
    32
  0
VERTEX
  8
0
  5
10591
 10
34.1906
 20
19.1098
 30
0.000000
  70
    32
  0
VERTEX
  8
0
  5
10592
 10
34.1990
 20
19.1386
 30
0.000000
  70
    32
  0
VERTEX
  8
0
  5
10593
 10
34.2076
 20
19.1674
 30
0.000000
  70
    32
  0
VERTEX
  8
0
  5
10594
 10
34.2161
 20
19.1962
 30
0.000000
  70
    32
  0
VERTEX
  8
0
  5
10595
 10
34.2248
 20
19.2250
 30
0.000000
  70
    32
  0
VERTEX
  8
0
  5
10596
 10
34.2334
 20
19.2538
 30
0.000000
  70
    32
  0
VERTEX
  8
0
  5
10597
 10
34.2422
 20
19.2825
 30
0.000000
  70
    32
  0
VERTEX
  8
0
  5
10598
 10
34.2510
 20
19.3112
 30
0.000000
  70
    32
  0
VERTEX
  8
0
  5
10599
 10
34.2598
 20
19.3400
 30
0.000000
  70
    32
  0
VERTEX
  8
0
  5
1059A
 10
34.2687
 20
19.3687
 30
0.000000
  70
    32
  0
VERTEX
  8
0
  5
1059B
 10
34.2776
 20
19.3974
 30
0.000000
  70
    32
  0
VERTEX
  8
0
  5
1059C
 10
34.2866
 20
19.4260
 30
0.000000
  70
    32
  0
VERTEX
  8
0
  5
1059D
 10
34.2956
 20
19.4547
 30
0.000000
  70
    32
  0
VERTEX
  8
0
  5
1059E
 10
34.3047
 20
19.4833
 30
0.000000
  70
    32
  0
VERTEX
  8
0
  5
1059F
 10
34.3138
 20
19.5120
 30
0.000000
  70
    32
  0
VERTEX
  8
0
  5
105A0
 10
34.3230
 20
19.5406
 30
0.000000
  70
    32
  0
VERTEX
  8
0
  5
105A1
 10
34.3323
 20
19.5692
 30
0.000000
  70
    32
  0
VERTEX
  8
0
  5
105A2
 10
34.3416
 20
19.5978
 30
0.000000
  70
    32
  0
VERTEX
  8
0
  5
105A3
 10
34.3509
 20
19.6263
 30
0.000000
  70
    32
  0
VERTEX
  8
0
  5
105A4
 10
34.3603
 20
19.6549
 30
0.000000
  70
    32
  0
VERTEX
  8
0
  5
105A5
 10
34.3697
 20
19.6834
 30
0.000000
  70
    32
  0
VERTEX
  8
0
  5
105A6
 10
34.3792
 20
19.7119
 30
0.000000
  70
    32
  0
VERTEX
  8
0
  5
105A7
 10
34.3888
 20
19.7404
 30
0.000000
  70
    32
  0
VERTEX
  8
0
  5
105A8
 10
34.3984
 20
19.7689
 30
0.000000
  70
    32
  0
VERTEX
  8
0
  5
105A9
 10
34.4080
 20
19.7973
 30
0.000000
  70
    32
  0
VERTEX
  8
0
  5
105AA
 10
34.4177
 20
19.8258
 30
0.000000
  70
    32
  0
VERTEX
  8
0
  5
105AB
 10
34.4275
 20
19.8542
 30
0.000000
  70
    32
  0
VERTEX
  8
0
  5
105AC
 10
34.4373
 20
19.8826
 30
0.000000
  70
    32
  0
VERTEX
  8
0
  5
105AD
 10
34.4471
 20
19.9110
 30
0.000000
  70
    32
  0
VERTEX
  8
0
  5
105AE
 10
34.4570
 20
19.9394
 30
0.000000
  70
    32
  0
VERTEX
  8
0
  5
105AF
 10
34.4669
 20
19.9677
 30
0.000000
  70
    32
  0
VERTEX
  8
0
  5
105B0
 10
34.4769
 20
19.9961
 30
0.000000
  70
    32
  0
VERTEX
  8
0
  5
105B1
 10
34.4870
 20
20.0244
 30
0.000000
  70
    32
  0
VERTEX
  8
0
  5
105B2
 10
34.4971
 20
20.0527
 30
0.000000
  70
    32
  0
VERTEX
  8
0
  5
105B3
 10
34.5072
 20
20.0810
 30
0.000000
  70
    32
  0
VERTEX
  8
0
  5
105B4
 10
34.5174
 20
20.1092
 30
0.000000
  70
    32
  0
VERTEX
  8
0
  5
105B5
 10
34.5277
 20
20.1375
 30
0.000000
  70
    32
  0
VERTEX
  8
0
  5
105B6
 10
34.5380
 20
20.1657
 30
0.000000
  70
    32
  0
VERTEX
  8
0
  5
105B7
 10
34.5483
 20
20.1939
 30
0.000000
  70
    32
  0
VERTEX
  8
0
  5
105B8
 10
34.5587
 20
20.2221
 30
0.000000
  70
    32
  0
VERTEX
  8
0
  5
105B9
 10
34.5692
 20
20.2503
 30
0.000000
  70
    32
  0
VERTEX
  8
0
  5
105BA
 10
34.5796
 20
20.2785
 30
0.000000
  70
    32
  0
VERTEX
  8
0
  5
105BB
 10
34.5902
 20
20.3066
 30
0.000000
  70
    32
  0
VERTEX
  8
0
  5
105BC
 10
34.6008
 20
20.3347
 30
0.000000
  70
    32
  0
VERTEX
  8
0
  5
105BD
 10
34.6114
 20
20.3628
 30
0.000000
  70
    32
  0
VERTEX
  8
0
  5
105BE
 10
34.6221
 20
20.3909
 30
0.000000
  70
    32
  0
VERTEX
  8
0
  5
105BF
 10
34.6329
 20
20.4190
 30
0.000000
  70
    32
  0
VERTEX
  8
0
  5
105C0
 10
34.6437
 20
20.4470
 30
0.000000
  70
    32
  0
VERTEX
  8
0
  5
105C1
 10
34.6545
 20
20.4750
 30
0.000000
  70
    32
  0
VERTEX
  8
0
  5
105C2
 10
34.6654
 20
20.5030
 30
0.000000
  70
    32
  0
VERTEX
  8
0
  5
105C3
 10
34.6763
 20
20.5310
 30
0.000000
  70
    32
  0
VERTEX
  8
0
  5
105C4
 10
34.6873
 20
20.5590
 30
0.000000
  70
    32
  0
VERTEX
  8
0
  5
105C5
 10
34.6983
 20
20.5870
 30
0.000000
  70
    32
  0
VERTEX
  8
0
  5
105C6
 10
34.7094
 20
20.6149
 30
0.000000
  70
    32
  0
VERTEX
  8
0
  5
105C7
 10
34.7206
 20
20.6428
 30
0.000000
  70
    32
  0
VERTEX
  8
0
  5
105C8
 10
34.7317
 20
20.6707
 30
0.000000
  70
    32
  0
VERTEX
  8
0
  5
105C9
 10
34.7430
 20
20.6986
 30
0.000000
  70
    32
  0
VERTEX
  8
0
  5
105CA
 10
34.7543
 20
20.7264
 30
0.000000
  70
    32
  0
VERTEX
  8
0
  5
105CB
 10
34.7656
 20
20.7542
 30
0.000000
  70
    32
  0
VERTEX
  8
0
  5
105CC
 10
34.7770
 20
20.7820
 30
0.000000
  70
    32
  0
VERTEX
  8
0
  5
105CD
 10
34.7884
 20
20.8098
 30
0.000000
  70
    32
  0
VERTEX
  8
0
  5
105CE
 10
34.7999
 20
20.8376
 30
0.000000
  70
    32
  0
VERTEX
  8
0
  5
105CF
 10
34.8114
 20
20.8654
 30
0.000000
  70
    32
  0
VERTEX
  8
0
  5
105D0
 10
34.8229
 20
20.8931
 30
0.000000
  70
    32
  0
VERTEX
  8
0
  5
105D1
 10
34.8346
 20
20.9208
 30
0.000000
  70
    32
  0
VERTEX
  8
0
  5
105D2
 10
34.8462
 20
20.9485
 30
0.000000
  70
    32
  0
VERTEX
  8
0
  5
105D3
 10
34.8579
 20
20.9762
 30
0.000000
  70
    32
  0
VERTEX
  8
0
  5
105D4
 10
34.8697
 20
21.0038
 30
0.000000
  70
    32
  0
VERTEX
  8
0
  5
105D5
 10
34.8815
 20
21.0315
 30
0.000000
  70
    32
  0
VERTEX
  8
0
  5
105D6
 10
34.8934
 20
21.0591
 30
0.000000
  70
    32
  0
VERTEX
  8
0
  5
105D7
 10
34.9053
 20
21.0867
 30
0.000000
  70
    32
  0
VERTEX
  8
0
  5
105D8
 10
34.9172
 20
21.1142
 30
0.000000
  70
    32
  0
VERTEX
  8
0
  5
105D9
 10
34.9292
 20
21.1418
 30
0.000000
  70
    32
  0
VERTEX
  8
0
  5
105DA
 10
34.9413
 20
21.1693
 30
0.000000
  70
    32
  0
VERTEX
  8
0
  5
105DB
 10
34.9534
 20
21.1968
 30
0.000000
  70
    32
  0
VERTEX
  8
0
  5
105DC
 10
34.9655
 20
21.2243
 30
0.000000
  70
    32
  0
VERTEX
  8
0
  5
105DD
 10
34.9777
 20
21.2518
 30
0.000000
  70
    32
  0
VERTEX
  8
0
  5
105DE
 10
34.9899
 20
21.2792
 30
0.000000
  70
    32
  0
VERTEX
  8
0
  5
105DF
 10
35.0022
 20
21.3066
 30
0.000000
  70
    32
  0
VERTEX
  8
0
  5
105E0
 10
35.0145
 20
21.3340
 30
0.000000
  70
    32
  0
VERTEX
  8
0
  5
105E1
 10
35.0269
 20
21.3614
 30
0.000000
  70
    32
  0
VERTEX
  8
0
  5
105E2
 10
35.0393
 20
21.3888
 30
0.000000
  70
    32
  0
VERTEX
  8
0
  5
105E3
 10
35.0518
 20
21.4161
 30
0.000000
  70
    32
  0
VERTEX
  8
0
  5
105E4
 10
35.0643
 20
21.4434
 30
0.000000
  70
    32
  0
VERTEX
  8
0
  5
105E5
 10
35.0769
 20
21.4707
 30
0.000000
  70
    32
  0
VERTEX
  8
0
  5
105E6
 10
35.0895
 20
21.4980
 30
0.000000
  70
    32
  0
VERTEX
  8
0
  5
105E7
 10
35.1022
 20
21.5253
 30
0.000000
  70
    32
  0
VERTEX
  8
0
  5
105E8
 10
35.1149
 20
21.5525
 30
0.000000
  70
    32
  0
VERTEX
  8
0
  5
105E9
 10
35.1276
 20
21.5797
 30
0.000000
  70
    32
  0
VERTEX
  8
0
  5
105EA
 10
35.1404
 20
21.6069
 30
0.000000
  70
    32
  0
VERTEX
  8
0
  5
105EB
 10
35.1532
 20
21.6341
 30
0.000000
  70
    32
  0
VERTEX
  8
0
  5
105EC
 10
35.1661
 20
21.6612
 30
0.000000
  70
    32
  0
VERTEX
  8
0
  5
105ED
 10
35.1791
 20
21.6883
 30
0.000000
  70
    32
  0
VERTEX
  8
0
  5
105EE
 10
35.1920
 20
21.7154
 30
0.000000
  70
    32
  0
VERTEX
  8
0
  5
105EF
 10
35.2051
 20
21.7425
 30
0.000000
  70
    32
  0
VERTEX
  8
0
  5
105F0
 10
35.2181
 20
21.7696
 30
0.000000
  70
    32
  0
VERTEX
  8
0
  5
105F1
 10
35.2312
 20
21.7966
 30
0.000000
  70
    32
  0
VERTEX
  8
0
  5
105F2
 10
35.2444
 20
21.8236
 30
0.000000
  70
    32
  0
VERTEX
  8
0
  5
105F3
 10
35.2576
 20
21.8506
 30
0.000000
  70
    32
  0
VERTEX
  8
0
  5
105F4
 10
35.2709
 20
21.8776
 30
0.000000
  70
    32
  0
VERTEX
  8
0
  5
105F5
 10
35.2842
 20
21.9045
 30
0.000000
  70
    32
  0
VERTEX
  8
0
  5
105F6
 10
35.2975
 20
21.9315
 30
0.000000
  70
    32
  0
VERTEX
  8
0
  5
105F7
 10
35.3109
 20
21.9584
 30
0.000000
  70
    32
  0
VERTEX
  8
0
  5
105F8
 10
35.3243
 20
21.9853
 30
0.000000
  70
    32
  0
VERTEX
  8
0
  5
105F9
 10
35.3378
 20
22.0121
 30
0.000000
  70
    32
  0
VERTEX
  8
0
  5
105FA
 10
35.3513
 20
22.0390
 30
0.000000
  70
    32
  0
VERTEX
  8
0
  5
105FB
 10
35.3649
 20
22.0658
 30
0.000000
  70
    32
  0
VERTEX
  8
0
  5
105FC
 10
35.3785
 20
22.0926
 30
0.000000
  70
    32
  0
VERTEX
  8
0
  5
105FD
 10
35.3921
 20
22.1193
 30
0.000000
  70
    32
  0
VERTEX
  8
0
  5
105FE
 10
35.4058
 20
22.1461
 30
0.000000
  70
    32
  0
VERTEX
  8
0
  5
105FF
 10
35.4196
 20
22.1728
 30
0.000000
  70
    32
  0
VERTEX
  8
0
  5
10600
 10
35.4334
 20
22.1995
 30
0.000000
  70
    32
  0
VERTEX
  8
0
  5
10601
 10
35.4472
 20
22.2262
 30
0.000000
  70
    32
  0
VERTEX
  8
0
  5
10602
 10
35.4611
 20
22.2528
 30
0.000000
  70
    32
  0
VERTEX
  8
0
  5
10603
 10
35.4750
 20
22.2795
 30
0.000000
  70
    32
  0
VERTEX
  8
0
  5
10604
 10
35.4890
 20
22.3061
 30
0.000000
  70
    32
  0
VERTEX
  8
0
  5
10605
 10
35.5030
 20
22.3327
 30
0.000000
  70
    32
  0
VERTEX
  8
0
  5
10606
 10
35.5170
 20
22.3592
 30
0.000000
  70
    32
  0
VERTEX
  8
0
  5
10607
 10
35.5311
 20
22.3858
 30
0.000000
  70
    32
  0
VERTEX
  8
0
  5
10608
 10
35.5453
 20
22.4123
 30
0.000000
  70
    32
  0
VERTEX
  8
0
  5
10609
 10
35.5595
 20
22.4388
 30
0.000000
  70
    32
  0
VERTEX
  8
0
  5
1060A
 10
35.5737
 20
22.4652
 30
0.000000
  70
    32
  0
VERTEX
  8
0
  5
1060B
 10
35.5880
 20
22.4917
 30
0.000000
  70
    32
  0
VERTEX
  8
0
  5
1060C
 10
35.6023
 20
22.5181
 30
0.000000
  70
    32
  0
VERTEX
  8
0
  5
1060D
 10
35.6167
 20
22.5445
 30
0.000000
  70
    32
  0
VERTEX
  8
0
  5
1060E
 10
35.6311
 20
22.5709
 30
0.000000
  70
    32
  0
VERTEX
  8
0
  5
1060F
 10
35.6455
 20
22.5972
 30
0.000000
  70
    32
  0
VERTEX
  8
0
  5
10610
 10
35.6600
 20
22.6235
 30
0.000000
  70
    32
  0
VERTEX
  8
0
  5
10611
 10
35.6745
 20
22.6498
 30
0.000000
  70
    32
  0
VERTEX
  8
0
  5
10612
 10
35.6891
 20
22.6761
 30
0.000000
  70
    32
  0
VERTEX
  8
0
  5
10613
 10
35.7037
 20
22.7024
 30
0.000000
  70
    32
  0
VERTEX
  8
0
  5
10614
 10
35.7184
 20
22.7286
 30
0.000000
  70
    32
  0
VERTEX
  8
0
  5
10615
 10
35.7331
 20
22.7548
 30
0.000000
  70
    32
  0
VERTEX
  8
0
  5
10616
 10
35.7478
 20
22.7810
 30
0.000000
  70
    32
  0
VERTEX
  8
0
  5
10617
 10
35.7626
 20
22.8071
 30
0.000000
  70
    32
  0
VERTEX
  8
0
  5
10618
 10
35.7775
 20
22.8333
 30
0.000000
  70
    32
  0
VERTEX
  8
0
  5
10619
 10
35.7924
 20
22.8594
 30
0.000000
  70
    32
  0
VERTEX
  8
0
  5
1061A
 10
35.8073
 20
22.8855
 30
0.000000
  70
    32
  0
VERTEX
  8
0
  5
1061B
 10
35.8222
 20
22.9115
 30
0.000000
  70
    32
  0
VERTEX
  8
0
  5
1061C
 10
35.8372
 20
22.9375
 30
0.000000
  70
    32
  0
VERTEX
  8
0
  5
1061D
 10
35.8523
 20
22.9635
 30
0.000000
  70
    32
  0
VERTEX
  8
0
  5
1061E
 10
35.8674
 20
22.9895
 30
0.000000
  70
    32
  0
VERTEX
  8
0
  5
1061F
 10
35.8825
 20
23.0155
 30
0.000000
  70
    32
  0
VERTEX
  8
0
  5
10620
 10
35.8977
 20
23.0414
 30
0.000000
  70
    32
  0
VERTEX
  8
0
  5
10621
 10
35.9129
 20
23.0673
 30
0.000000
  70
    32
  0
VERTEX
  8
0
  5
10622
 10
35.9282
 20
23.0932
 30
0.000000
  70
    32
  0
VERTEX
  8
0
  5
10623
 10
35.9435
 20
23.1190
 30
0.000000
  70
    32
  0
VERTEX
  8
0
  5
10624
 10
35.9588
 20
23.1449
 30
0.000000
  70
    32
  0
VERTEX
  8
0
  5
10625
 10
35.9742
 20
23.1707
 30
0.000000
  70
    32
  0
SEQEND
  8
0
  5
10626
  0
POLYLINE
  8
0
  5
10627
  66
     1
 10
0.000000
 20
0.000000
 30
0.000000
  70
     8
  0
VERTEX
  8
0
  5
10628
 10
35.0000
 20
9.00000
 30
0.000000
  70
    32
  0
VERTEX
  8
0
  5
10629
 10
35.0387
 20
9.02546
 30
0.000000
  70
    32
  0
VERTEX
  8
0
  5
1062A
 10
35.0773
 20
9.05100
 30
0.000000
  70
    32
  0
VERTEX
  8
0
  5
1062B
 10
35.1159
 20
9.07662
 30
0.000000
  70
    32
  0
VERTEX
  8
0
  5
1062C
 10
35.1544
 20
9.10232
 30
0.000000
  70
    32
  0
VERTEX
  8
0
  5
1062D
 10
35.1929
 20
9.12809
 30
0.000000
  70
    32
  0
VERTEX
  8
0
  5
1062E
 10
35.2313
 20
9.15394
 30
0.000000
  70
    32
  0
VERTEX
  8
0
  5
1062F
 10
35.2697
 20
9.17987
 30
0.000000
  70
    32
  0
VERTEX
  8
0
  5
10630
 10
35.3080
 20
9.20588
 30
0.000000
  70
    32
  0
VERTEX
  8
0
  5
10631
 10
35.3463
 20
9.23197
 30
0.000000
  70
    32
  0
VERTEX
  8
0
  5
10632
 10
35.3845
 20
9.25814
 30
0.000000
  70
    32
  0
VERTEX
  8
0
  5
10633
 10
35.4227
 20
9.28438
 30
0.000000
  70
    32
  0
VERTEX
  8
0
  5
10634
 10
35.4608
 20
9.31070
 30
0.000000
  70
    32
  0
VERTEX
  8
0
  5
10635
 10
35.4989
 20
9.33710
 30
0.000000
  70
    32
  0
VERTEX
  8
0
  5
10636
 10
35.5369
 20
9.36358
 30
0.000000
  70
    32
  0
VERTEX
  8
0
  5
10637
 10
35.5749
 20
9.39014
 30
0.000000
  70
    32
  0
VERTEX
  8
0
  5
10638
 10
35.6128
 20
9.41677
 30
0.000000
  70
    32
  0
VERTEX
  8
0
  5
10639
 10
35.6506
 20
9.44348
 30
0.000000
  70
    32
  0
VERTEX
  8
0
  5
1063A
 10
35.6884
 20
9.47027
 30
0.000000
  70
    32
  0
VERTEX
  8
0
  5
1063B
 10
35.7261
 20
9.49714
 30
0.000000
  70
    32
  0
VERTEX
  8
0
  5
1063C
 10
35.7638
 20
9.52408
 30
0.000000
  70
    32
  0
VERTEX
  8
0
  5
1063D
 10
35.8015
 20
9.55110
 30
0.000000
  70
    32
  0
VERTEX
  8
0
  5
1063E
 10
35.8390
 20
9.57820
 30
0.000000
  70
    32
  0
VERTEX
  8
0
  5
1063F
 10
35.8766
 20
9.60538
 30
0.000000
  70
    32
  0
VERTEX
  8
0
  5
10640
 10
35.9140
 20
9.63264
 30
0.000000
  70
    32
  0
VERTEX
  8
0
  5
10641
 10
35.9514
 20
9.65997
 30
0.000000
  70
    32
  0
VERTEX
  8
0
  5
10642
 10
35.9888
 20
9.68738
 30
0.000000
  70
    32
  0
VERTEX
  8
0
  5
10643
 10
36.0261
 20
9.71486
 30
0.000000
  70
    32
  0
VERTEX
  8
0
  5
10644
 10
36.0633
 20
9.74243
 30
0.000000
  70
    32
  0
VERTEX
  8
0
  5
10645
 10
36.1005
 20
9.77007
 30
0.000000
  70
    32
  0
VERTEX
  8
0
  5
10646
 10
36.1376
 20
9.79779
 30
0.000000
  70
    32
  0
VERTEX
  8
0
  5
10647
 10
36.1747
 20
9.82559
 30
0.000000
  70
    32
  0
VERTEX
  8
0
  5
10648
 10
36.2117
 20
9.85346
 30
0.000000
  70
    32
  0
VERTEX
  8
0
  5
10649
 10
36.2487
 20
9.88141
 30
0.000000
  70
    32
  0
VERTEX
  8
0
  5
1064A
 10
36.2856
 20
9.90944
 30
0.000000
  70
    32
  0
VERTEX
  8
0
  5
1064B
 10
36.3224
 20
9.93754
 30
0.000000
  70
    32
  0
VERTEX
  8
0
  5
1064C
 10
36.3592
 20
9.96573
 30
0.000000
  70
    32
  0
VERTEX
  8
0
  5
1064D
 10
36.3959
 20
9.99398
 30
0.000000
  70
    32
  0
VERTEX
  8
0
  5
1064E
 10
36.4326
 20
10.0223
 30
0.000000
  70
    32
  0
VERTEX
  8
0
  5
1064F
 10
36.4692
 20
10.0507
 30
0.000000
  70
    32
  0
VERTEX
  8
0
  5
10650
 10
36.5057
 20
10.0792
 30
0.000000
  70
    32
  0
VERTEX
  8
0
  5
10651
 10
36.5422
 20
10.1078
 30
0.000000
  70
    32
  0
VERTEX
  8
0
  5
10652
 10
36.5786
 20
10.1364
 30
0.000000
  70
    32
  0
VERTEX
  8
0
  5
10653
 10
36.6150
 20
10.1652
 30
0.000000
  70
    32
  0
VERTEX
  8
0
  5
10654
 10
36.6513
 20
10.1939
 30
0.000000
  70
    32
  0
VERTEX
  8
0
  5
10655
 10
36.6875
 20
10.2228
 30
0.000000
  70
    32
  0
VERTEX
  8
0
  5
10656
 10
36.7237
 20
10.2518
 30
0.000000
  70
    32
  0
VERTEX
  8
0
  5
10657
 10
36.7598
 20
10.2808
 30
0.000000
  70
    32
  0
VERTEX
  8
0
  5
10658
 10
36.7959
 20
10.3099
 30
0.000000
  70
    32
  0
VERTEX
  8
0
  5
10659
 10
36.8318
 20
10.3391
 30
0.000000
  70
    32
  0
VERTEX
  8
0
  5
1065A
 10
36.8678
 20
10.3683
 30
0.000000
  70
    32
  0
VERTEX
  8
0
  5
1065B
 10
36.9036
 20
10.3977
 30
0.000000
  70
    32
  0
VERTEX
  8
0
  5
1065C
 10
36.9395
 20
10.4271
 30
0.000000
  70
    32
  0
VERTEX
  8
0
  5
1065D
 10
36.9752
 20
10.4566
 30
0.000000
  70
    32
  0
VERTEX
  8
0
  5
1065E
 10
37.0109
 20
10.4861
 30
0.000000
  70
    32
  0
VERTEX
  8
0
  5
1065F
 10
37.0465
 20
10.5158
 30
0.000000
  70
    32
  0
VERTEX
  8
0
  5
10660
 10
37.0820
 20
10.5455
 30
0.000000
  70
    32
  0
VERTEX
  8
0
  5
10661
 10
37.1175
 20
10.5753
 30
0.000000
  70
    32
  0
VERTEX
  8
0
  5
10662
 10
37.1529
 20
10.6051
 30
0.000000
  70
    32
  0
VERTEX
  8
0
  5
10663
 10
37.1883
 20
10.6351
 30
0.000000
  70
    32
  0
VERTEX
  8
0
  5
10664
 10
37.2236
 20
10.6651
 30
0.000000
  70
    32
  0
VERTEX
  8
0
  5
10665
 10
37.2588
 20
10.6952
 30
0.000000
  70
    32
  0
VERTEX
  8
0
  5
10666
 10
37.2940
 20
10.7254
 30
0.000000
  70
    32
  0
VERTEX
  8
0
  5
10667
 10
37.3291
 20
10.7556
 30
0.000000
  70
    32
  0
VERTEX
  8
0
  5
10668
 10
37.3641
 20
10.7859
 30
0.000000
  70
    32
  0
VERTEX
  8
0
  5
10669
 10
37.3991
 20
10.8163
 30
0.000000
  70
    32
  0
VERTEX
  8
0
  5
1066A
 10
37.4340
 20
10.8468
 30
0.000000
  70
    32
  0
VERTEX
  8
0
  5
1066B
 10
37.4688
 20
10.8774
 30
0.000000
  70
    32
  0
VERTEX
  8
0
  5
1066C
 10
37.5036
 20
10.9080
 30
0.000000
  70
    32
  0
VERTEX
  8
0
  5
1066D
 10
37.5382
 20
10.9387
 30
0.000000
  70
    32
  0
VERTEX
  8
0
  5
1066E
 10
37.5729
 20
10.9695
 30
0.000000
  70
    32
  0
VERTEX
  8
0
  5
1066F
 10
37.6074
 20
11.0004
 30
0.000000
  70
    32
  0
VERTEX
  8
0
  5
10670
 10
37.6419
 20
11.0313
 30
0.000000
  70
    32
  0
VERTEX
  8
0
  5
10671
 10
37.6763
 20
11.0623
 30
0.000000
  70
    32
  0
VERTEX
  8
0
  5
10672
 10
37.7107
 20
11.0934
 30
0.000000
  70
    32
  0
VERTEX
  8
0
  5
10673
 10
37.7450
 20
11.1246
 30
0.000000
  70
    32
  0
VERTEX
  8
0
  5
10674
 10
37.7792
 20
11.1558
 30
0.000000
  70
    32
  0
VERTEX
  8
0
  5
10675
 10
37.8133
 20
11.1871
 30
0.000000
  70
    32
  0
VERTEX
  8
0
  5
10676
 10
37.8474
 20
11.2185
 30
0.000000
  70
    32
  0
VERTEX
  8
0
  5
10677
 10
37.8814
 20
11.2500
 30
0.000000
  70
    32
  0
VERTEX
  8
0
  5
10678
 10
37.9153
 20
11.2815
 30
0.000000
  70
    32
  0
VERTEX
  8
0
  5
10679
 10
37.9492
 20
11.3132
 30
0.000000
  70
    32
  0
VERTEX
  8
0
  5
1067A
 10
37.9830
 20
11.3449
 30
0.000000
  70
    32
  0
VERTEX
  8
0
  5
1067B
 10
38.0167
 20
11.3766
 30
0.000000
  70
    32
  0
VERTEX
  8
0
  5
1067C
 10
38.0503
 20
11.4085
 30
0.000000
  70
    32
  0
VERTEX
  8
0
  5
1067D
 10
38.0839
 20
11.4404
 30
0.000000
  70
    32
  0
VERTEX
  8
0
  5
1067E
 10
38.1174
 20
11.4724
 30
0.000000
  70
    32
  0
VERTEX
  8
0
  5
1067F
 10
38.1508
 20
11.5045
 30
0.000000
  70
    32
  0
VERTEX
  8
0
  5
10680
 10
38.1842
 20
11.5367
 30
0.000000
  70
    32
  0
VERTEX
  8
0
  5
10681
 10
38.2174
 20
11.5689
 30
0.000000
  70
    32
  0
VERTEX
  8
0
  5
10682
 10
38.2506
 20
11.6012
 30
0.000000
  70
    32
  0
VERTEX
  8
0
  5
10683
 10
38.2838
 20
11.6336
 30
0.000000
  70
    32
  0
VERTEX
  8
0
  5
10684
 10
38.3168
 20
11.6660
 30
0.000000
  70
    32
  0
VERTEX
  8
0
  5
10685
 10
38.3498
 20
11.6986
 30
0.000000
  70
    32
  0
VERTEX
  8
0
  5
10686
 10
38.3827
 20
11.7312
 30
0.000000
  70
    32
  0
VERTEX
  8
0
  5
10687
 10
38.4155
 20
11.7639
 30
0.000000
  70
    32
  0
VERTEX
  8
0
  5
10688
 10
38.4483
 20
11.7966
 30
0.000000
  70
    32
  0
VERTEX
  8
0
  5
10689
 10
38.4810
 20
11.8295
 30
0.000000
  70
    32
  0
VERTEX
  8
0
  5
1068A
 10
38.5136
 20
11.8624
 30
0.000000
  70
    32
  0
VERTEX
  8
0
  5
1068B
 10
38.5461
 20
11.8954
 30
0.000000
  70
    32
  0
VERTEX
  8
0
  5
1068C
 10
38.5785
 20
11.9285
 30
0.000000
  70
    32
  0
VERTEX
  8
0
  5
1068D
 10
38.6109
 20
11.9616
 30
0.000000
  70
    32
  0
VERTEX
  8
0
  5
1068E
 10
38.6432
 20
11.9948
 30
0.000000
  70
    32
  0
VERTEX
  8
0
  5
1068F
 10
38.6754
 20
12.0281
 30
0.000000
  70
    32
  0
VERTEX
  8
0
  5
10690
 10
38.7076
 20
12.0615
 30
0.000000
  70
    32
  0
VERTEX
  8
0
  5
10691
 10
38.7396
 20
12.0949
 30
0.000000
  70
    32
  0
VERTEX
  8
0
  5
10692
 10
38.7716
 20
12.1284
 30
0.000000
  70
    32
  0
VERTEX
  8
0
  5
10693
 10
38.8035
 20
12.1620
 30
0.000000
  70
    32
  0
VERTEX
  8
0
  5
10694
 10
38.8354
 20
12.1957
 30
0.000000
  70
    32
  0
VERTEX
  8
0
  5
10695
 10
38.8671
 20
12.2294
 30
0.000000
  70
    32
  0
VERTEX
  8
0
  5
10696
 10
38.8988
 20
12.2632
 30
0.000000
  70
    32
  0
VERTEX
  8
0
  5
10697
 10
38.9304
 20
12.2971
 30
0.000000
  70
    32
  0
VERTEX
  8
0
  5
10698
 10
38.9619
 20
12.3311
 30
0.000000
  70
    32
  0
VERTEX
  8
0
  5
10699
 10
38.9934
 20
12.3651
 30
0.000000
  70
    32
  0
VERTEX
  8
0
  5
1069A
 10
39.0247
 20
12.3992
 30
0.000000
  70
    32
  0
VERTEX
  8
0
  5
1069B
 10
39.0560
 20
12.4334
 30
0.000000
  70
    32
  0
VERTEX
  8
0
  5
1069C
 10
39.0872
 20
12.4676
 30
0.000000
  70
    32
  0
VERTEX
  8
0
  5
1069D
 10
39.1184
 20
12.5020
 30
0.000000
  70
    32
  0
VERTEX
  8
0
  5
1069E
 10
39.1494
 20
12.5364
 30
0.000000
  70
    32
  0
VERTEX
  8
0
  5
1069F
 10
39.1804
 20
12.5708
 30
0.000000
  70
    32
  0
VERTEX
  8
0
  5
106A0
 10
39.2113
 20
12.6054
 30
0.000000
  70
    32
  0
VERTEX
  8
0
  5
106A1
 10
39.2421
 20
12.6400
 30
0.000000
  70
    32
  0
VERTEX
  8
0
  5
106A2
 10
39.2728
 20
12.6746
 30
0.000000
  70
    32
  0
VERTEX
  8
0
  5
106A3
 10
39.3034
 20
12.7094
 30
0.000000
  70
    32
  0
VERTEX
  8
0
  5
106A4
 10
39.3340
 20
12.7442
 30
0.000000
  70
    32
  0
VERTEX
  8
0
  5
106A5
 10
39.3645
 20
12.7791
 30
0.000000
  70
    32
  0
VERTEX
  8
0
  5
106A6
 10
39.3949
 20
12.8141
 30
0.000000
  70
    32
  0
VERTEX
  8
0
  5
106A7
 10
39.4252
 20
12.8491
 30
0.000000
  70
    32
  0
VERTEX
  8
0
  5
106A8
 10
39.4555
 20
12.8842
 30
0.000000
  70
    32
  0
VERTEX
  8
0
  5
106A9
 10
39.4856
 20
12.9194
 30
0.000000
  70
    32
  0
VERTEX
  8
0
  5
106AA
 10
39.5157
 20
12.9546
 30
0.000000
  70
    32
  0
VERTEX
  8
0
  5
106AB
 10
39.5457
 20
12.9899
 30
0.000000
  70
    32
  0
VERTEX
  8
0
  5
106AC
 10
39.5756
 20
13.0253
 30
0.000000
  70
    32
  0
VERTEX
  8
0
  5
106AD
 10
39.6055
 20
13.0607
 30
0.000000
  70
    32
  0
VERTEX
  8
0
  5
106AE
 10
39.6352
 20
13.0962
 30
0.000000
  70
    32
  0
VERTEX
  8
0
  5
106AF
 10
39.6649
 20
13.1318
 30
0.000000
  70
    32
  0
VERTEX
  8
0
  5
106B0
 10
39.6945
 20
13.1675
 30
0.000000
  70
    32
  0
VERTEX
  8
0
  5
106B1
 10
39.7240
 20
13.2032
 30
0.000000
  70
    32
  0
VERTEX
  8
0
  5
106B2
 10
39.7534
 20
13.2390
 30
0.000000
  70
    32
  0
VERTEX
  8
0
  5
106B3
 10
39.7828
 20
13.2748
 30
0.000000
  70
    32
  0
VERTEX
  8
0
  5
106B4
 10
39.8120
 20
13.3108
 30
0.000000
  70
    32
  0
VERTEX
  8
0
  5
106B5
 10
39.8412
 20
13.3468
 30
0.000000
  70
    32
  0
VERTEX
  8
0
  5
106B6
 10
39.8703
 20
13.3828
 30
0.000000
  70
    32
  0
VERTEX
  8
0
  5
106B7
 10
39.8993
 20
13.4189
 30
0.000000
  70
    32
  0
VERTEX
  8
0
  5
106B8
 10
39.9283
 20
13.4551
 30
0.000000
  70
    32
  0
VERTEX
  8
0
  5
106B9
 10
39.9571
 20
13.4914
 30
0.000000
  70
    32
  0
VERTEX
  8
0
  5
106BA
 10
39.9859
 20
13.5277
 30
0.000000
  70
    32
  0
VERTEX
  8
0
  5
106BB
 10
40.0145
 20
13.5641
 30
0.000000
  70
    32
  0
VERTEX
  8
0
  5
106BC
 10
40.0431
 20
13.6006
 30
0.000000
  70
    32
  0
VERTEX
  8
0
  5
106BD
 10
40.0716
 20
13.6371
 30
0.000000
  70
    32
  0
VERTEX
  8
0
  5
106BE
 10
40.1001
 20
13.6737
 30
0.000000
  70
    32
  0
VERTEX
  8
0
  5
106BF
 10
40.1284
 20
13.7103
 30
0.000000
  70
    32
  0
VERTEX
  8
0
  5
106C0
 10
40.1567
 20
13.7470
 30
0.000000
  70
    32
  0
VERTEX
  8
0
  5
106C1
 10
40.1848
 20
13.7838
 30
0.000000
  70
    32
  0
VERTEX
  8
0
  5
106C2
 10
40.2129
 20
13.8207
 30
0.000000
  70
    32
  0
VERTEX
  8
0
  5
106C3
 10
40.2409
 20
13.8576
 30
0.000000
  70
    32
  0
VERTEX
  8
0
  5
106C4
 10
40.2689
 20
13.8945
 30
0.000000
  70
    32
  0
VERTEX
  8
0
  5
106C5
 10
40.2967
 20
13.9316
 30
0.000000
  70
    32
  0
VERTEX
  8
0
  5
106C6
 10
40.3244
 20
13.9687
 30
0.000000
  70
    32
  0
VERTEX
  8
0
  5
106C7
 10
40.3521
 20
14.0058
 30
0.000000
  70
    32
  0
VERTEX
  8
0
  5
106C8
 10
40.3797
 20
14.0431
 30
0.000000
  70
    32
  0
VERTEX
  8
0
  5
106C9
 10
40.4072
 20
14.0803
 30
0.000000
  70
    32
  0
VERTEX
  8
0
  5
106CA
 10
40.4346
 20
14.1177
 30
0.000000
  70
    32
  0
VERTEX
  8
0
  5
106CB
 10
40.4620
 20
14.1551
 30
0.000000
  70
    32
  0
VERTEX
  8
0
  5
106CC
 10
40.4892
 20
14.1926
 30
0.000000
  70
    32
  0
VERTEX
  8
0
  5
106CD
 10
40.5164
 20
14.2301
 30
0.000000
  70
    32
  0
VERTEX
  8
0
  5
106CE
 10
40.5435
 20
14.2677
 30
0.000000
  70
    32
  0
VERTEX
  8
0
  5
106CF
 10
40.5705
 20
14.3053
 30
0.000000
  70
    32
  0
VERTEX
  8
0
  5
106D0
 10
40.5974
 20
14.3430
 30
0.000000
  70
    32
  0
VERTEX
  8
0
  5
106D1
 10
40.6242
 20
14.3808
 30
0.000000
  70
    32
  0
VERTEX
  8
0
  5
106D2
 10
40.6510
 20
14.4186
 30
0.000000
  70
    32
  0
VERTEX
  8
0
  5
106D3
 10
40.6776
 20
14.4565
 30
0.000000
  70
    32
  0
VERTEX
  8
0
  5
106D4
 10
40.7042
 20
14.4945
 30
0.000000
  70
    32
  0
VERTEX
  8
0
  5
106D5
 10
40.7307
 20
14.5325
 30
0.000000
  70
    32
  0
VERTEX
  8
0
  5
106D6
 10
40.7572
 20
14.5705
 30
0.000000
  70
    32
  0
VERTEX
  8
0
  5
106D7
 10
40.7835
 20
14.6086
 30
0.000000
  70
    32
  0
VERTEX
  8
0
  5
106D8
 10
40.8097
 20
14.6468
 30
0.000000
  70
    32
  0
VERTEX
  8
0
  5
106D9
 10
40.8359
 20
14.6851
 30
0.000000
  70
    32
  0
VERTEX
  8
0
  5
106DA
 10
40.8620
 20
14.7233
 30
0.000000
  70
    32
  0
VERTEX
  8
0
  5
106DB
 10
40.8880
 20
14.7617
 30
0.000000
  70
    32
  0
VERTEX
  8
0
  5
106DC
 10
40.9139
 20
14.8001
 30
0.000000
  70
    32
  0
VERTEX
  8
0
  5
106DD
 10
40.9397
 20
14.8386
 30
0.000000
  70
    32
  0
VERTEX
  8
0
  5
106DE
 10
40.9655
 20
14.8771
 30
0.000000
  70
    32
  0
VERTEX
  8
0
  5
106DF
 10
40.9911
 20
14.9157
 30
0.000000
  70
    32
  0
VERTEX
  8
0
  5
106E0
 10
41.0167
 20
14.9543
 30
0.000000
  70
    32
  0
VERTEX
  8
0
  5
106E1
 10
41.0422
 20
14.9930
 30
0.000000
  70
    32
  0
VERTEX
  8
0
  5
106E2
 10
41.0676
 20
15.0317
 30
0.000000
  70
    32
  0
VERTEX
  8
0
  5
106E3
 10
41.0930
 20
15.0705
 30
0.000000
  70
    32
  0
VERTEX
  8
0
  5
106E4
 10
41.1182
 20
15.1093
 30
0.000000
  70
    32
  0
VERTEX
  8
0
  5
106E5
 10
41.1434
 20
15.1482
 30
0.000000
  70
    32
  0
VERTEX
  8
0
  5
106E6
 10
41.1685
 20
15.1872
 30
0.000000
  70
    32
  0
VERTEX
  8
0
  5
106E7
 10
41.1935
 20
15.2262
 30
0.000000
  70
    32
  0
VERTEX
  8
0
  5
106E8
 10
41.2184
 20
15.2653
 30
0.000000
  70
    32
  0
VERTEX
  8
0
  5
106E9
 10
41.2432
 20
15.3044
 30
0.000000
  70
    32
  0
VERTEX
  8
0
  5
106EA
 10
41.2680
 20
15.3435
 30
0.000000
  70
    32
  0
VERTEX
  8
0
  5
106EB
 10
41.2926
 20
15.3828
 30
0.000000
  70
    32
  0
VERTEX
  8
0
  5
106EC
 10
41.3172
 20
15.4220
 30
0.000000
  70
    32
  0
VERTEX
  8
0
  5
106ED
 10
41.3417
 20
15.4613
 30
0.000000
  70
    32
  0
VERTEX
  8
0
  5
106EE
 10
41.3661
 20
15.5007
 30
0.000000
  70
    32
  0
VERTEX
  8
0
  5
106EF
 10
41.3904
 20
15.5401
 30
0.000000
  70
    32
  0
VERTEX
  8
0
  5
106F0
 10
41.4147
 20
15.5796
 30
0.000000
  70
    32
  0
VERTEX
  8
0
  5
106F1
 10
41.4388
 20
15.6191
 30
0.000000
  70
    32
  0
VERTEX
  8
0
  5
106F2
 10
41.4629
 20
15.6587
 30
0.000000
  70
    32
  0
VERTEX
  8
0
  5
106F3
 10
41.4869
 20
15.6984
 30
0.000000
  70
    32
  0
VERTEX
  8
0
  5
106F4
 10
41.5108
 20
15.7380
 30
0.000000
  70
    32
  0
VERTEX
  8
0
  5
106F5
 10
41.5346
 20
15.7778
 30
0.000000
  70
    32
  0
VERTEX
  8
0
  5
106F6
 10
41.5584
 20
15.8175
 30
0.000000
  70
    32
  0
VERTEX
  8
0
  5
106F7
 10
41.5820
 20
15.8574
 30
0.000000
  70
    32
  0
VERTEX
  8
0
  5
106F8
 10
41.6056
 20
15.8973
 30
0.000000
  70
    32
  0
VERTEX
  8
0
  5
106F9
 10
41.6291
 20
15.9372
 30
0.000000
  70
    32
  0
VERTEX
  8
0
  5
106FA
 10
41.6525
 20
15.9772
 30
0.000000
  70
    32
  0
VERTEX
  8
0
  5
106FB
 10
41.6758
 20
16.0172
 30
0.000000
  70
    32
  0
VERTEX
  8
0
  5
106FC
 10
41.6991
 20
16.0573
 30
0.000000
  70
    32
  0
VERTEX
  8
0
  5
106FD
 10
41.7222
 20
16.0974
 30
0.000000
  70
    32
  0
VERTEX
  8
0
  5
106FE
 10
41.7453
 20
16.1376
 30
0.000000
  70
    32
  0
VERTEX
  8
0
  5
106FF
 10
41.7683
 20
16.1778
 30
0.000000
  70
    32
  0
VERTEX
  8
0
  5
10700
 10
41.7912
 20
16.2181
 30
0.000000
  70
    32
  0
VERTEX
  8
0
  5
10701
 10
41.8140
 20
16.2584
 30
0.000000
  70
    32
  0
VERTEX
  8
0
  5
10702
 10
41.8368
 20
16.2987
 30
0.000000
  70
    32
  0
VERTEX
  8
0
  5
10703
 10
41.8594
 20
16.3391
 30
0.000000
  70
    32
  0
VERTEX
  8
0
  5
10704
 10
41.8820
 20
16.3796
 30
0.000000
  70
    32
  0
VERTEX
  8
0
  5
10705
 10
41.9045
 20
16.4201
 30
0.000000
  70
    32
  0
VERTEX
  8
0
  5
10706
 10
41.9269
 20
16.4607
 30
0.000000
  70
    32
  0
VERTEX
  8
0
  5
10707
 10
41.9492
 20
16.5013
 30
0.000000
  70
    32
  0
VERTEX
  8
0
  5
10708
 10
41.9714
 20
16.5419
 30
0.000000
  70
    32
  0
VERTEX
  8
0
  5
10709
 10
41.9935
 20
16.5826
 30
0.000000
  70
    32
  0
VERTEX
  8
0
  5
1070A
 10
42.0156
 20
16.6233
 30
0.000000
  70
    32
  0
VERTEX
  8
0
  5
1070B
 10
42.0376
 20
16.6641
 30
0.000000
  70
    32
  0
VERTEX
  8
0
  5
1070C
 10
42.0595
 20
16.7050
 30
0.000000
  70
    32
  0
VERTEX
  8
0
  5
1070D
 10
42.0813
 20
16.7458
 30
0.000000
  70
    32
  0
VERTEX
  8
0
  5
1070E
 10
42.1030
 20
16.7868
 30
0.000000
  70
    32
  0
VERTEX
  8
0
  5
1070F
 10
42.1247
 20
16.8277
 30
0.000000
  70
    32
  0
VERTEX
  8
0
  5
10710
 10
42.1462
 20
16.8687
 30
0.000000
  70
    32
  0
VERTEX
  8
0
  5
10711
 10
42.1677
 20
16.9098
 30
0.000000
  70
    32
  0
VERTEX
  8
0
  5
10712
 10
42.1891
 20
16.9509
 30
0.000000
  70
    32
  0
VERTEX
  8
0
  5
10713
 10
42.2104
 20
16.9920
 30
0.000000
  70
    32
  0
VERTEX
  8
0
  5
10714
 10
42.2316
 20
17.0332
 30
0.000000
  70
    32
  0
VERTEX
  8
0
  5
10715
 10
42.2527
 20
17.0744
 30
0.000000
  70
    32
  0
VERTEX
  8
0
  5
10716
 10
42.2738
 20
17.1157
 30
0.000000
  70
    32
  0
VERTEX
  8
0
  5
10717
 10
42.2947
 20
17.1570
 30
0.000000
  70
    32
  0
VERTEX
  8
0
  5
10718
 10
42.3156
 20
17.1984
 30
0.000000
  70
    32
  0
VERTEX
  8
0
  5
10719
 10
42.3364
 20
17.2398
 30
0.000000
  70
    32
  0
VERTEX
  8
0
  5
1071A
 10
42.3571
 20
17.2812
 30
0.000000
  70
    32
  0
VERTEX
  8
0
  5
1071B
 10
42.3778
 20
17.3227
 30
0.000000
  70
    32
  0
VERTEX
  8
0
  5
1071C
 10
42.3983
 20
17.3643
 30
0.000000
  70
    32
  0
VERTEX
  8
0
  5
1071D
 10
42.4188
 20
17.4058
 30
0.000000
  70
    32
  0
VERTEX
  8
0
  5
1071E
 10
42.4391
 20
17.4474
 30
0.000000
  70
    32
  0
VERTEX
  8
0
  5
1071F
 10
42.4594
 20
17.4891
 30
0.000000
  70
    32
  0
VERTEX
  8
0
  5
10720
 10
42.4796
 20
17.5308
 30
0.000000
  70
    32
  0
VERTEX
  8
0
  5
10721
 10
42.4997
 20
17.5725
 30
0.000000
  70
    32
  0
VERTEX
  8
0
  5
10722
 10
42.5198
 20
17.6143
 30
0.000000
  70
    32
  0
VERTEX
  8
0
  5
10723
 10
42.5397
 20
17.6561
 30
0.000000
  70
    32
  0
VERTEX
  8
0
  5
10724
 10
42.5596
 20
17.6980
 30
0.000000
  70
    32
  0
VERTEX
  8
0
  5
10725
 10
42.5793
 20
17.7399
 30
0.000000
  70
    32
  0
VERTEX
  8
0
  5
10726
 10
42.5990
 20
17.7818
 30
0.000000
  70
    32
  0
VERTEX
  8
0
  5
10727
 10
42.6186
 20
17.8238
 30
0.000000
  70
    32
  0
VERTEX
  8
0
  5
10728
 10
42.6382
 20
17.8658
 30
0.000000
  70
    32
  0
VERTEX
  8
0
  5
10729
 10
42.6576
 20
17.9079
 30
0.000000
  70
    32
  0
VERTEX
  8
0
  5
1072A
 10
42.6769
 20
17.9500
 30
0.000000
  70
    32
  0
VERTEX
  8
0
  5
1072B
 10
42.6962
 20
17.9921
 30
0.000000
  70
    32
  0
VERTEX
  8
0
  5
1072C
 10
42.7154
 20
18.0343
 30
0.000000
  70
    32
  0
VERTEX
  8
0
  5
1072D
 10
42.7345
 20
18.0765
 30
0.000000
  70
    32
  0
VERTEX
  8
0
  5
1072E
 10
42.7535
 20
18.1188
 30
0.000000
  70
    32
  0
VERTEX
  8
0
  5
1072F
 10
42.7724
 20
18.1611
 30
0.000000
  70
    32
  0
VERTEX
  8
0
  5
10730
 10
42.7913
 20
18.2034
 30
0.000000
  70
    32
  0
VERTEX
  8
0
  5
10731
 10
42.8100
 20
18.2458
 30
0.000000
  70
    32
  0
VERTEX
  8
0
  5
10732
 10
42.8287
 20
18.2882
 30
0.000000
  70
    32
  0
VERTEX
  8
0
  5
10733
 10
42.8472
 20
18.3306
 30
0.000000
  70
    32
  0
VERTEX
  8
0
  5
10734
 10
42.8657
 20
18.3731
 30
0.000000
  70
    32
  0
VERTEX
  8
0
  5
10735
 10
42.8841
 20
18.4156
 30
0.000000
  70
    32
  0
VERTEX
  8
0
  5
10736
 10
42.9025
 20
18.4581
 30
0.000000
  70
    32
  0
VERTEX
  8
0
  5
10737
 10
42.9207
 20
18.5007
 30
0.000000
  70
    32
  0
VERTEX
  8
0
  5
10738
 10
42.9388
 20
18.5434
 30
0.000000
  70
    32
  0
VERTEX
  8
0
  5
10739
 10
42.9569
 20
18.5860
 30
0.000000
  70
    32
  0
VERTEX
  8
0
  5
1073A
 10
42.9749
 20
18.6287
 30
0.000000
  70
    32
  0
VERTEX
  8
0
  5
1073B
 10
42.9928
 20
18.6714
 30
0.000000
  70
    32
  0
VERTEX
  8
0
  5
1073C
 10
43.0106
 20
18.7142
 30
0.000000
  70
    32
  0
VERTEX
  8
0
  5
1073D
 10
43.0283
 20
18.7570
 30
0.000000
  70
    32
  0
VERTEX
  8
0
  5
1073E
 10
43.0459
 20
18.7998
 30
0.000000
  70
    32
  0
VERTEX
  8
0
  5
1073F
 10
43.0635
 20
18.8427
 30
0.000000
  70
    32
  0
VERTEX
  8
0
  5
10740
 10
43.0809
 20
18.8856
 30
0.000000
  70
    32
  0
VERTEX
  8
0
  5
10741
 10
43.0983
 20
18.9285
 30
0.000000
  70
    32
  0
VERTEX
  8
0
  5
10742
 10
43.1156
 20
18.9715
 30
0.000000
  70
    32
  0
VERTEX
  8
0
  5
10743
 10
43.1328
 20
19.0145
 30
0.000000
  70
    32
  0
VERTEX
  8
0
  5
10744
 10
43.1499
 20
19.0575
 30
0.000000
  70
    32
  0
VERTEX
  8
0
  5
10745
 10
43.1669
 20
19.1006
 30
0.000000
  70
    32
  0
VERTEX
  8
0
  5
10746
 10
43.1839
 20
19.1437
 30
0.000000
  70
    32
  0
VERTEX
  8
0
  5
10747
 10
43.2007
 20
19.1868
 30
0.000000
  70
    32
  0
SEQEND
  8
0
  5
10748
  0
LINE
  5
F7CC
  8
0
 10
22.499955999999649
 20
15.000019999999941
 30
0.0
 11
20.999954999999311
 21
9.0000199999999495
 31
0.0
  0
LINE
  5
F7CD
  8
0
 10
18.671027000000318
 20
23.52635000000009
 30
0.0
 11
13.23433300000033
 21
20.419669999999989
 31
0.0
  0
LINE
  5
F7CE
  8
0
 10
24.0
 20
24.22545000000013
 30
0.0
 11
24.0
 21
15.0
 31
0.0
  0
LINE
  5
F7CF
  8
0
 10
24.0
 20
6.0
 30
0.0
 11
24.0
 21
5.0
 31
0.0
  0
LINE
  5
F7D0
  8
0
 10
24.999964000000539
 20
25.225490000000029
 30
0.0
 11
23.9999630000002
 21
24.225490000000029
 31
0.0
  0
ARC
  5
F7D1
  8
0
 10
19.1674810000004
 20
22.657570000000071
 30
0.0
 40
1.0
 50
30.852850000001808
 51
119.7448839999871
  0
ARC
  5
F7D2
  8
0
 10
13.7304610000001
 20
19.55146000000013
 30
0.0
 40
1.0
 50
119.7448839999871
 51
201.27633999998571
  0
POLYLINE
  8
0
  5
10749
  66
     1
 10
0.000000
 20
0.000000
 30
0.000000
  70
     8
  0
VERTEX
  8
0
  5
1074A
 10
22.5000
 20
15.0000
 30
0.000000
  70
    32
  0
VERTEX
  8
0
  5
1074B
 10
22.4984
 20
15.0300
 30
0.000000
  70
    32
  0
VERTEX
  8
0
  5
1074C
 10
22.4968
 20
15.0600
 30
0.000000
  70
    32
  0
VERTEX
  8
0
  5
1074D
 10
22.4951
 20
15.0900
 30
0.000000
  70
    32
  0
VERTEX
  8
0
  5
1074E
 10
22.4934
 20
15.1200
 30
0.000000
  70
    32
  0
VERTEX
  8
0
  5
1074F
 10
22.4916
 20
15.1500
 30
0.000000
  70
    32
  0
VERTEX
  8
0
  5
10750
 10
22.4898
 20
15.1800
 30
0.000000
  70
    32
  0
VERTEX
  8
0
  5
10751
 10
22.4879
 20
15.2100
 30
0.000000
  70
    32
  0
VERTEX
  8
0
  5
10752
 10
22.4860
 20
15.2399
 30
0.000000
  70
    32
  0
VERTEX
  8
0
  5
10753
 10
22.4840
 20
15.2699
 30
0.000000
  70
    32
  0
VERTEX
  8
0
  5
10754
 10
22.4820
 20
15.2999
 30
0.000000
  70
    32
  0
VERTEX
  8
0
  5
10755
 10
22.4800
 20
15.3299
 30
0.000000
  70
    32
  0
VERTEX
  8
0
  5
10756
 10
22.4779
 20
15.3598
 30
0.000000
  70
    32
  0
VERTEX
  8
0
  5
10757
 10
22.4757
 20
15.3898
 30
0.000000
  70
    32
  0
VERTEX
  8
0
  5
10758
 10
22.4735
 20
15.4198
 30
0.000000
  70
    32
  0
VERTEX
  8
0
  5
10759
 10
22.4712
 20
15.4497
 30
0.000000
  70
    32
  0
VERTEX
  8
0
  5
1075A
 10
22.4689
 20
15.4797
 30
0.000000
  70
    32
  0
VERTEX
  8
0
  5
1075B
 10
22.4666
 20
15.5096
 30
0.000000
  70
    32
  0
VERTEX
  8
0
  5
1075C
 10
22.4642
 20
15.5396
 30
0.000000
  70
    32
  0
VERTEX
  8
0
  5
1075D
 10
22.4617
 20
15.5695
 30
0.000000
  70
    32
  0
VERTEX
  8
0
  5
1075E
 10
22.4592
 20
15.5995
 30
0.000000
  70
    32
  0
VERTEX
  8
0
  5
1075F
 10
22.4567
 20
15.6294
 30
0.000000
  70
    32
  0
VERTEX
  8
0
  5
10760
 10
22.4541
 20
15.6594
 30
0.000000
  70
    32
  0
VERTEX
  8
0
  5
10761
 10
22.4514
 20
15.6893
 30
0.000000
  70
    32
  0
VERTEX
  8
0
  5
10762
 10
22.4487
 20
15.7192
 30
0.000000
  70
    32
  0
VERTEX
  8
0
  5
10763
 10
22.4460
 20
15.7492
 30
0.000000
  70
    32
  0
VERTEX
  8
0
  5
10764
 10
22.4432
 20
15.7791
 30
0.000000
  70
    32
  0
VERTEX
  8
0
  5
10765
 10
22.4403
 20
15.8090
 30
0.000000
  70
    32
  0
VERTEX
  8
0
  5
10766
 10
22.4375
 20
15.8389
 30
0.000000
  70
    32
  0
VERTEX
  8
0
  5
10767
 10
22.4345
 20
15.8688
 30
0.000000
  70
    32
  0
VERTEX
  8
0
  5
10768
 10
22.4315
 20
15.8987
 30
0.000000
  70
    32
  0
VERTEX
  8
0
  5
10769
 10
22.4285
 20
15.9286
 30
0.000000
  70
    32
  0
VERTEX
  8
0
  5
1076A
 10
22.4254
 20
15.9585
 30
0.000000
  70
    32
  0
VERTEX
  8
0
  5
1076B
 10
22.4223
 20
15.9884
 30
0.000000
  70
    32
  0
VERTEX
  8
0
  5
1076C
 10
22.4191
 20
16.0183
 30
0.000000
  70
    32
  0
VERTEX
  8
0
  5
1076D
 10
22.4158
 20
16.0481
 30
0.000000
  70
    32
  0
VERTEX
  8
0
  5
1076E
 10
22.4126
 20
16.0780
 30
0.000000
  70
    32
  0
VERTEX
  8
0
  5
1076F
 10
22.4092
 20
16.1079
 30
0.000000
  70
    32
  0
VERTEX
  8
0
  5
10770
 10
22.4059
 20
16.1377
 30
0.000000
  70
    32
  0
VERTEX
  8
0
  5
10771
 10
22.4024
 20
16.1676
 30
0.000000
  70
    32
  0
VERTEX
  8
0
  5
10772
 10
22.3990
 20
16.1974
 30
0.000000
  70
    32
  0
VERTEX
  8
0
  5
10773
 10
22.3954
 20
16.2273
 30
0.000000
  70
    32
  0
VERTEX
  8
0
  5
10774
 10
22.3919
 20
16.2571
 30
0.000000
  70
    32
  0
VERTEX
  8
0
  5
10775
 10
22.3882
 20
16.2870
 30
0.000000
  70
    32
  0
VERTEX
  8
0
  5
10776
 10
22.3846
 20
16.3168
 30
0.000000
  70
    32
  0
VERTEX
  8
0
  5
10777
 10
22.3808
 20
16.3466
 30
0.000000
  70
    32
  0
VERTEX
  8
0
  5
10778
 10
22.3771
 20
16.3764
 30
0.000000
  70
    32
  0
VERTEX
  8
0
  5
10779
 10
22.3732
 20
16.4062
 30
0.000000
  70
    32
  0
VERTEX
  8
0
  5
1077A
 10
22.3694
 20
16.4360
 30
0.000000
  70
    32
  0
VERTEX
  8
0
  5
1077B
 10
22.3655
 20
16.4658
 30
0.000000
  70
    32
  0
VERTEX
  8
0
  5
1077C
 10
22.3615
 20
16.4956
 30
0.000000
  70
    32
  0
VERTEX
  8
0
  5
1077D
 10
22.3575
 20
16.5254
 30
0.000000
  70
    32
  0
VERTEX
  8
0
  5
1077E
 10
22.3534
 20
16.5552
 30
0.000000
  70
    32
  0
VERTEX
  8
0
  5
1077F
 10
22.3493
 20
16.5849
 30
0.000000
  70
    32
  0
VERTEX
  8
0
  5
10780
 10
22.3451
 20
16.6147
 30
0.000000
  70
    32
  0
VERTEX
  8
0
  5
10781
 10
22.3409
 20
16.6444
 30
0.000000
  70
    32
  0
VERTEX
  8
0
  5
10782
 10
22.3367
 20
16.6742
 30
0.000000
  70
    32
  0
VERTEX
  8
0
  5
10783
 10
22.3323
 20
16.7039
 30
0.000000
  70
    32
  0
VERTEX
  8
0
  5
10784
 10
22.3280
 20
16.7337
 30
0.000000
  70
    32
  0
VERTEX
  8
0
  5
10785
 10
22.3236
 20
16.7634
 30
0.000000
  70
    32
  0
VERTEX
  8
0
  5
10786
 10
22.3191
 20
16.7931
 30
0.000000
  70
    32
  0
VERTEX
  8
0
  5
10787
 10
22.3146
 20
16.8228
 30
0.000000
  70
    32
  0
VERTEX
  8
0
  5
10788
 10
22.3100
 20
16.8525
 30
0.000000
  70
    32
  0
VERTEX
  8
0
  5
10789
 10
22.3054
 20
16.8822
 30
0.000000
  70
    32
  0
VERTEX
  8
0
  5
1078A
 10
22.3008
 20
16.9119
 30
0.000000
  70
    32
  0
VERTEX
  8
0
  5
1078B
 10
22.2961
 20
16.9416
 30
0.000000
  70
    32
  0
VERTEX
  8
0
  5
1078C
 10
22.2913
 20
16.9712
 30
0.000000
  70
    32
  0
VERTEX
  8
0
  5
1078D
 10
22.2865
 20
17.0009
 30
0.000000
  70
    32
  0
VERTEX
  8
0
  5
1078E
 10
22.2817
 20
17.0305
 30
0.000000
  70
    32
  0
VERTEX
  8
0
  5
1078F
 10
22.2768
 20
17.0602
 30
0.000000
  70
    32
  0
VERTEX
  8
0
  5
10790
 10
22.2718
 20
17.0898
 30
0.000000
  70
    32
  0
VERTEX
  8
0
  5
10791
 10
22.2668
 20
17.1195
 30
0.000000
  70
    32
  0
VERTEX
  8
0
  5
10792
 10
22.2618
 20
17.1491
 30
0.000000
  70
    32
  0
VERTEX
  8
0
  5
10793
 10
22.2566
 20
17.1787
 30
0.000000
  70
    32
  0
VERTEX
  8
0
  5
10794
 10
22.2515
 20
17.2083
 30
0.000000
  70
    32
  0
VERTEX
  8
0
  5
10795
 10
22.2463
 20
17.2379
 30
0.000000
  70
    32
  0
VERTEX
  8
0
  5
10796
 10
22.2410
 20
17.2675
 30
0.000000
  70
    32
  0
VERTEX
  8
0
  5
10797
 10
22.2357
 20
17.2971
 30
0.000000
  70
    32
  0
VERTEX
  8
0
  5
10798
 10
22.2304
 20
17.3266
 30
0.000000
  70
    32
  0
VERTEX
  8
0
  5
10799
 10
22.2250
 20
17.3562
 30
0.000000
  70
    32
  0
VERTEX
  8
0
  5
1079A
 10
22.2196
 20
17.3857
 30
0.000000
  70
    32
  0
VERTEX
  8
0
  5
1079B
 10
22.2141
 20
17.4153
 30
0.000000
  70
    32
  0
VERTEX
  8
0
  5
1079C
 10
22.2085
 20
17.4448
 30
0.000000
  70
    32
  0
VERTEX
  8
0
  5
1079D
 10
22.2029
 20
17.4743
 30
0.000000
  70
    32
  0
VERTEX
  8
0
  5
1079E
 10
22.1973
 20
17.5038
 30
0.000000
  70
    32
  0
VERTEX
  8
0
  5
1079F
 10
22.1916
 20
17.5333
 30
0.000000
  70
    32
  0
VERTEX
  8
0
  5
107A0
 10
22.1858
 20
17.5628
 30
0.000000
  70
    32
  0
VERTEX
  8
0
  5
107A1
 10
22.1800
 20
17.5923
 30
0.000000
  70
    32
  0
VERTEX
  8
0
  5
107A2
 10
22.1742
 20
17.6218
 30
0.000000
  70
    32
  0
VERTEX
  8
0
  5
107A3
 10
22.1683
 20
17.6513
 30
0.000000
  70
    32
  0
VERTEX
  8
0
  5
107A4
 10
22.1623
 20
17.6807
 30
0.000000
  70
    32
  0
VERTEX
  8
0
  5
107A5
 10
22.1563
 20
17.7102
 30
0.000000
  70
    32
  0
VERTEX
  8
0
  5
107A6
 10
22.1503
 20
17.7396
 30
0.000000
  70
    32
  0
VERTEX
  8
0
  5
107A7
 10
22.1442
 20
17.7690
 30
0.000000
  70
    32
  0
VERTEX
  8
0
  5
107A8
 10
22.1381
 20
17.7984
 30
0.000000
  70
    32
  0
VERTEX
  8
0
  5
107A9
 10
22.1319
 20
17.8278
 30
0.000000
  70
    32
  0
VERTEX
  8
0
  5
107AA
 10
22.1256
 20
17.8572
 30
0.000000
  70
    32
  0
VERTEX
  8
0
  5
107AB
 10
22.1193
 20
17.8866
 30
0.000000
  70
    32
  0
VERTEX
  8
0
  5
107AC
 10
22.1130
 20
17.9160
 30
0.000000
  70
    32
  0
VERTEX
  8
0
  5
107AD
 10
22.1066
 20
17.9453
 30
0.000000
  70
    32
  0
VERTEX
  8
0
  5
107AE
 10
22.1001
 20
17.9747
 30
0.000000
  70
    32
  0
VERTEX
  8
0
  5
107AF
 10
22.0936
 20
18.0040
 30
0.000000
  70
    32
  0
VERTEX
  8
0
  5
107B0
 10
22.0871
 20
18.0334
 30
0.000000
  70
    32
  0
VERTEX
  8
0
  5
107B1
 10
22.0805
 20
18.0627
 30
0.000000
  70
    32
  0
VERTEX
  8
0
  5
107B2
 10
22.0739
 20
18.0920
 30
0.000000
  70
    32
  0
VERTEX
  8
0
  5
107B3
 10
22.0672
 20
18.1213
 30
0.000000
  70
    32
  0
VERTEX
  8
0
  5
107B4
 10
22.0604
 20
18.1506
 30
0.000000
  70
    32
  0
VERTEX
  8
0
  5
107B5
 10
22.0536
 20
18.1798
 30
0.000000
  70
    32
  0
VERTEX
  8
0
  5
107B6
 10
22.0468
 20
18.2091
 30
0.000000
  70
    32
  0
VERTEX
  8
0
  5
107B7
 10
22.0399
 20
18.2383
 30
0.000000
  70
    32
  0
VERTEX
  8
0
  5
107B8
 10
22.0329
 20
18.2676
 30
0.000000
  70
    32
  0
VERTEX
  8
0
  5
107B9
 10
22.0259
 20
18.2968
 30
0.000000
  70
    32
  0
VERTEX
  8
0
  5
107BA
 10
22.0189
 20
18.3260
 30
0.000000
  70
    32
  0
VERTEX
  8
0
  5
107BB
 10
22.0118
 20
18.3552
 30
0.000000
  70
    32
  0
VERTEX
  8
0
  5
107BC
 10
22.0046
 20
18.3844
 30
0.000000
  70
    32
  0
VERTEX
  8
0
  5
107BD
 10
21.9974
 20
18.4136
 30
0.000000
  70
    32
  0
VERTEX
  8
0
  5
107BE
 10
21.9902
 20
18.4427
 30
0.000000
  70
    32
  0
VERTEX
  8
0
  5
107BF
 10
21.9829
 20
18.4719
 30
0.000000
  70
    32
  0
VERTEX
  8
0
  5
107C0
 10
21.9755
 20
18.5010
 30
0.000000
  70
    32
  0
VERTEX
  8
0
  5
107C1
 10
21.9681
 20
18.5301
 30
0.000000
  70
    32
  0
VERTEX
  8
0
  5
107C2
 10
21.9607
 20
18.5592
 30
0.000000
  70
    32
  0
VERTEX
  8
0
  5
107C3
 10
21.9532
 20
18.5883
 30
0.000000
  70
    32
  0
VERTEX
  8
0
  5
107C4
 10
21.9456
 20
18.6174
 30
0.000000
  70
    32
  0
VERTEX
  8
0
  5
107C5
 10
21.9380
 20
18.6465
 30
0.000000
  70
    32
  0
VERTEX
  8
0
  5
107C6
 10
21.9304
 20
18.6756
 30
0.000000
  70
    32
  0
VERTEX
  8
0
  5
107C7
 10
21.9227
 20
18.7046
 30
0.000000
  70
    32
  0
VERTEX
  8
0
  5
107C8
 10
21.9149
 20
18.7336
 30
0.000000
  70
    32
  0
VERTEX
  8
0
  5
107C9
 10
21.9071
 20
18.7627
 30
0.000000
  70
    32
  0
VERTEX
  8
0
  5
107CA
 10
21.8992
 20
18.7917
 30
0.000000
  70
    32
  0
VERTEX
  8
0
  5
107CB
 10
21.8913
 20
18.8206
 30
0.000000
  70
    32
  0
VERTEX
  8
0
  5
107CC
 10
21.8834
 20
18.8496
 30
0.000000
  70
    32
  0
VERTEX
  8
0
  5
107CD
 10
21.8754
 20
18.8786
 30
0.000000
  70
    32
  0
VERTEX
  8
0
  5
107CE
 10
21.8673
 20
18.9075
 30
0.000000
  70
    32
  0
VERTEX
  8
0
  5
107CF
 10
21.8592
 20
18.9365
 30
0.000000
  70
    32
  0
VERTEX
  8
0
  5
107D0
 10
21.8510
 20
18.9654
 30
0.000000
  70
    32
  0
VERTEX
  8
0
  5
107D1
 10
21.8428
 20
18.9943
 30
0.000000
  70
    32
  0
VERTEX
  8
0
  5
107D2
 10
21.8345
 20
19.0232
 30
0.000000
  70
    32
  0
VERTEX
  8
0
  5
107D3
 10
21.8262
 20
19.0521
 30
0.000000
  70
    32
  0
VERTEX
  8
0
  5
107D4
 10
21.8178
 20
19.0809
 30
0.000000
  70
    32
  0
VERTEX
  8
0
  5
107D5
 10
21.8094
 20
19.1098
 30
0.000000
  70
    32
  0
VERTEX
  8
0
  5
107D6
 10
21.8010
 20
19.1386
 30
0.000000
  70
    32
  0
VERTEX
  8
0
  5
107D7
 10
21.7924
 20
19.1674
 30
0.000000
  70
    32
  0
VERTEX
  8
0
  5
107D8
 10
21.7839
 20
19.1962
 30
0.000000
  70
    32
  0
VERTEX
  8
0
  5
107D9
 10
21.7752
 20
19.2250
 30
0.000000
  70
    32
  0
VERTEX
  8
0
  5
107DA
 10
21.7666
 20
19.2538
 30
0.000000
  70
    32
  0
VERTEX
  8
0
  5
107DB
 10
21.7578
 20
19.2825
 30
0.000000
  70
    32
  0
VERTEX
  8
0
  5
107DC
 10
21.7490
 20
19.3112
 30
0.000000
  70
    32
  0
VERTEX
  8
0
  5
107DD
 10
21.7402
 20
19.3400
 30
0.000000
  70
    32
  0
VERTEX
  8
0
  5
107DE
 10
21.7313
 20
19.3687
 30
0.000000
  70
    32
  0
VERTEX
  8
0
  5
107DF
 10
21.7224
 20
19.3974
 30
0.000000
  70
    32
  0
VERTEX
  8
0
  5
107E0
 10
21.7134
 20
19.4260
 30
0.000000
  70
    32
  0
VERTEX
  8
0
  5
107E1
 10
21.7044
 20
19.4547
 30
0.000000
  70
    32
  0
VERTEX
  8
0
  5
107E2
 10
21.6953
 20
19.4833
 30
0.000000
  70
    32
  0
VERTEX
  8
0
  5
107E3
 10
21.6862
 20
19.5120
 30
0.000000
  70
    32
  0
VERTEX
  8
0
  5
107E4
 10
21.6770
 20
19.5406
 30
0.000000
  70
    32
  0
VERTEX
  8
0
  5
107E5
 10
21.6677
 20
19.5692
 30
0.000000
  70
    32
  0
VERTEX
  8
0
  5
107E6
 10
21.6584
 20
19.5978
 30
0.000000
  70
    32
  0
VERTEX
  8
0
  5
107E7
 10
21.6491
 20
19.6263
 30
0.000000
  70
    32
  0
VERTEX
  8
0
  5
107E8
 10
21.6397
 20
19.6549
 30
0.000000
  70
    32
  0
VERTEX
  8
0
  5
107E9
 10
21.6303
 20
19.6834
 30
0.000000
  70
    32
  0
VERTEX
  8
0
  5
107EA
 10
21.6208
 20
19.7119
 30
0.000000
  70
    32
  0
VERTEX
  8
0
  5
107EB
 10
21.6112
 20
19.7404
 30
0.000000
  70
    32
  0
VERTEX
  8
0
  5
107EC
 10
21.6016
 20
19.7689
 30
0.000000
  70
    32
  0
VERTEX
  8
0
  5
107ED
 10
21.5920
 20
19.7973
 30
0.000000
  70
    32
  0
VERTEX
  8
0
  5
107EE
 10
21.5823
 20
19.8258
 30
0.000000
  70
    32
  0
VERTEX
  8
0
  5
107EF
 10
21.5725
 20
19.8542
 30
0.000000
  70
    32
  0
VERTEX
  8
0
  5
107F0
 10
21.5627
 20
19.8826
 30
0.000000
  70
    32
  0
VERTEX
  8
0
  5
107F1
 10
21.5529
 20
19.9110
 30
0.000000
  70
    32
  0
VERTEX
  8
0
  5
107F2
 10
21.5430
 20
19.9394
 30
0.000000
  70
    32
  0
VERTEX
  8
0
  5
107F3
 10
21.5331
 20
19.9677
 30
0.000000
  70
    32
  0
VERTEX
  8
0
  5
107F4
 10
21.5231
 20
19.9961
 30
0.000000
  70
    32
  0
VERTEX
  8
0
  5
107F5
 10
21.5130
 20
20.0244
 30
0.000000
  70
    32
  0
VERTEX
  8
0
  5
107F6
 10
21.5029
 20
20.0527
 30
0.000000
  70
    32
  0
VERTEX
  8
0
  5
107F7
 10
21.4928
 20
20.0810
 30
0.000000
  70
    32
  0
VERTEX
  8
0
  5
107F8
 10
21.4826
 20
20.1092
 30
0.000000
  70
    32
  0
VERTEX
  8
0
  5
107F9
 10
21.4723
 20
20.1375
 30
0.000000
  70
    32
  0
VERTEX
  8
0
  5
107FA
 10
21.4620
 20
20.1657
 30
0.000000
  70
    32
  0
VERTEX
  8
0
  5
107FB
 10
21.4517
 20
20.1939
 30
0.000000
  70
    32
  0
VERTEX
  8
0
  5
107FC
 10
21.4413
 20
20.2221
 30
0.000000
  70
    32
  0
VERTEX
  8
0
  5
107FD
 10
21.4308
 20
20.2503
 30
0.000000
  70
    32
  0
VERTEX
  8
0
  5
107FE
 10
21.4204
 20
20.2785
 30
0.000000
  70
    32
  0
VERTEX
  8
0
  5
107FF
 10
21.4098
 20
20.3066
 30
0.000000
  70
    32
  0
VERTEX
  8
0
  5
10800
 10
21.3992
 20
20.3347
 30
0.000000
  70
    32
  0
VERTEX
  8
0
  5
10801
 10
21.3886
 20
20.3628
 30
0.000000
  70
    32
  0
VERTEX
  8
0
  5
10802
 10
21.3779
 20
20.3909
 30
0.000000
  70
    32
  0
VERTEX
  8
0
  5
10803
 10
21.3671
 20
20.4190
 30
0.000000
  70
    32
  0
VERTEX
  8
0
  5
10804
 10
21.3563
 20
20.4470
 30
0.000000
  70
    32
  0
VERTEX
  8
0
  5
10805
 10
21.3455
 20
20.4750
 30
0.000000
  70
    32
  0
VERTEX
  8
0
  5
10806
 10
21.3346
 20
20.5030
 30
0.000000
  70
    32
  0
VERTEX
  8
0
  5
10807
 10
21.3237
 20
20.5310
 30
0.000000
  70
    32
  0
VERTEX
  8
0
  5
10808
 10
21.3127
 20
20.5590
 30
0.000000
  70
    32
  0
VERTEX
  8
0
  5
10809
 10
21.3017
 20
20.5870
 30
0.000000
  70
    32
  0
VERTEX
  8
0
  5
1080A
 10
21.2906
 20
20.6149
 30
0.000000
  70
    32
  0
VERTEX
  8
0
  5
1080B
 10
21.2794
 20
20.6428
 30
0.000000
  70
    32
  0
VERTEX
  8
0
  5
1080C
 10
21.2683
 20
20.6707
 30
0.000000
  70
    32
  0
VERTEX
  8
0
  5
1080D
 10
21.2570
 20
20.6986
 30
0.000000
  70
    32
  0
VERTEX
  8
0
  5
1080E
 10
21.2457
 20
20.7264
 30
0.000000
  70
    32
  0
VERTEX
  8
0
  5
1080F
 10
21.2344
 20
20.7542
 30
0.000000
  70
    32
  0
VERTEX
  8
0
  5
10810
 10
21.2230
 20
20.7820
 30
0.000000
  70
    32
  0
VERTEX
  8
0
  5
10811
 10
21.2116
 20
20.8098
 30
0.000000
  70
    32
  0
VERTEX
  8
0
  5
10812
 10
21.2001
 20
20.8376
 30
0.000000
  70
    32
  0
VERTEX
  8
0
  5
10813
 10
21.1886
 20
20.8654
 30
0.000000
  70
    32
  0
VERTEX
  8
0
  5
10814
 10
21.1771
 20
20.8931
 30
0.000000
  70
    32
  0
VERTEX
  8
0
  5
10815
 10
21.1654
 20
20.9208
 30
0.000000
  70
    32
  0
VERTEX
  8
0
  5
10816
 10
21.1538
 20
20.9485
 30
0.000000
  70
    32
  0
VERTEX
  8
0
  5
10817
 10
21.1421
 20
20.9762
 30
0.000000
  70
    32
  0
VERTEX
  8
0
  5
10818
 10
21.1303
 20
21.0038
 30
0.000000
  70
    32
  0
VERTEX
  8
0
  5
10819
 10
21.1185
 20
21.0315
 30
0.000000
  70
    32
  0
VERTEX
  8
0
  5
1081A
 10
21.1066
 20
21.0591
 30
0.000000
  70
    32
  0
VERTEX
  8
0
  5
1081B
 10
21.0947
 20
21.0867
 30
0.000000
  70
    32
  0
VERTEX
  8
0
  5
1081C
 10
21.0828
 20
21.1142
 30
0.000000
  70
    32
  0
VERTEX
  8
0
  5
1081D
 10
21.0708
 20
21.1418
 30
0.000000
  70
    32
  0
VERTEX
  8
0
  5
1081E
 10
21.0587
 20
21.1693
 30
0.000000
  70
    32
  0
VERTEX
  8
0
  5
1081F
 10
21.0466
 20
21.1968
 30
0.000000
  70
    32
  0
VERTEX
  8
0
  5
10820
 10
21.0345
 20
21.2243
 30
0.000000
  70
    32
  0
VERTEX
  8
0
  5
10821
 10
21.0223
 20
21.2518
 30
0.000000
  70
    32
  0
VERTEX
  8
0
  5
10822
 10
21.0101
 20
21.2792
 30
0.000000
  70
    32
  0
VERTEX
  8
0
  5
10823
 10
20.9978
 20
21.3066
 30
0.000000
  70
    32
  0
VERTEX
  8
0
  5
10824
 10
20.9855
 20
21.3340
 30
0.000000
  70
    32
  0
VERTEX
  8
0
  5
10825
 10
20.9731
 20
21.3614
 30
0.000000
  70
    32
  0
VERTEX
  8
0
  5
10826
 10
20.9607
 20
21.3888
 30
0.000000
  70
    32
  0
VERTEX
  8
0
  5
10827
 10
20.9482
 20
21.4161
 30
0.000000
  70
    32
  0
VERTEX
  8
0
  5
10828
 10
20.9357
 20
21.4434
 30
0.000000
  70
    32
  0
VERTEX
  8
0
  5
10829
 10
20.9231
 20
21.4707
 30
0.000000
  70
    32
  0
VERTEX
  8
0
  5
1082A
 10
20.9105
 20
21.4980
 30
0.000000
  70
    32
  0
VERTEX
  8
0
  5
1082B
 10
20.8978
 20
21.5253
 30
0.000000
  70
    32
  0
VERTEX
  8
0
  5
1082C
 10
20.8851
 20
21.5525
 30
0.000000
  70
    32
  0
VERTEX
  8
0
  5
1082D
 10
20.8724
 20
21.5797
 30
0.000000
  70
    32
  0
VERTEX
  8
0
  5
1082E
 10
20.8596
 20
21.6069
 30
0.000000
  70
    32
  0
VERTEX
  8
0
  5
1082F
 10
20.8468
 20
21.6341
 30
0.000000
  70
    32
  0
VERTEX
  8
0
  5
10830
 10
20.8339
 20
21.6612
 30
0.000000
  70
    32
  0
VERTEX
  8
0
  5
10831
 10
20.8209
 20
21.6883
 30
0.000000
  70
    32
  0
VERTEX
  8
0
  5
10832
 10
20.8080
 20
21.7154
 30
0.000000
  70
    32
  0
VERTEX
  8
0
  5
10833
 10
20.7949
 20
21.7425
 30
0.000000
  70
    32
  0
VERTEX
  8
0
  5
10834
 10
20.7819
 20
21.7696
 30
0.000000
  70
    32
  0
VERTEX
  8
0
  5
10835
 10
20.7688
 20
21.7966
 30
0.000000
  70
    32
  0
VERTEX
  8
0
  5
10836
 10
20.7556
 20
21.8236
 30
0.000000
  70
    32
  0
VERTEX
  8
0
  5
10837
 10
20.7424
 20
21.8506
 30
0.000000
  70
    32
  0
VERTEX
  8
0
  5
10838
 10
20.7291
 20
21.8776
 30
0.000000
  70
    32
  0
VERTEX
  8
0
  5
10839
 10
20.7158
 20
21.9045
 30
0.000000
  70
    32
  0
VERTEX
  8
0
  5
1083A
 10
20.7025
 20
21.9315
 30
0.000000
  70
    32
  0
VERTEX
  8
0
  5
1083B
 10
20.6891
 20
21.9584
 30
0.000000
  70
    32
  0
VERTEX
  8
0
  5
1083C
 10
20.6757
 20
21.9853
 30
0.000000
  70
    32
  0
VERTEX
  8
0
  5
1083D
 10
20.6622
 20
22.0121
 30
0.000000
  70
    32
  0
VERTEX
  8
0
  5
1083E
 10
20.6487
 20
22.0390
 30
0.000000
  70
    32
  0
VERTEX
  8
0
  5
1083F
 10
20.6351
 20
22.0658
 30
0.000000
  70
    32
  0
VERTEX
  8
0
  5
10840
 10
20.6215
 20
22.0926
 30
0.000000
  70
    32
  0
VERTEX
  8
0
  5
10841
 10
20.6079
 20
22.1193
 30
0.000000
  70
    32
  0
VERTEX
  8
0
  5
10842
 10
20.5942
 20
22.1461
 30
0.000000
  70
    32
  0
VERTEX
  8
0
  5
10843
 10
20.5804
 20
22.1728
 30
0.000000
  70
    32
  0
VERTEX
  8
0
  5
10844
 10
20.5666
 20
22.1995
 30
0.000000
  70
    32
  0
VERTEX
  8
0
  5
10845
 10
20.5528
 20
22.2262
 30
0.000000
  70
    32
  0
VERTEX
  8
0
  5
10846
 10
20.5389
 20
22.2528
 30
0.000000
  70
    32
  0
VERTEX
  8
0
  5
10847
 10
20.5250
 20
22.2795
 30
0.000000
  70
    32
  0
VERTEX
  8
0
  5
10848
 10
20.5110
 20
22.3061
 30
0.000000
  70
    32
  0
VERTEX
  8
0
  5
10849
 10
20.4970
 20
22.3327
 30
0.000000
  70
    32
  0
VERTEX
  8
0
  5
1084A
 10
20.4830
 20
22.3592
 30
0.000000
  70
    32
  0
VERTEX
  8
0
  5
1084B
 10
20.4689
 20
22.3858
 30
0.000000
  70
    32
  0
VERTEX
  8
0
  5
1084C
 10
20.4547
 20
22.4123
 30
0.000000
  70
    32
  0
VERTEX
  8
0
  5
1084D
 10
20.4405
 20
22.4388
 30
0.000000
  70
    32
  0
VERTEX
  8
0
  5
1084E
 10
20.4263
 20
22.4652
 30
0.000000
  70
    32
  0
VERTEX
  8
0
  5
1084F
 10
20.4120
 20
22.4917
 30
0.000000
  70
    32
  0
VERTEX
  8
0
  5
10850
 10
20.3977
 20
22.5181
 30
0.000000
  70
    32
  0
VERTEX
  8
0
  5
10851
 10
20.3833
 20
22.5445
 30
0.000000
  70
    32
  0
VERTEX
  8
0
  5
10852
 10
20.3689
 20
22.5709
 30
0.000000
  70
    32
  0
VERTEX
  8
0
  5
10853
 10
20.3545
 20
22.5972
 30
0.000000
  70
    32
  0
VERTEX
  8
0
  5
10854
 10
20.3400
 20
22.6235
 30
0.000000
  70
    32
  0
VERTEX
  8
0
  5
10855
 10
20.3255
 20
22.6498
 30
0.000000
  70
    32
  0
VERTEX
  8
0
  5
10856
 10
20.3109
 20
22.6761
 30
0.000000
  70
    32
  0
VERTEX
  8
0
  5
10857
 10
20.2963
 20
22.7024
 30
0.000000
  70
    32
  0
VERTEX
  8
0
  5
10858
 10
20.2816
 20
22.7286
 30
0.000000
  70
    32
  0
VERTEX
  8
0
  5
10859
 10
20.2669
 20
22.7548
 30
0.000000
  70
    32
  0
VERTEX
  8
0
  5
1085A
 10
20.2522
 20
22.7810
 30
0.000000
  70
    32
  0
VERTEX
  8
0
  5
1085B
 10
20.2374
 20
22.8071
 30
0.000000
  70
    32
  0
VERTEX
  8
0
  5
1085C
 10
20.2225
 20
22.8333
 30
0.000000
  70
    32
  0
VERTEX
  8
0
  5
1085D
 10
20.2076
 20
22.8594
 30
0.000000
  70
    32
  0
VERTEX
  8
0
  5
1085E
 10
20.1927
 20
22.8855
 30
0.000000
  70
    32
  0
VERTEX
  8
0
  5
1085F
 10
20.1778
 20
22.9115
 30
0.000000
  70
    32
  0
VERTEX
  8
0
  5
10860
 10
20.1628
 20
22.9375
 30
0.000000
  70
    32
  0
VERTEX
  8
0
  5
10861
 10
20.1477
 20
22.9635
 30
0.000000
  70
    32
  0
VERTEX
  8
0
  5
10862
 10
20.1326
 20
22.9895
 30
0.000000
  70
    32
  0
VERTEX
  8
0
  5
10863
 10
20.1175
 20
23.0155
 30
0.000000
  70
    32
  0
VERTEX
  8
0
  5
10864
 10
20.1023
 20
23.0414
 30
0.000000
  70
    32
  0
VERTEX
  8
0
  5
10865
 10
20.0871
 20
23.0673
 30
0.000000
  70
    32
  0
VERTEX
  8
0
  5
10866
 10
20.0718
 20
23.0932
 30
0.000000
  70
    32
  0
VERTEX
  8
0
  5
10867
 10
20.0565
 20
23.1190
 30
0.000000
  70
    32
  0
VERTEX
  8
0
  5
10868
 10
20.0412
 20
23.1449
 30
0.000000
  70
    32
  0
VERTEX
  8
0
  5
10869
 10
20.0258
 20
23.1707
 30
0.000000
  70
    32
  0
SEQEND
  8
0
  5
1086A
  0
POLYLINE
  8
0
  5
1086B
  66
     1
 10
0.000000
 20
0.000000
 30
0.000000
  70
     8
  0
VERTEX
  8
0
  5
1086C
 10
21.0000
 20
9.00000
 30
0.000000
  70
    32
  0
VERTEX
  8
0
  5
1086D
 10
20.9613
 20
9.02546
 30
0.000000
  70
    32
  0
VERTEX
  8
0
  5
1086E
 10
20.9227
 20
9.05100
 30
0.000000
  70
    32
  0
VERTEX
  8
0
  5
1086F
 10
20.8841
 20
9.07662
 30
0.000000
  70
    32
  0
VERTEX
  8
0
  5
10870
 10
20.8456
 20
9.10232
 30
0.000000
  70
    32
  0
VERTEX
  8
0
  5
10871
 10
20.8071
 20
9.12809
 30
0.000000
  70
    32
  0
VERTEX
  8
0
  5
10872
 10
20.7687
 20
9.15394
 30
0.000000
  70
    32
  0
VERTEX
  8
0
  5
10873
 10
20.7303
 20
9.17987
 30
0.000000
  70
    32
  0
VERTEX
  8
0
  5
10874
 10
20.6920
 20
9.20588
 30
0.000000
  70
    32
  0
VERTEX
  8
0
  5
10875
 10
20.6537
 20
9.23197
 30
0.000000
  70
    32
  0
VERTEX
  8
0
  5
10876
 10
20.6155
 20
9.25814
 30
0.000000
  70
    32
  0
VERTEX
  8
0
  5
10877
 10
20.5773
 20
9.28438
 30
0.000000
  70
    32
  0
VERTEX
  8
0
  5
10878
 10
20.5392
 20
9.31070
 30
0.000000
  70
    32
  0
VERTEX
  8
0
  5
10879
 10
20.5011
 20
9.33710
 30
0.000000
  70
    32
  0
VERTEX
  8
0
  5
1087A
 10
20.4631
 20
9.36358
 30
0.000000
  70
    32
  0
VERTEX
  8
0
  5
1087B
 10
20.4251
 20
9.39014
 30
0.000000
  70
    32
  0
VERTEX
  8
0
  5
1087C
 10
20.3872
 20
9.41677
 30
0.000000
  70
    32
  0
VERTEX
  8
0
  5
1087D
 10
20.3494
 20
9.44348
 30
0.000000
  70
    32
  0
VERTEX
  8
0
  5
1087E
 10
20.3116
 20
9.47027
 30
0.000000
  70
    32
  0
VERTEX
  8
0
  5
1087F
 10
20.2739
 20
9.49714
 30
0.000000
  70
    32
  0
VERTEX
  8
0
  5
10880
 10
20.2362
 20
9.52408
 30
0.000000
  70
    32
  0
VERTEX
  8
0
  5
10881
 10
20.1985
 20
9.55110
 30
0.000000
  70
    32
  0
VERTEX
  8
0
  5
10882
 10
20.1610
 20
9.57820
 30
0.000000
  70
    32
  0
VERTEX
  8
0
  5
10883
 10
20.1234
 20
9.60538
 30
0.000000
  70
    32
  0
VERTEX
  8
0
  5
10884
 10
20.0860
 20
9.63264
 30
0.000000
  70
    32
  0
VERTEX
  8
0
  5
10885
 10
20.0486
 20
9.65997
 30
0.000000
  70
    32
  0
VERTEX
  8
0
  5
10886
 10
20.0112
 20
9.68738
 30
0.000000
  70
    32
  0
VERTEX
  8
0
  5
10887
 10
19.9739
 20
9.71486
 30
0.000000
  70
    32
  0
VERTEX
  8
0
  5
10888
 10
19.9367
 20
9.74243
 30
0.000000
  70
    32
  0
VERTEX
  8
0
  5
10889
 10
19.8995
 20
9.77007
 30
0.000000
  70
    32
  0
VERTEX
  8
0
  5
1088A
 10
19.8624
 20
9.79779
 30
0.000000
  70
    32
  0
VERTEX
  8
0
  5
1088B
 10
19.8253
 20
9.82559
 30
0.000000
  70
    32
  0
VERTEX
  8
0
  5
1088C
 10
19.7883
 20
9.85346
 30
0.000000
  70
    32
  0
VERTEX
  8
0
  5
1088D
 10
19.7513
 20
9.88141
 30
0.000000
  70
    32
  0
VERTEX
  8
0
  5
1088E
 10
19.7144
 20
9.90944
 30
0.000000
  70
    32
  0
VERTEX
  8
0
  5
1088F
 10
19.6776
 20
9.93754
 30
0.000000
  70
    32
  0
VERTEX
  8
0
  5
10890
 10
19.6408
 20
9.96573
 30
0.000000
  70
    32
  0
VERTEX
  8
0
  5
10891
 10
19.6041
 20
9.99398
 30
0.000000
  70
    32
  0
VERTEX
  8
0
  5
10892
 10
19.5674
 20
10.0223
 30
0.000000
  70
    32
  0
VERTEX
  8
0
  5
10893
 10
19.5308
 20
10.0507
 30
0.000000
  70
    32
  0
VERTEX
  8
0
  5
10894
 10
19.4943
 20
10.0792
 30
0.000000
  70
    32
  0
VERTEX
  8
0
  5
10895
 10
19.4578
 20
10.1078
 30
0.000000
  70
    32
  0
VERTEX
  8
0
  5
10896
 10
19.4214
 20
10.1364
 30
0.000000
  70
    32
  0
VERTEX
  8
0
  5
10897
 10
19.3850
 20
10.1652
 30
0.000000
  70
    32
  0
VERTEX
  8
0
  5
10898
 10
19.3487
 20
10.1939
 30
0.000000
  70
    32
  0
VERTEX
  8
0
  5
10899
 10
19.3125
 20
10.2228
 30
0.000000
  70
    32
  0
VERTEX
  8
0
  5
1089A
 10
19.2763
 20
10.2518
 30
0.000000
  70
    32
  0
VERTEX
  8
0
  5
1089B
 10
19.2402
 20
10.2808
 30
0.000000
  70
    32
  0
VERTEX
  8
0
  5
1089C
 10
19.2041
 20
10.3099
 30
0.000000
  70
    32
  0
VERTEX
  8
0
  5
1089D
 10
19.1682
 20
10.3391
 30
0.000000
  70
    32
  0
VERTEX
  8
0
  5
1089E
 10
19.1322
 20
10.3683
 30
0.000000
  70
    32
  0
VERTEX
  8
0
  5
1089F
 10
19.0964
 20
10.3977
 30
0.000000
  70
    32
  0
VERTEX
  8
0
  5
108A0
 10
19.0605
 20
10.4271
 30
0.000000
  70
    32
  0
VERTEX
  8
0
  5
108A1
 10
19.0248
 20
10.4566
 30
0.000000
  70
    32
  0
VERTEX
  8
0
  5
108A2
 10
18.9891
 20
10.4861
 30
0.000000
  70
    32
  0
VERTEX
  8
0
  5
108A3
 10
18.9535
 20
10.5158
 30
0.000000
  70
    32
  0
VERTEX
  8
0
  5
108A4
 10
18.9180
 20
10.5455
 30
0.000000
  70
    32
  0
VERTEX
  8
0
  5
108A5
 10
18.8825
 20
10.5753
 30
0.000000
  70
    32
  0
VERTEX
  8
0
  5
108A6
 10
18.8471
 20
10.6051
 30
0.000000
  70
    32
  0
VERTEX
  8
0
  5
108A7
 10
18.8117
 20
10.6351
 30
0.000000
  70
    32
  0
VERTEX
  8
0
  5
108A8
 10
18.7764
 20
10.6651
 30
0.000000
  70
    32
  0
VERTEX
  8
0
  5
108A9
 10
18.7412
 20
10.6952
 30
0.000000
  70
    32
  0
VERTEX
  8
0
  5
108AA
 10
18.7060
 20
10.7254
 30
0.000000
  70
    32
  0
VERTEX
  8
0
  5
108AB
 10
18.6709
 20
10.7556
 30
0.000000
  70
    32
  0
VERTEX
  8
0
  5
108AC
 10
18.6359
 20
10.7859
 30
0.000000
  70
    32
  0
VERTEX
  8
0
  5
108AD
 10
18.6009
 20
10.8163
 30
0.000000
  70
    32
  0
VERTEX
  8
0
  5
108AE
 10
18.5660
 20
10.8468
 30
0.000000
  70
    32
  0
VERTEX
  8
0
  5
108AF
 10
18.5312
 20
10.8774
 30
0.000000
  70
    32
  0
VERTEX
  8
0
  5
108B0
 10
18.4964
 20
10.9080
 30
0.000000
  70
    32
  0
VERTEX
  8
0
  5
108B1
 10
18.4618
 20
10.9387
 30
0.000000
  70
    32
  0
VERTEX
  8
0
  5
108B2
 10
18.4271
 20
10.9695
 30
0.000000
  70
    32
  0
VERTEX
  8
0
  5
108B3
 10
18.3926
 20
11.0004
 30
0.000000
  70
    32
  0
VERTEX
  8
0
  5
108B4
 10
18.3581
 20
11.0313
 30
0.000000
  70
    32
  0
VERTEX
  8
0
  5
108B5
 10
18.3237
 20
11.0623
 30
0.000000
  70
    32
  0
VERTEX
  8
0
  5
108B6
 10
18.2893
 20
11.0934
 30
0.000000
  70
    32
  0
VERTEX
  8
0
  5
108B7
 10
18.2550
 20
11.1246
 30
0.000000
  70
    32
  0
VERTEX
  8
0
  5
108B8
 10
18.2208
 20
11.1558
 30
0.000000
  70
    32
  0
VERTEX
  8
0
  5
108B9
 10
18.1867
 20
11.1871
 30
0.000000
  70
    32
  0
VERTEX
  8
0
  5
108BA
 10
18.1526
 20
11.2185
 30
0.000000
  70
    32
  0
VERTEX
  8
0
  5
108BB
 10
18.1186
 20
11.2500
 30
0.000000
  70
    32
  0
VERTEX
  8
0
  5
108BC
 10
18.0847
 20
11.2815
 30
0.000000
  70
    32
  0
VERTEX
  8
0
  5
108BD
 10
18.0508
 20
11.3132
 30
0.000000
  70
    32
  0
VERTEX
  8
0
  5
108BE
 10
18.0170
 20
11.3449
 30
0.000000
  70
    32
  0
VERTEX
  8
0
  5
108BF
 10
17.9833
 20
11.3766
 30
0.000000
  70
    32
  0
VERTEX
  8
0
  5
108C0
 10
17.9497
 20
11.4085
 30
0.000000
  70
    32
  0
VERTEX
  8
0
  5
108C1
 10
17.9161
 20
11.4404
 30
0.000000
  70
    32
  0
VERTEX
  8
0
  5
108C2
 10
17.8826
 20
11.4724
 30
0.000000
  70
    32
  0
VERTEX
  8
0
  5
108C3
 10
17.8492
 20
11.5045
 30
0.000000
  70
    32
  0
VERTEX
  8
0
  5
108C4
 10
17.8158
 20
11.5367
 30
0.000000
  70
    32
  0
VERTEX
  8
0
  5
108C5
 10
17.7826
 20
11.5689
 30
0.000000
  70
    32
  0
VERTEX
  8
0
  5
108C6
 10
17.7494
 20
11.6012
 30
0.000000
  70
    32
  0
VERTEX
  8
0
  5
108C7
 10
17.7162
 20
11.6336
 30
0.000000
  70
    32
  0
VERTEX
  8
0
  5
108C8
 10
17.6832
 20
11.6660
 30
0.000000
  70
    32
  0
VERTEX
  8
0
  5
108C9
 10
17.6502
 20
11.6986
 30
0.000000
  70
    32
  0
VERTEX
  8
0
  5
108CA
 10
17.6173
 20
11.7312
 30
0.000000
  70
    32
  0
VERTEX
  8
0
  5
108CB
 10
17.5845
 20
11.7639
 30
0.000000
  70
    32
  0
VERTEX
  8
0
  5
108CC
 10
17.5517
 20
11.7966
 30
0.000000
  70
    32
  0
VERTEX
  8
0
  5
108CD
 10
17.5190
 20
11.8295
 30
0.000000
  70
    32
  0
VERTEX
  8
0
  5
108CE
 10
17.4864
 20
11.8624
 30
0.000000
  70
    32
  0
VERTEX
  8
0
  5
108CF
 10
17.4539
 20
11.8954
 30
0.000000
  70
    32
  0
VERTEX
  8
0
  5
108D0
 10
17.4215
 20
11.9285
 30
0.000000
  70
    32
  0
VERTEX
  8
0
  5
108D1
 10
17.3891
 20
11.9616
 30
0.000000
  70
    32
  0
VERTEX
  8
0
  5
108D2
 10
17.3568
 20
11.9948
 30
0.000000
  70
    32
  0
VERTEX
  8
0
  5
108D3
 10
17.3246
 20
12.0281
 30
0.000000
  70
    32
  0
VERTEX
  8
0
  5
108D4
 10
17.2924
 20
12.0615
 30
0.000000
  70
    32
  0
VERTEX
  8
0
  5
108D5
 10
17.2604
 20
12.0949
 30
0.000000
  70
    32
  0
VERTEX
  8
0
  5
108D6
 10
17.2284
 20
12.1284
 30
0.000000
  70
    32
  0
VERTEX
  8
0
  5
108D7
 10
17.1965
 20
12.1620
 30
0.000000
  70
    32
  0
VERTEX
  8
0
  5
108D8
 10
17.1646
 20
12.1957
 30
0.000000
  70
    32
  0
VERTEX
  8
0
  5
108D9
 10
17.1329
 20
12.2294
 30
0.000000
  70
    32
  0
VERTEX
  8
0
  5
108DA
 10
17.1012
 20
12.2632
 30
0.000000
  70
    32
  0
VERTEX
  8
0
  5
108DB
 10
17.0696
 20
12.2971
 30
0.000000
  70
    32
  0
VERTEX
  8
0
  5
108DC
 10
17.0381
 20
12.3311
 30
0.000000
  70
    32
  0
VERTEX
  8
0
  5
108DD
 10
17.0066
 20
12.3651
 30
0.000000
  70
    32
  0
VERTEX
  8
0
  5
108DE
 10
16.9753
 20
12.3992
 30
0.000000
  70
    32
  0
VERTEX
  8
0
  5
108DF
 10
16.9440
 20
12.4334
 30
0.000000
  70
    32
  0
VERTEX
  8
0
  5
108E0
 10
16.9128
 20
12.4676
 30
0.000000
  70
    32
  0
VERTEX
  8
0
  5
108E1
 10
16.8816
 20
12.5020
 30
0.000000
  70
    32
  0
VERTEX
  8
0
  5
108E2
 10
16.8506
 20
12.5364
 30
0.000000
  70
    32
  0
VERTEX
  8
0
  5
108E3
 10
16.8196
 20
12.5708
 30
0.000000
  70
    32
  0
VERTEX
  8
0
  5
108E4
 10
16.7887
 20
12.6054
 30
0.000000
  70
    32
  0
VERTEX
  8
0
  5
108E5
 10
16.7579
 20
12.6400
 30
0.000000
  70
    32
  0
VERTEX
  8
0
  5
108E6
 10
16.7272
 20
12.6746
 30
0.000000
  70
    32
  0
VERTEX
  8
0
  5
108E7
 10
16.6966
 20
12.7094
 30
0.000000
  70
    32
  0
VERTEX
  8
0
  5
108E8
 10
16.6660
 20
12.7442
 30
0.000000
  70
    32
  0
VERTEX
  8
0
  5
108E9
 10
16.6355
 20
12.7791
 30
0.000000
  70
    32
  0
VERTEX
  8
0
  5
108EA
 10
16.6051
 20
12.8141
 30
0.000000
  70
    32
  0
VERTEX
  8
0
  5
108EB
 10
16.5748
 20
12.8491
 30
0.000000
  70
    32
  0
VERTEX
  8
0
  5
108EC
 10
16.5445
 20
12.8842
 30
0.000000
  70
    32
  0
VERTEX
  8
0
  5
108ED
 10
16.5144
 20
12.9194
 30
0.000000
  70
    32
  0
VERTEX
  8
0
  5
108EE
 10
16.4843
 20
12.9546
 30
0.000000
  70
    32
  0
VERTEX
  8
0
  5
108EF
 10
16.4543
 20
12.9899
 30
0.000000
  70
    32
  0
VERTEX
  8
0
  5
108F0
 10
16.4244
 20
13.0253
 30
0.000000
  70
    32
  0
VERTEX
  8
0
  5
108F1
 10
16.3945
 20
13.0607
 30
0.000000
  70
    32
  0
VERTEX
  8
0
  5
108F2
 10
16.3648
 20
13.0962
 30
0.000000
  70
    32
  0
VERTEX
  8
0
  5
108F3
 10
16.3351
 20
13.1318
 30
0.000000
  70
    32
  0
VERTEX
  8
0
  5
108F4
 10
16.3055
 20
13.1675
 30
0.000000
  70
    32
  0
VERTEX
  8
0
  5
108F5
 10
16.2760
 20
13.2032
 30
0.000000
  70
    32
  0
VERTEX
  8
0
  5
108F6
 10
16.2466
 20
13.2390
 30
0.000000
  70
    32
  0
VERTEX
  8
0
  5
108F7
 10
16.2172
 20
13.2748
 30
0.000000
  70
    32
  0
VERTEX
  8
0
  5
108F8
 10
16.1880
 20
13.3108
 30
0.000000
  70
    32
  0
VERTEX
  8
0
  5
108F9
 10
16.1588
 20
13.3468
 30
0.000000
  70
    32
  0
VERTEX
  8
0
  5
108FA
 10
16.1297
 20
13.3828
 30
0.000000
  70
    32
  0
VERTEX
  8
0
  5
108FB
 10
16.1007
 20
13.4189
 30
0.000000
  70
    32
  0
VERTEX
  8
0
  5
108FC
 10
16.0717
 20
13.4551
 30
0.000000
  70
    32
  0
VERTEX
  8
0
  5
108FD
 10
16.0429
 20
13.4914
 30
0.000000
  70
    32
  0
VERTEX
  8
0
  5
108FE
 10
16.0141
 20
13.5277
 30
0.000000
  70
    32
  0
VERTEX
  8
0
  5
108FF
 10
15.9855
 20
13.5641
 30
0.000000
  70
    32
  0
VERTEX
  8
0
  5
10900
 10
15.9569
 20
13.6006
 30
0.000000
  70
    32
  0
VERTEX
  8
0
  5
10901
 10
15.9284
 20
13.6371
 30
0.000000
  70
    32
  0
VERTEX
  8
0
  5
10902
 10
15.8999
 20
13.6737
 30
0.000000
  70
    32
  0
VERTEX
  8
0
  5
10903
 10
15.8716
 20
13.7103
 30
0.000000
  70
    32
  0
VERTEX
  8
0
  5
10904
 10
15.8433
 20
13.7470
 30
0.000000
  70
    32
  0
VERTEX
  8
0
  5
10905
 10
15.8152
 20
13.7838
 30
0.000000
  70
    32
  0
VERTEX
  8
0
  5
10906
 10
15.7871
 20
13.8207
 30
0.000000
  70
    32
  0
VERTEX
  8
0
  5
10907
 10
15.7591
 20
13.8576
 30
0.000000
  70
    32
  0
VERTEX
  8
0
  5
10908
 10
15.7311
 20
13.8945
 30
0.000000
  70
    32
  0
VERTEX
  8
0
  5
10909
 10
15.7033
 20
13.9316
 30
0.000000
  70
    32
  0
VERTEX
  8
0
  5
1090A
 10
15.6756
 20
13.9687
 30
0.000000
  70
    32
  0
VERTEX
  8
0
  5
1090B
 10
15.6479
 20
14.0058
 30
0.000000
  70
    32
  0
VERTEX
  8
0
  5
1090C
 10
15.6203
 20
14.0431
 30
0.000000
  70
    32
  0
VERTEX
  8
0
  5
1090D
 10
15.5928
 20
14.0803
 30
0.000000
  70
    32
  0
VERTEX
  8
0
  5
1090E
 10
15.5654
 20
14.1177
 30
0.000000
  70
    32
  0
VERTEX
  8
0
  5
1090F
 10
15.5380
 20
14.1551
 30
0.000000
  70
    32
  0
VERTEX
  8
0
  5
10910
 10
15.5108
 20
14.1926
 30
0.000000
  70
    32
  0
VERTEX
  8
0
  5
10911
 10
15.4836
 20
14.2301
 30
0.000000
  70
    32
  0
VERTEX
  8
0
  5
10912
 10
15.4565
 20
14.2677
 30
0.000000
  70
    32
  0
VERTEX
  8
0
  5
10913
 10
15.4295
 20
14.3053
 30
0.000000
  70
    32
  0
VERTEX
  8
0
  5
10914
 10
15.4026
 20
14.3430
 30
0.000000
  70
    32
  0
VERTEX
  8
0
  5
10915
 10
15.3758
 20
14.3808
 30
0.000000
  70
    32
  0
VERTEX
  8
0
  5
10916
 10
15.3490
 20
14.4186
 30
0.000000
  70
    32
  0
VERTEX
  8
0
  5
10917
 10
15.3224
 20
14.4565
 30
0.000000
  70
    32
  0
VERTEX
  8
0
  5
10918
 10
15.2958
 20
14.4945
 30
0.000000
  70
    32
  0
VERTEX
  8
0
  5
10919
 10
15.2693
 20
14.5325
 30
0.000000
  70
    32
  0
VERTEX
  8
0
  5
1091A
 10
15.2428
 20
14.5705
 30
0.000000
  70
    32
  0
VERTEX
  8
0
  5
1091B
 10
15.2165
 20
14.6086
 30
0.000000
  70
    32
  0
VERTEX
  8
0
  5
1091C
 10
15.1903
 20
14.6468
 30
0.000000
  70
    32
  0
VERTEX
  8
0
  5
1091D
 10
15.1641
 20
14.6851
 30
0.000000
  70
    32
  0
VERTEX
  8
0
  5
1091E
 10
15.1380
 20
14.7233
 30
0.000000
  70
    32
  0
VERTEX
  8
0
  5
1091F
 10
15.1120
 20
14.7617
 30
0.000000
  70
    32
  0
VERTEX
  8
0
  5
10920
 10
15.0861
 20
14.8001
 30
0.000000
  70
    32
  0
VERTEX
  8
0
  5
10921
 10
15.0603
 20
14.8386
 30
0.000000
  70
    32
  0
VERTEX
  8
0
  5
10922
 10
15.0345
 20
14.8771
 30
0.000000
  70
    32
  0
VERTEX
  8
0
  5
10923
 10
15.0089
 20
14.9157
 30
0.000000
  70
    32
  0
VERTEX
  8
0
  5
10924
 10
14.9833
 20
14.9543
 30
0.000000
  70
    32
  0
VERTEX
  8
0
  5
10925
 10
14.9578
 20
14.9930
 30
0.000000
  70
    32
  0
VERTEX
  8
0
  5
10926
 10
14.9324
 20
15.0317
 30
0.000000
  70
    32
  0
VERTEX
  8
0
  5
10927
 10
14.9070
 20
15.0705
 30
0.000000
  70
    32
  0
VERTEX
  8
0
  5
10928
 10
14.8818
 20
15.1093
 30
0.000000
  70
    32
  0
VERTEX
  8
0
  5
10929
 10
14.8566
 20
15.1482
 30
0.000000
  70
    32
  0
VERTEX
  8
0
  5
1092A
 10
14.8315
 20
15.1872
 30
0.000000
  70
    32
  0
VERTEX
  8
0
  5
1092B
 10
14.8065
 20
15.2262
 30
0.000000
  70
    32
  0
VERTEX
  8
0
  5
1092C
 10
14.7816
 20
15.2653
 30
0.000000
  70
    32
  0
VERTEX
  8
0
  5
1092D
 10
14.7568
 20
15.3044
 30
0.000000
  70
    32
  0
VERTEX
  8
0
  5
1092E
 10
14.7320
 20
15.3435
 30
0.000000
  70
    32
  0
VERTEX
  8
0
  5
1092F
 10
14.7074
 20
15.3828
 30
0.000000
  70
    32
  0
VERTEX
  8
0
  5
10930
 10
14.6828
 20
15.4220
 30
0.000000
  70
    32
  0
VERTEX
  8
0
  5
10931
 10
14.6583
 20
15.4613
 30
0.000000
  70
    32
  0
VERTEX
  8
0
  5
10932
 10
14.6339
 20
15.5007
 30
0.000000
  70
    32
  0
VERTEX
  8
0
  5
10933
 10
14.6096
 20
15.5401
 30
0.000000
  70
    32
  0
VERTEX
  8
0
  5
10934
 10
14.5853
 20
15.5796
 30
0.000000
  70
    32
  0
VERTEX
  8
0
  5
10935
 10
14.5612
 20
15.6191
 30
0.000000
  70
    32
  0
VERTEX
  8
0
  5
10936
 10
14.5371
 20
15.6587
 30
0.000000
  70
    32
  0
VERTEX
  8
0
  5
10937
 10
14.5131
 20
15.6984
 30
0.000000
  70
    32
  0
VERTEX
  8
0
  5
10938
 10
14.4892
 20
15.7380
 30
0.000000
  70
    32
  0
VERTEX
  8
0
  5
10939
 10
14.4654
 20
15.7778
 30
0.000000
  70
    32
  0
VERTEX
  8
0
  5
1093A
 10
14.4416
 20
15.8175
 30
0.000000
  70
    32
  0
VERTEX
  8
0
  5
1093B
 10
14.4180
 20
15.8574
 30
0.000000
  70
    32
  0
VERTEX
  8
0
  5
1093C
 10
14.3944
 20
15.8973
 30
0.000000
  70
    32
  0
VERTEX
  8
0
  5
1093D
 10
14.3709
 20
15.9372
 30
0.000000
  70
    32
  0
VERTEX
  8
0
  5
1093E
 10
14.3475
 20
15.9772
 30
0.000000
  70
    32
  0
VERTEX
  8
0
  5
1093F
 10
14.3242
 20
16.0172
 30
0.000000
  70
    32
  0
VERTEX
  8
0
  5
10940
 10
14.3009
 20
16.0573
 30
0.000000
  70
    32
  0
VERTEX
  8
0
  5
10941
 10
14.2778
 20
16.0974
 30
0.000000
  70
    32
  0
VERTEX
  8
0
  5
10942
 10
14.2547
 20
16.1376
 30
0.000000
  70
    32
  0
VERTEX
  8
0
  5
10943
 10
14.2317
 20
16.1778
 30
0.000000
  70
    32
  0
VERTEX
  8
0
  5
10944
 10
14.2088
 20
16.2181
 30
0.000000
  70
    32
  0
VERTEX
  8
0
  5
10945
 10
14.1860
 20
16.2584
 30
0.000000
  70
    32
  0
VERTEX
  8
0
  5
10946
 10
14.1632
 20
16.2987
 30
0.000000
  70
    32
  0
VERTEX
  8
0
  5
10947
 10
14.1406
 20
16.3391
 30
0.000000
  70
    32
  0
VERTEX
  8
0
  5
10948
 10
14.1180
 20
16.3796
 30
0.000000
  70
    32
  0
VERTEX
  8
0
  5
10949
 10
14.0955
 20
16.4201
 30
0.000000
  70
    32
  0
VERTEX
  8
0
  5
1094A
 10
14.0731
 20
16.4607
 30
0.000000
  70
    32
  0
VERTEX
  8
0
  5
1094B
 10
14.0508
 20
16.5013
 30
0.000000
  70
    32
  0
VERTEX
  8
0
  5
1094C
 10
14.0286
 20
16.5419
 30
0.000000
  70
    32
  0
VERTEX
  8
0
  5
1094D
 10
14.0065
 20
16.5826
 30
0.000000
  70
    32
  0
VERTEX
  8
0
  5
1094E
 10
13.9844
 20
16.6233
 30
0.000000
  70
    32
  0
VERTEX
  8
0
  5
1094F
 10
13.9624
 20
16.6641
 30
0.000000
  70
    32
  0
VERTEX
  8
0
  5
10950
 10
13.9405
 20
16.7050
 30
0.000000
  70
    32
  0
VERTEX
  8
0
  5
10951
 10
13.9187
 20
16.7458
 30
0.000000
  70
    32
  0
VERTEX
  8
0
  5
10952
 10
13.8970
 20
16.7868
 30
0.000000
  70
    32
  0
VERTEX
  8
0
  5
10953
 10
13.8753
 20
16.8277
 30
0.000000
  70
    32
  0
VERTEX
  8
0
  5
10954
 10
13.8538
 20
16.8687
 30
0.000000
  70
    32
  0
VERTEX
  8
0
  5
10955
 10
13.8323
 20
16.9098
 30
0.000000
  70
    32
  0
VERTEX
  8
0
  5
10956
 10
13.8109
 20
16.9509
 30
0.000000
  70
    32
  0
VERTEX
  8
0
  5
10957
 10
13.7896
 20
16.9920
 30
0.000000
  70
    32
  0
VERTEX
  8
0
  5
10958
 10
13.7684
 20
17.0332
 30
0.000000
  70
    32
  0
VERTEX
  8
0
  5
10959
 10
13.7473
 20
17.0744
 30
0.000000
  70
    32
  0
VERTEX
  8
0
  5
1095A
 10
13.7262
 20
17.1157
 30
0.000000
  70
    32
  0
VERTEX
  8
0
  5
1095B
 10
13.7053
 20
17.1570
 30
0.000000
  70
    32
  0
VERTEX
  8
0
  5
1095C
 10
13.6844
 20
17.1984
 30
0.000000
  70
    32
  0
VERTEX
  8
0
  5
1095D
 10
13.6636
 20
17.2398
 30
0.000000
  70
    32
  0
VERTEX
  8
0
  5
1095E
 10
13.6429
 20
17.2812
 30
0.000000
  70
    32
  0
VERTEX
  8
0
  5
1095F
 10
13.6222
 20
17.3227
 30
0.000000
  70
    32
  0
VERTEX
  8
0
  5
10960
 10
13.6017
 20
17.3643
 30
0.000000
  70
    32
  0
VERTEX
  8
0
  5
10961
 10
13.5812
 20
17.4058
 30
0.000000
  70
    32
  0
VERTEX
  8
0
  5
10962
 10
13.5609
 20
17.4474
 30
0.000000
  70
    32
  0
VERTEX
  8
0
  5
10963
 10
13.5406
 20
17.4891
 30
0.000000
  70
    32
  0
VERTEX
  8
0
  5
10964
 10
13.5204
 20
17.5308
 30
0.000000
  70
    32
  0
VERTEX
  8
0
  5
10965
 10
13.5003
 20
17.5725
 30
0.000000
  70
    32
  0
VERTEX
  8
0
  5
10966
 10
13.4802
 20
17.6143
 30
0.000000
  70
    32
  0
VERTEX
  8
0
  5
10967
 10
13.4603
 20
17.6561
 30
0.000000
  70
    32
  0
VERTEX
  8
0
  5
10968
 10
13.4404
 20
17.6980
 30
0.000000
  70
    32
  0
VERTEX
  8
0
  5
10969
 10
13.4207
 20
17.7399
 30
0.000000
  70
    32
  0
VERTEX
  8
0
  5
1096A
 10
13.4010
 20
17.7818
 30
0.000000
  70
    32
  0
VERTEX
  8
0
  5
1096B
 10
13.3814
 20
17.8238
 30
0.000000
  70
    32
  0
VERTEX
  8
0
  5
1096C
 10
13.3618
 20
17.8658
 30
0.000000
  70
    32
  0
VERTEX
  8
0
  5
1096D
 10
13.3424
 20
17.9079
 30
0.000000
  70
    32
  0
VERTEX
  8
0
  5
1096E
 10
13.3231
 20
17.9500
 30
0.000000
  70
    32
  0
VERTEX
  8
0
  5
1096F
 10
13.3038
 20
17.9921
 30
0.000000
  70
    32
  0
VERTEX
  8
0
  5
10970
 10
13.2846
 20
18.0343
 30
0.000000
  70
    32
  0
VERTEX
  8
0
  5
10971
 10
13.2655
 20
18.0765
 30
0.000000
  70
    32
  0
VERTEX
  8
0
  5
10972
 10
13.2465
 20
18.1188
 30
0.000000
  70
    32
  0
VERTEX
  8
0
  5
10973
 10
13.2276
 20
18.1611
 30
0.000000
  70
    32
  0
VERTEX
  8
0
  5
10974
 10
13.2087
 20
18.2034
 30
0.000000
  70
    32
  0
VERTEX
  8
0
  5
10975
 10
13.1900
 20
18.2458
 30
0.000000
  70
    32
  0
VERTEX
  8
0
  5
10976
 10
13.1713
 20
18.2882
 30
0.000000
  70
    32
  0
VERTEX
  8
0
  5
10977
 10
13.1528
 20
18.3306
 30
0.000000
  70
    32
  0
VERTEX
  8
0
  5
10978
 10
13.1343
 20
18.3731
 30
0.000000
  70
    32
  0
VERTEX
  8
0
  5
10979
 10
13.1159
 20
18.4156
 30
0.000000
  70
    32
  0
VERTEX
  8
0
  5
1097A
 10
13.0975
 20
18.4581
 30
0.000000
  70
    32
  0
VERTEX
  8
0
  5
1097B
 10
13.0793
 20
18.5007
 30
0.000000
  70
    32
  0
VERTEX
  8
0
  5
1097C
 10
13.0612
 20
18.5434
 30
0.000000
  70
    32
  0
VERTEX
  8
0
  5
1097D
 10
13.0431
 20
18.5860
 30
0.000000
  70
    32
  0
VERTEX
  8
0
  5
1097E
 10
13.0251
 20
18.6287
 30
0.000000
  70
    32
  0
VERTEX
  8
0
  5
1097F
 10
13.0072
 20
18.6714
 30
0.000000
  70
    32
  0
VERTEX
  8
0
  5
10980
 10
12.9894
 20
18.7142
 30
0.000000
  70
    32
  0
VERTEX
  8
0
  5
10981
 10
12.9717
 20
18.7570
 30
0.000000
  70
    32
  0
VERTEX
  8
0
  5
10982
 10
12.9541
 20
18.7998
 30
0.000000
  70
    32
  0
VERTEX
  8
0
  5
10983
 10
12.9365
 20
18.8427
 30
0.000000
  70
    32
  0
VERTEX
  8
0
  5
10984
 10
12.9191
 20
18.8856
 30
0.000000
  70
    32
  0
VERTEX
  8
0
  5
10985
 10
12.9017
 20
18.9285
 30
0.000000
  70
    32
  0
VERTEX
  8
0
  5
10986
 10
12.8844
 20
18.9715
 30
0.000000
  70
    32
  0
VERTEX
  8
0
  5
10987
 10
12.8672
 20
19.0145
 30
0.000000
  70
    32
  0
VERTEX
  8
0
  5
10988
 10
12.8501
 20
19.0575
 30
0.000000
  70
    32
  0
VERTEX
  8
0
  5
10989
 10
12.8331
 20
19.1006
 30
0.000000
  70
    32
  0
VERTEX
  8
0
  5
1098A
 10
12.8161
 20
19.1437
 30
0.000000
  70
    32
  0
VERTEX
  8
0
  5
1098B
 10
12.7993
 20
19.1868
 30
0.000000
  70
    32
  0
SEQEND
  8
0
  5
1098C
  0
ARC
  5
F820
  8
0
 10
-20.0
 20
0.0
 30
0.0
 40
5.5
 50
180.0
 51
0.0
  0
LINE
  5
F88D
  8
0
 10
13.3876580000001
 20
89.047771682316124
 30
0.0
 11
22.981285000000291
 21
89.047771682316124
 31
0.0
  0
LINE
  5
F88E
  8
0
 10
13.3876580000001
 20
84.547771682316124
 30
0.0
 11
22.981285000000291
 21
84.547771682316124
 31
0.0
  0
LINE
  5
F88F
  8
0
 10
33.018715000000149
 20
84.547771682316124
 30
0.0
 11
42.61234300000023
 21
84.547771682316124
 31
0.0
  0
LINE
  5
F890
  8
0
 10
33.018715000000149
 20
89.047771682316124
 30
0.0
 11
42.61234300000023
 21
89.047771682316124
 31
0.0
  0
ARC
  5
F891
  8
0
 10
28.0
 20
86.797771682316124
 30
0.0
 40
7.0000037999999991
 50
18.749331999995789
 51
161.25067000000399
  0
ARC
  5
F892
  8
0
 10
28.0
 20
86.797771682316124
 30
0.0
 40
7.0000037999999991
 50
198.74932999999589
 51
341.25067000000399
  0
POLYLINE
  5
F893
  8
0
 10
21.646107272318503
 20
84.365265282549316
 30
0.0
 66
     1
 70
     8
  0
VERTEX
  8
0
  5
1098D
 10
21.6461
 20
84.3653
 30
0.000000
  70
    32
  0
VERTEX
  8
0
  5
1098E
 10
21.6713
 20
84.3957
 30
0.000000
  70
    32
  0
VERTEX
  8
0
  5
1098F
 10
21.6962
 20
84.4264
 30
0.000000
  70
    32
  0
VERTEX
  8
0
  5
10990
 10
21.7207
 20
84.4575
 30
0.000000
  70
    32
  0
VERTEX
  8
0
  5
10991
 10
21.7450
 20
84.4889
 30
0.000000
  70
    32
  0
VERTEX
  8
0
  5
10992
 10
21.7689
 20
84.5206
 30
0.000000
  70
    32
  0
VERTEX
  8
0
  5
10993
 10
21.7925
 20
84.5527
 30
0.000000
  70
    32
  0
VERTEX
  8
0
  5
10994
 10
21.8157
 20
84.5851
 30
0.000000
  70
    32
  0
VERTEX
  8
0
  5
10995
 10
21.8386
 20
84.6178
 30
0.000000
  70
    32
  0
VERTEX
  8
0
  5
10996
 10
21.8611
 20
84.6509
 30
0.000000
  70
    32
  0
VERTEX
  8
0
  5
10997
 10
21.8833
 20
84.6842
 30
0.000000
  70
    32
  0
VERTEX
  8
0
  5
10998
 10
21.9052
 20
84.7178
 30
0.000000
  70
    32
  0
VERTEX
  8
0
  5
10999
 10
21.9267
 20
84.7518
 30
0.000000
  70
    32
  0
VERTEX
  8
0
  5
1099A
 10
21.9479
 20
84.7860
 30
0.000000
  70
    32
  0
VERTEX
  8
0
  5
1099B
 10
21.9687
 20
84.8206
 30
0.000000
  70
    32
  0
VERTEX
  8
0
  5
1099C
 10
21.9891
 20
84.8554
 30
0.000000
  70
    32
  0
VERTEX
  8
0
  5
1099D
 10
22.0092
 20
84.8905
 30
0.000000
  70
    32
  0
VERTEX
  8
0
  5
1099E
 10
22.0288
 20
84.9259
 30
0.000000
  70
    32
  0
VERTEX
  8
0
  5
1099F
 10
22.0482
 20
84.9615
 30
0.000000
  70
    32
  0
VERTEX
  8
0
  5
109A0
 10
22.0671
 20
84.9974
 30
0.000000
  70
    32
  0
VERTEX
  8
0
  5
109A1
 10
22.0857
 20
85.0336
 30
0.000000
  70
    32
  0
VERTEX
  8
0
  5
109A2
 10
22.1039
 20
85.0700
 30
0.000000
  70
    32
  0
VERTEX
  8
0
  5
109A3
 10
22.1217
 20
85.1067
 30
0.000000
  70
    32
  0
VERTEX
  8
0
  5
109A4
 10
22.1392
 20
85.1436
 30
0.000000
  70
    32
  0
VERTEX
  8
0
  5
109A5
 10
22.1562
 20
85.1807
 30
0.000000
  70
    32
  0
VERTEX
  8
0
  5
109A6
 10
22.1729
 20
85.2181
 30
0.000000
  70
    32
  0
VERTEX
  8
0
  5
109A7
 10
22.1892
 20
85.2557
 30
0.000000
  70
    32
  0
VERTEX
  8
0
  5
109A8
 10
22.2050
 20
85.2936
 30
0.000000
  70
    32
  0
VERTEX
  8
0
  5
109A9
 10
22.2205
 20
85.3316
 30
0.000000
  70
    32
  0
VERTEX
  8
0
  5
109AA
 10
22.2356
 20
85.3699
 30
0.000000
  70
    32
  0
VERTEX
  8
0
  5
109AB
 10
22.2503
 20
85.4083
 30
0.000000
  70
    32
  0
VERTEX
  8
0
  5
109AC
 10
22.2646
 20
85.4470
 30
0.000000
  70
    32
  0
VERTEX
  8
0
  5
109AD
 10
22.2785
 20
85.4859
 30
0.000000
  70
    32
  0
VERTEX
  8
0
  5
109AE
 10
22.2919
 20
85.5249
 30
0.000000
  70
    32
  0
VERTEX
  8
0
  5
109AF
 10
22.3050
 20
85.5642
 30
0.000000
  70
    32
  0
VERTEX
  8
0
  5
109B0
 10
22.3176
 20
85.6036
 30
0.000000
  70
    32
  0
VERTEX
  8
0
  5
109B1
 10
22.3299
 20
85.6432
 30
0.000000
  70
    32
  0
VERTEX
  8
0
  5
109B2
 10
22.3417
 20
85.6829
 30
0.000000
  70
    32
  0
VERTEX
  8
0
  5
109B3
 10
22.3531
 20
85.7228
 30
0.000000
  70
    32
  0
VERTEX
  8
0
  5
109B4
 10
22.3641
 20
85.7629
 30
0.000000
  70
    32
  0
VERTEX
  8
0
  5
109B5
 10
22.3747
 20
85.8031
 30
0.000000
  70
    32
  0
VERTEX
  8
0
  5
109B6
 10
22.3849
 20
85.8435
 30
0.000000
  70
    32
  0
VERTEX
  8
0
  5
109B7
 10
22.3946
 20
85.8840
 30
0.000000
  70
    32
  0
VERTEX
  8
0
  5
109B8
 10
22.4039
 20
85.9246
 30
0.000000
  70
    32
  0
VERTEX
  8
0
  5
109B9
 10
22.4128
 20
85.9654
 30
0.000000
  70
    32
  0
VERTEX
  8
0
  5
109BA
 10
22.4213
 20
86.0062
 30
0.000000
  70
    32
  0
VERTEX
  8
0
  5
109BB
 10
22.4293
 20
86.0472
 30
0.000000
  70
    32
  0
VERTEX
  8
0
  5
109BC
 10
22.4369
 20
86.0883
 30
0.000000
  70
    32
  0
VERTEX
  8
0
  5
109BD
 10
22.4441
 20
86.1295
 30
0.000000
  70
    32
  0
VERTEX
  8
0
  5
109BE
 10
22.4508
 20
86.1708
 30
0.000000
  70
    32
  0
VERTEX
  8
0
  5
109BF
 10
22.4572
 20
86.2122
 30
0.000000
  70
    32
  0
VERTEX
  8
0
  5
109C0
 10
22.4631
 20
86.2537
 30
0.000000
  70
    32
  0
VERTEX
  8
0
  5
109C1
 10
22.4685
 20
86.2952
 30
0.000000
  70
    32
  0
VERTEX
  8
0
  5
109C2
 10
22.4735
 20
86.3369
 30
0.000000
  70
    32
  0
VERTEX
  8
0
  5
109C3
 10
22.4781
 20
86.3785
 30
0.000000
  70
    32
  0
VERTEX
  8
0
  5
109C4
 10
22.4823
 20
86.4203
 30
0.000000
  70
    32
  0
VERTEX
  8
0
  5
109C5
 10
22.4860
 20
86.4621
 30
0.000000
  70
    32
  0
VERTEX
  8
0
  5
109C6
 10
22.4893
 20
86.5040
 30
0.000000
  70
    32
  0
VERTEX
  8
0
  5
109C7
 10
22.4921
 20
86.5459
 30
0.000000
  70
    32
  0
VERTEX
  8
0
  5
109C8
 10
22.4945
 20
86.5878
 30
0.000000
  70
    32
  0
VERTEX
  8
0
  5
109C9
 10
22.4965
 20
86.6297
 30
0.000000
  70
    32
  0
VERTEX
  8
0
  5
109CA
 10
22.4980
 20
86.6717
 30
0.000000
  70
    32
  0
VERTEX
  8
0
  5
109CB
 10
22.4991
 20
86.7137
 30
0.000000
  70
    32
  0
VERTEX
  8
0
  5
109CC
 10
22.4998
 20
86.7557
 30
0.000000
  70
    32
  0
VERTEX
  8
0
  5
109CD
 10
22.5000
 20
86.7978
 30
0.000000
  70
    32
  0
VERTEX
  8
0
  5
109CE
 10
22.4998
 20
86.8398
 30
0.000000
  70
    32
  0
VERTEX
  8
0
  5
109CF
 10
22.4991
 20
86.8818
 30
0.000000
  70
    32
  0
VERTEX
  8
0
  5
109D0
 10
22.4980
 20
86.9238
 30
0.000000
  70
    32
  0
VERTEX
  8
0
  5
109D1
 10
22.4965
 20
86.9658
 30
0.000000
  70
    32
  0
VERTEX
  8
0
  5
109D2
 10
22.4945
 20
87.0078
 30
0.000000
  70
    32
  0
VERTEX
  8
0
  5
109D3
 10
22.4921
 20
87.0497
 30
0.000000
  70
    32
  0
VERTEX
  8
0
  5
109D4
 10
22.4893
 20
87.0916
 30
0.000000
  70
    32
  0
VERTEX
  8
0
  5
109D5
 10
22.4860
 20
87.1334
 30
0.000000
  70
    32
  0
VERTEX
  8
0
  5
109D6
 10
22.4823
 20
87.1752
 30
0.000000
  70
    32
  0
VERTEX
  8
0
  5
109D7
 10
22.4781
 20
87.2170
 30
0.000000
  70
    32
  0
VERTEX
  8
0
  5
109D8
 10
22.4735
 20
87.2587
 30
0.000000
  70
    32
  0
VERTEX
  8
0
  5
109D9
 10
22.4685
 20
87.3003
 30
0.000000
  70
    32
  0
VERTEX
  8
0
  5
109DA
 10
22.4631
 20
87.3419
 30
0.000000
  70
    32
  0
VERTEX
  8
0
  5
109DB
 10
22.4572
 20
87.3833
 30
0.000000
  70
    32
  0
VERTEX
  8
0
  5
109DC
 10
22.4508
 20
87.4247
 30
0.000000
  70
    32
  0
VERTEX
  8
0
  5
109DD
 10
22.4441
 20
87.4660
 30
0.000000
  70
    32
  0
VERTEX
  8
0
  5
109DE
 10
22.4369
 20
87.5072
 30
0.000000
  70
    32
  0
VERTEX
  8
0
  5
109DF
 10
22.4293
 20
87.5483
 30
0.000000
  70
    32
  0
VERTEX
  8
0
  5
109E0
 10
22.4213
 20
87.5893
 30
0.000000
  70
    32
  0
VERTEX
  8
0
  5
109E1
 10
22.4128
 20
87.6302
 30
0.000000
  70
    32
  0
VERTEX
  8
0
  5
109E2
 10
22.4039
 20
87.6709
 30
0.000000
  70
    32
  0
VERTEX
  8
0
  5
109E3
 10
22.3946
 20
87.7116
 30
0.000000
  70
    32
  0
VERTEX
  8
0
  5
109E4
 10
22.3849
 20
87.7521
 30
0.000000
  70
    32
  0
VERTEX
  8
0
  5
109E5
 10
22.3747
 20
87.7924
 30
0.000000
  70
    32
  0
VERTEX
  8
0
  5
109E6
 10
22.3641
 20
87.8326
 30
0.000000
  70
    32
  0
VERTEX
  8
0
  5
109E7
 10
22.3531
 20
87.8727
 30
0.000000
  70
    32
  0
VERTEX
  8
0
  5
109E8
 10
22.3417
 20
87.9126
 30
0.000000
  70
    32
  0
VERTEX
  8
0
  5
109E9
 10
22.3299
 20
87.9524
 30
0.000000
  70
    32
  0
VERTEX
  8
0
  5
109EA
 10
22.3176
 20
87.9920
 30
0.000000
  70
    32
  0
VERTEX
  8
0
  5
109EB
 10
22.3050
 20
88.0314
 30
0.000000
  70
    32
  0
VERTEX
  8
0
  5
109EC
 10
22.2919
 20
88.0706
 30
0.000000
  70
    32
  0
VERTEX
  8
0
  5
109ED
 10
22.2785
 20
88.1097
 30
0.000000
  70
    32
  0
VERTEX
  8
0
  5
109EE
 10
22.2646
 20
88.1485
 30
0.000000
  70
    32
  0
VERTEX
  8
0
  5
109EF
 10
22.2503
 20
88.1872
 30
0.000000
  70
    32
  0
VERTEX
  8
0
  5
109F0
 10
22.2356
 20
88.2257
 30
0.000000
  70
    32
  0
VERTEX
  8
0
  5
109F1
 10
22.2205
 20
88.2639
 30
0.000000
  70
    32
  0
VERTEX
  8
0
  5
109F2
 10
22.2050
 20
88.3020
 30
0.000000
  70
    32
  0
VERTEX
  8
0
  5
109F3
 10
22.1892
 20
88.3398
 30
0.000000
  70
    32
  0
VERTEX
  8
0
  5
109F4
 10
22.1729
 20
88.3774
 30
0.000000
  70
    32
  0
VERTEX
  8
0
  5
109F5
 10
22.1562
 20
88.4148
 30
0.000000
  70
    32
  0
VERTEX
  8
0
  5
109F6
 10
22.1392
 20
88.4520
 30
0.000000
  70
    32
  0
VERTEX
  8
0
  5
109F7
 10
22.1217
 20
88.4889
 30
0.000000
  70
    32
  0
VERTEX
  8
0
  5
109F8
 10
22.1039
 20
88.5256
 30
0.000000
  70
    32
  0
VERTEX
  8
0
  5
109F9
 10
22.0857
 20
88.5620
 30
0.000000
  70
    32
  0
VERTEX
  8
0
  5
109FA
 10
22.0671
 20
88.5981
 30
0.000000
  70
    32
  0
VERTEX
  8
0
  5
109FB
 10
22.0482
 20
88.6340
 30
0.000000
  70
    32
  0
VERTEX
  8
0
  5
109FC
 10
22.0288
 20
88.6697
 30
0.000000
  70
    32
  0
VERTEX
  8
0
  5
109FD
 10
22.0092
 20
88.7051
 30
0.000000
  70
    32
  0
VERTEX
  8
0
  5
109FE
 10
21.9891
 20
88.7402
 30
0.000000
  70
    32
  0
VERTEX
  8
0
  5
109FF
 10
21.9687
 20
88.7750
 30
0.000000
  70
    32
  0
VERTEX
  8
0
  5
10A00
 10
21.9479
 20
88.8095
 30
0.000000
  70
    32
  0
VERTEX
  8
0
  5
10A01
 10
21.9267
 20
88.8437
 30
0.000000
  70
    32
  0
VERTEX
  8
0
  5
10A02
 10
21.9052
 20
88.8777
 30
0.000000
  70
    32
  0
VERTEX
  8
0
  5
10A03
 10
21.8833
 20
88.9113
 30
0.000000
  70
    32
  0
VERTEX
  8
0
  5
10A04
 10
21.8611
 20
88.9447
 30
0.000000
  70
    32
  0
VERTEX
  8
0
  5
10A05
 10
21.8386
 20
88.9777
 30
0.000000
  70
    32
  0
VERTEX
  8
0
  5
10A06
 10
21.8157
 20
89.0104
 30
0.000000
  70
    32
  0
VERTEX
  8
0
  5
10A07
 10
21.7925
 20
89.0428
 30
0.000000
  70
    32
  0
VERTEX
  8
0
  5
10A08
 10
21.7689
 20
89.0749
 30
0.000000
  70
    32
  0
VERTEX
  8
0
  5
10A09
 10
21.7450
 20
89.1067
 30
0.000000
  70
    32
  0
VERTEX
  8
0
  5
10A0A
 10
21.7207
 20
89.1381
 30
0.000000
  70
    32
  0
VERTEX
  8
0
  5
10A0B
 10
21.6962
 20
89.1692
 30
0.000000
  70
    32
  0
VERTEX
  8
0
  5
10A0C
 10
21.6713
 20
89.1999
 30
0.000000
  70
    32
  0
VERTEX
  8
0
  5
10A0D
 10
21.6461
 20
89.2303
 30
0.000000
  70
    32
  0
SEQEND
  8
0
  5
10A0E
  0
POLYLINE
  5
F894
  8
0
 10
42.401915269674582
 20
84.26797620054603
 30
0.0
 66
     1
 70
     8
  0
VERTEX
  8
0
  5
10A0F
 10
42.4019
 20
84.2680
 30
0.000000
  70
    32
  0
VERTEX
  8
0
  5
10A10
 10
42.4274
 20
84.2987
 30
0.000000
  70
    32
  0
VERTEX
  8
0
  5
10A11
 10
42.4525
 20
84.3298
 30
0.000000
  70
    32
  0
VERTEX
  8
0
  5
10A12
 10
42.4774
 20
84.3614
 30
0.000000
  70
    32
  0
VERTEX
  8
0
  5
10A13
 10
42.5019
 20
84.3933
 30
0.000000
  70
    32
  0
VERTEX
  8
0
  5
10A14
 10
42.5261
 20
84.4256
 30
0.000000
  70
    32
  0
VERTEX
  8
0
  5
10A15
 10
42.5499
 20
84.4582
 30
0.000000
  70
    32
  0
VERTEX
  8
0
  5
10A16
 10
42.5735
 20
84.4913
 30
0.000000
  70
    32
  0
VERTEX
  8
0
  5
10A17
 10
42.5967
 20
84.5247
 30
0.000000
  70
    32
  0
VERTEX
  8
0
  5
10A18
 10
42.6195
 20
84.5585
 30
0.000000
  70
    32
  0
VERTEX
  8
0
  5
10A19
 10
42.6420
 20
84.5926
 30
0.000000
  70
    32
  0
VERTEX
  8
0
  5
10A1A
 10
42.6642
 20
84.6271
 30
0.000000
  70
    32
  0
VERTEX
  8
0
  5
10A1B
 10
42.6860
 20
84.6619
 30
0.000000
  70
    32
  0
VERTEX
  8
0
  5
10A1C
 10
42.7074
 20
84.6971
 30
0.000000
  70
    32
  0
VERTEX
  8
0
  5
10A1D
 10
42.7285
 20
84.7326
 30
0.000000
  70
    32
  0
VERTEX
  8
0
  5
10A1E
 10
42.7493
 20
84.7684
 30
0.000000
  70
    32
  0
VERTEX
  8
0
  5
10A1F
 10
42.7697
 20
84.8046
 30
0.000000
  70
    32
  0
VERTEX
  8
0
  5
10A20
 10
42.7897
 20
84.8410
 30
0.000000
  70
    32
  0
VERTEX
  8
0
  5
10A21
 10
42.8093
 20
84.8778
 30
0.000000
  70
    32
  0
VERTEX
  8
0
  5
10A22
 10
42.8285
 20
84.9149
 30
0.000000
  70
    32
  0
VERTEX
  8
0
  5
10A23
 10
42.8474
 20
84.9523
 30
0.000000
  70
    32
  0
VERTEX
  8
0
  5
10A24
 10
42.8659
 20
84.9900
 30
0.000000
  70
    32
  0
VERTEX
  8
0
  5
10A25
 10
42.8840
 20
85.0280
 30
0.000000
  70
    32
  0
VERTEX
  8
0
  5
10A26
 10
42.9018
 20
85.0662
 30
0.000000
  70
    32
  0
VERTEX
  8
0
  5
10A27
 10
42.9191
 20
85.1047
 30
0.000000
  70
    32
  0
VERTEX
  8
0
  5
10A28
 10
42.9361
 20
85.1435
 30
0.000000
  70
    32
  0
VERTEX
  8
0
  5
10A29
 10
42.9526
 20
85.1826
 30
0.000000
  70
    32
  0
VERTEX
  8
0
  5
10A2A
 10
42.9688
 20
85.2219
 30
0.000000
  70
    32
  0
VERTEX
  8
0
  5
10A2B
 10
42.9845
 20
85.2615
 30
0.000000
  70
    32
  0
VERTEX
  8
0
  5
10A2C
 10
42.9999
 20
85.3013
 30
0.000000
  70
    32
  0
VERTEX
  8
0
  5
10A2D
 10
43.0149
 20
85.3414
 30
0.000000
  70
    32
  0
VERTEX
  8
0
  5
10A2E
 10
43.0294
 20
85.3817
 30
0.000000
  70
    32
  0
VERTEX
  8
0
  5
10A2F
 10
43.0435
 20
85.4222
 30
0.000000
  70
    32
  0
VERTEX
  8
0
  5
10A30
 10
43.0573
 20
85.4629
 30
0.000000
  70
    32
  0
VERTEX
  8
0
  5
10A31
 10
43.0706
 20
85.5039
 30
0.000000
  70
    32
  0
VERTEX
  8
0
  5
10A32
 10
43.0835
 20
85.5450
 30
0.000000
  70
    32
  0
VERTEX
  8
0
  5
10A33
 10
43.0960
 20
85.5864
 30
0.000000
  70
    32
  0
VERTEX
  8
0
  5
10A34
 10
43.1080
 20
85.6279
 30
0.000000
  70
    32
  0
VERTEX
  8
0
  5
10A35
 10
43.1197
 20
85.6696
 30
0.000000
  70
    32
  0
VERTEX
  8
0
  5
10A36
 10
43.1309
 20
85.7115
 30
0.000000
  70
    32
  0
VERTEX
  8
0
  5
10A37
 10
43.1417
 20
85.7536
 30
0.000000
  70
    32
  0
VERTEX
  8
0
  5
10A38
 10
43.1520
 20
85.7959
 30
0.000000
  70
    32
  0
VERTEX
  8
0
  5
10A39
 10
43.1620
 20
85.8383
 30
0.000000
  70
    32
  0
VERTEX
  8
0
  5
10A3A
 10
43.1715
 20
85.8808
 30
0.000000
  70
    32
  0
VERTEX
  8
0
  5
10A3B
 10
43.1805
 20
85.9235
 30
0.000000
  70
    32
  0
VERTEX
  8
0
  5
10A3C
 10
43.1892
 20
85.9664
 30
0.000000
  70
    32
  0
VERTEX
  8
0
  5
10A3D
 10
43.1974
 20
86.0094
 30
0.000000
  70
    32
  0
VERTEX
  8
0
  5
10A3E
 10
43.2051
 20
86.0525
 30
0.000000
  70
    32
  0
VERTEX
  8
0
  5
10A3F
 10
43.2125
 20
86.0957
 30
0.000000
  70
    32
  0
VERTEX
  8
0
  5
10A40
 10
43.2194
 20
86.1390
 30
0.000000
  70
    32
  0
VERTEX
  8
0
  5
10A41
 10
43.2258
 20
86.1825
 30
0.000000
  70
    32
  0
VERTEX
  8
0
  5
10A42
 10
43.2318
 20
86.2260
 30
0.000000
  70
    32
  0
VERTEX
  8
0
  5
10A43
 10
43.2374
 20
86.2697
 30
0.000000
  70
    32
  0
VERTEX
  8
0
  5
10A44
 10
43.2425
 20
86.3134
 30
0.000000
  70
    32
  0
VERTEX
  8
0
  5
10A45
 10
43.2472
 20
86.3572
 30
0.000000
  70
    32
  0
VERTEX
  8
0
  5
10A46
 10
43.2514
 20
86.4010
 30
0.000000
  70
    32
  0
VERTEX
  8
0
  5
10A47
 10
43.2552
 20
86.4449
 30
0.000000
  70
    32
  0
VERTEX
  8
0
  5
10A48
 10
43.2586
 20
86.4889
 30
0.000000
  70
    32
  0
VERTEX
  8
0
  5
10A49
 10
43.2615
 20
86.5330
 30
0.000000
  70
    32
  0
VERTEX
  8
0
  5
10A4A
 10
43.2640
 20
86.5770
 30
0.000000
  70
    32
  0
VERTEX
  8
0
  5
10A4B
 10
43.2660
 20
86.6211
 30
0.000000
  70
    32
  0
VERTEX
  8
0
  5
10A4C
 10
43.2675
 20
86.6653
 30
0.000000
  70
    32
  0
VERTEX
  8
0
  5
10A4D
 10
43.2687
 20
86.7094
 30
0.000000
  70
    32
  0
VERTEX
  8
0
  5
10A4E
 10
43.2693
 20
86.7536
 30
0.000000
  70
    32
  0
VERTEX
  8
0
  5
10A4F
 10
43.2695
 20
86.7978
 30
0.000000
  70
    32
  0
VERTEX
  8
0
  5
10A50
 10
43.2693
 20
86.8420
 30
0.000000
  70
    32
  0
VERTEX
  8
0
  5
10A51
 10
43.2687
 20
86.8861
 30
0.000000
  70
    32
  0
VERTEX
  8
0
  5
10A52
 10
43.2675
 20
86.9303
 30
0.000000
  70
    32
  0
VERTEX
  8
0
  5
10A53
 10
43.2660
 20
86.9744
 30
0.000000
  70
    32
  0
VERTEX
  8
0
  5
10A54
 10
43.2640
 20
87.0185
 30
0.000000
  70
    32
  0
VERTEX
  8
0
  5
10A55
 10
43.2615
 20
87.0626
 30
0.000000
  70
    32
  0
VERTEX
  8
0
  5
10A56
 10
43.2586
 20
87.1066
 30
0.000000
  70
    32
  0
VERTEX
  8
0
  5
10A57
 10
43.2552
 20
87.1506
 30
0.000000
  70
    32
  0
VERTEX
  8
0
  5
10A58
 10
43.2514
 20
87.1945
 30
0.000000
  70
    32
  0
VERTEX
  8
0
  5
10A59
 10
43.2472
 20
87.2384
 30
0.000000
  70
    32
  0
VERTEX
  8
0
  5
10A5A
 10
43.2425
 20
87.2822
 30
0.000000
  70
    32
  0
VERTEX
  8
0
  5
10A5B
 10
43.2374
 20
87.3259
 30
0.000000
  70
    32
  0
VERTEX
  8
0
  5
10A5C
 10
43.2318
 20
87.3695
 30
0.000000
  70
    32
  0
VERTEX
  8
0
  5
10A5D
 10
43.2258
 20
87.4131
 30
0.000000
  70
    32
  0
VERTEX
  8
0
  5
10A5E
 10
43.2194
 20
87.4565
 30
0.000000
  70
    32
  0
VERTEX
  8
0
  5
10A5F
 10
43.2125
 20
87.4998
 30
0.000000
  70
    32
  0
VERTEX
  8
0
  5
10A60
 10
43.2051
 20
87.5431
 30
0.000000
  70
    32
  0
VERTEX
  8
0
  5
10A61
 10
43.1974
 20
87.5862
 30
0.000000
  70
    32
  0
VERTEX
  8
0
  5
10A62
 10
43.1892
 20
87.6292
 30
0.000000
  70
    32
  0
VERTEX
  8
0
  5
10A63
 10
43.1805
 20
87.6720
 30
0.000000
  70
    32
  0
VERTEX
  8
0
  5
10A64
 10
43.1715
 20
87.7147
 30
0.000000
  70
    32
  0
VERTEX
  8
0
  5
10A65
 10
43.1620
 20
87.7573
 30
0.000000
  70
    32
  0
VERTEX
  8
0
  5
10A66
 10
43.1520
 20
87.7997
 30
0.000000
  70
    32
  0
VERTEX
  8
0
  5
10A67
 10
43.1417
 20
87.8419
 30
0.000000
  70
    32
  0
VERTEX
  8
0
  5
10A68
 10
43.1309
 20
87.8840
 30
0.000000
  70
    32
  0
VERTEX
  8
0
  5
10A69
 10
43.1197
 20
87.9259
 30
0.000000
  70
    32
  0
VERTEX
  8
0
  5
10A6A
 10
43.1080
 20
87.9676
 30
0.000000
  70
    32
  0
VERTEX
  8
0
  5
10A6B
 10
43.0960
 20
88.0092
 30
0.000000
  70
    32
  0
VERTEX
  8
0
  5
10A6C
 10
43.0835
 20
88.0505
 30
0.000000
  70
    32
  0
VERTEX
  8
0
  5
10A6D
 10
43.0706
 20
88.0917
 30
0.000000
  70
    32
  0
VERTEX
  8
0
  5
10A6E
 10
43.0573
 20
88.1326
 30
0.000000
  70
    32
  0
VERTEX
  8
0
  5
10A6F
 10
43.0435
 20
88.1734
 30
0.000000
  70
    32
  0
VERTEX
  8
0
  5
10A70
 10
43.0294
 20
88.2139
 30
0.000000
  70
    32
  0
VERTEX
  8
0
  5
10A71
 10
43.0149
 20
88.2542
 30
0.000000
  70
    32
  0
VERTEX
  8
0
  5
10A72
 10
42.9999
 20
88.2942
 30
0.000000
  70
    32
  0
VERTEX
  8
0
  5
10A73
 10
42.9845
 20
88.3340
 30
0.000000
  70
    32
  0
VERTEX
  8
0
  5
10A74
 10
42.9688
 20
88.3736
 30
0.000000
  70
    32
  0
VERTEX
  8
0
  5
10A75
 10
42.9526
 20
88.4129
 30
0.000000
  70
    32
  0
VERTEX
  8
0
  5
10A76
 10
42.9361
 20
88.4520
 30
0.000000
  70
    32
  0
VERTEX
  8
0
  5
10A77
 10
42.9191
 20
88.4908
 30
0.000000
  70
    32
  0
VERTEX
  8
0
  5
10A78
 10
42.9018
 20
88.5293
 30
0.000000
  70
    32
  0
VERTEX
  8
0
  5
10A79
 10
42.8840
 20
88.5676
 30
0.000000
  70
    32
  0
VERTEX
  8
0
  5
10A7A
 10
42.8659
 20
88.6056
 30
0.000000
  70
    32
  0
VERTEX
  8
0
  5
10A7B
 10
42.8474
 20
88.6432
 30
0.000000
  70
    32
  0
VERTEX
  8
0
  5
10A7C
 10
42.8285
 20
88.6806
 30
0.000000
  70
    32
  0
VERTEX
  8
0
  5
10A7D
 10
42.8093
 20
88.7177
 30
0.000000
  70
    32
  0
VERTEX
  8
0
  5
10A7E
 10
42.7897
 20
88.7545
 30
0.000000
  70
    32
  0
VERTEX
  8
0
  5
10A7F
 10
42.7696
 20
88.7910
 30
0.000000
  70
    32
  0
VERTEX
  8
0
  5
10A80
 10
42.7493
 20
88.8271
 30
0.000000
  70
    32
  0
VERTEX
  8
0
  5
10A81
 10
42.7285
 20
88.8630
 30
0.000000
  70
    32
  0
VERTEX
  8
0
  5
10A82
 10
42.7074
 20
88.8985
 30
0.000000
  70
    32
  0
VERTEX
  8
0
  5
10A83
 10
42.6860
 20
88.9336
 30
0.000000
  70
    32
  0
VERTEX
  8
0
  5
10A84
 10
42.6642
 20
88.9685
 30
0.000000
  70
    32
  0
VERTEX
  8
0
  5
10A85
 10
42.6420
 20
89.0030
 30
0.000000
  70
    32
  0
VERTEX
  8
0
  5
10A86
 10
42.6195
 20
89.0371
 30
0.000000
  70
    32
  0
VERTEX
  8
0
  5
10A87
 10
42.5967
 20
89.0709
 30
0.000000
  70
    32
  0
VERTEX
  8
0
  5
10A88
 10
42.5735
 20
89.1043
 30
0.000000
  70
    32
  0
VERTEX
  8
0
  5
10A89
 10
42.5499
 20
89.1373
 30
0.000000
  70
    32
  0
VERTEX
  8
0
  5
10A8A
 10
42.5261
 20
89.1700
 30
0.000000
  70
    32
  0
VERTEX
  8
0
  5
10A8B
 10
42.5019
 20
89.2023
 30
0.000000
  70
    32
  0
VERTEX
  8
0
  5
10A8C
 10
42.4774
 20
89.2342
 30
0.000000
  70
    32
  0
VERTEX
  8
0
  5
10A8D
 10
42.4525
 20
89.2657
 30
0.000000
  70
    32
  0
VERTEX
  8
0
  5
10A8E
 10
42.4274
 20
89.2968
 30
0.000000
  70
    32
  0
VERTEX
  8
0
  5
10A8F
 10
42.4019
 20
89.3276
 30
0.000000
  70
    32
  0
SEQEND
  8
0
  5
10A90
  0
POLYLINE
  5
F895
  8
0
 10
34.353891105778892
 20
89.230278532598433
 30
0.0
 66
     1
 70
     8
  0
VERTEX
  8
0
  5
10A91
 10
34.3539
 20
89.2303
 30
0.000000
  70
    32
  0
VERTEX
  8
0
  5
10A92
 10
34.3287
 20
89.1999
 30
0.000000
  70
    32
  0
VERTEX
  8
0
  5
10A93
 10
34.3038
 20
89.1692
 30
0.000000
  70
    32
  0
VERTEX
  8
0
  5
10A94
 10
34.2793
 20
89.1381
 30
0.000000
  70
    32
  0
VERTEX
  8
0
  5
10A95
 10
34.2550
 20
89.1067
 30
0.000000
  70
    32
  0
VERTEX
  8
0
  5
10A96
 10
34.2311
 20
89.0749
 30
0.000000
  70
    32
  0
VERTEX
  8
0
  5
10A97
 10
34.2075
 20
89.0428
 30
0.000000
  70
    32
  0
VERTEX
  8
0
  5
10A98
 10
34.1843
 20
89.0104
 30
0.000000
  70
    32
  0
VERTEX
  8
0
  5
10A99
 10
34.1614
 20
88.9777
 30
0.000000
  70
    32
  0
VERTEX
  8
0
  5
10A9A
 10
34.1389
 20
88.9447
 30
0.000000
  70
    32
  0
VERTEX
  8
0
  5
10A9B
 10
34.1166
 20
88.9113
 30
0.000000
  70
    32
  0
VERTEX
  8
0
  5
10A9C
 10
34.0948
 20
88.8777
 30
0.000000
  70
    32
  0
VERTEX
  8
0
  5
10A9D
 10
34.0733
 20
88.8437
 30
0.000000
  70
    32
  0
VERTEX
  8
0
  5
10A9E
 10
34.0521
 20
88.8095
 30
0.000000
  70
    32
  0
VERTEX
  8
0
  5
10A9F
 10
34.0313
 20
88.7750
 30
0.000000
  70
    32
  0
VERTEX
  8
0
  5
10AA0
 10
34.0109
 20
88.7402
 30
0.000000
  70
    32
  0
VERTEX
  8
0
  5
10AA1
 10
33.9908
 20
88.7051
 30
0.000000
  70
    32
  0
VERTEX
  8
0
  5
10AA2
 10
33.9711
 20
88.6697
 30
0.000000
  70
    32
  0
VERTEX
  8
0
  5
10AA3
 10
33.9518
 20
88.6340
 30
0.000000
  70
    32
  0
VERTEX
  8
0
  5
10AA4
 10
33.9329
 20
88.5981
 30
0.000000
  70
    32
  0
VERTEX
  8
0
  5
10AA5
 10
33.9143
 20
88.5620
 30
0.000000
  70
    32
  0
VERTEX
  8
0
  5
10AA6
 10
33.8961
 20
88.5256
 30
0.000000
  70
    32
  0
VERTEX
  8
0
  5
10AA7
 10
33.8783
 20
88.4889
 30
0.000000
  70
    32
  0
VERTEX
  8
0
  5
10AA8
 10
33.8608
 20
88.4520
 30
0.000000
  70
    32
  0
VERTEX
  8
0
  5
10AA9
 10
33.8438
 20
88.4148
 30
0.000000
  70
    32
  0
VERTEX
  8
0
  5
10AAA
 10
33.8271
 20
88.3774
 30
0.000000
  70
    32
  0
VERTEX
  8
0
  5
10AAB
 10
33.8108
 20
88.3398
 30
0.000000
  70
    32
  0
VERTEX
  8
0
  5
10AAC
 10
33.7950
 20
88.3020
 30
0.000000
  70
    32
  0
VERTEX
  8
0
  5
10AAD
 10
33.7795
 20
88.2639
 30
0.000000
  70
    32
  0
VERTEX
  8
0
  5
10AAE
 10
33.7644
 20
88.2257
 30
0.000000
  70
    32
  0
VERTEX
  8
0
  5
10AAF
 10
33.7497
 20
88.1872
 30
0.000000
  70
    32
  0
VERTEX
  8
0
  5
10AB0
 10
33.7354
 20
88.1485
 30
0.000000
  70
    32
  0
VERTEX
  8
0
  5
10AB1
 10
33.7215
 20
88.1097
 30
0.000000
  70
    32
  0
VERTEX
  8
0
  5
10AB2
 10
33.7081
 20
88.0706
 30
0.000000
  70
    32
  0
VERTEX
  8
0
  5
10AB3
 10
33.6950
 20
88.0314
 30
0.000000
  70
    32
  0
VERTEX
  8
0
  5
10AB4
 10
33.6824
 20
87.9920
 30
0.000000
  70
    32
  0
VERTEX
  8
0
  5
10AB5
 10
33.6701
 20
87.9524
 30
0.000000
  70
    32
  0
VERTEX
  8
0
  5
10AB6
 10
33.6583
 20
87.9126
 30
0.000000
  70
    32
  0
VERTEX
  8
0
  5
10AB7
 10
33.6469
 20
87.8727
 30
0.000000
  70
    32
  0
VERTEX
  8
0
  5
10AB8
 10
33.6359
 20
87.8326
 30
0.000000
  70
    32
  0
VERTEX
  8
0
  5
10AB9
 10
33.6253
 20
87.7924
 30
0.000000
  70
    32
  0
VERTEX
  8
0
  5
10ABA
 10
33.6151
 20
87.7521
 30
0.000000
  70
    32
  0
VERTEX
  8
0
  5
10ABB
 10
33.6054
 20
87.7116
 30
0.000000
  70
    32
  0
VERTEX
  8
0
  5
10ABC
 10
33.5961
 20
87.6709
 30
0.000000
  70
    32
  0
VERTEX
  8
0
  5
10ABD
 10
33.5872
 20
87.6302
 30
0.000000
  70
    32
  0
VERTEX
  8
0
  5
10ABE
 10
33.5787
 20
87.5893
 30
0.000000
  70
    32
  0
VERTEX
  8
0
  5
10ABF
 10
33.5707
 20
87.5483
 30
0.000000
  70
    32
  0
VERTEX
  8
0
  5
10AC0
 10
33.5631
 20
87.5072
 30
0.000000
  70
    32
  0
VERTEX
  8
0
  5
10AC1
 10
33.5559
 20
87.4660
 30
0.000000
  70
    32
  0
VERTEX
  8
0
  5
10AC2
 10
33.5491
 20
87.4247
 30
0.000000
  70
    32
  0
VERTEX
  8
0
  5
10AC3
 10
33.5428
 20
87.3833
 30
0.000000
  70
    32
  0
VERTEX
  8
0
  5
10AC4
 10
33.5369
 20
87.3419
 30
0.000000
  70
    32
  0
VERTEX
  8
0
  5
10AC5
 10
33.5315
 20
87.3003
 30
0.000000
  70
    32
  0
VERTEX
  8
0
  5
10AC6
 10
33.5265
 20
87.2587
 30
0.000000
  70
    32
  0
VERTEX
  8
0
  5
10AC7
 10
33.5219
 20
87.2170
 30
0.000000
  70
    32
  0
VERTEX
  8
0
  5
10AC8
 10
33.5177
 20
87.1752
 30
0.000000
  70
    32
  0
VERTEX
  8
0
  5
10AC9
 10
33.5140
 20
87.1334
 30
0.000000
  70
    32
  0
VERTEX
  8
0
  5
10ACA
 10
33.5107
 20
87.0916
 30
0.000000
  70
    32
  0
VERTEX
  8
0
  5
10ACB
 10
33.5079
 20
87.0497
 30
0.000000
  70
    32
  0
VERTEX
  8
0
  5
10ACC
 10
33.5055
 20
87.0078
 30
0.000000
  70
    32
  0
VERTEX
  8
0
  5
10ACD
 10
33.5035
 20
86.9658
 30
0.000000
  70
    32
  0
VERTEX
  8
0
  5
10ACE
 10
33.5020
 20
86.9238
 30
0.000000
  70
    32
  0
VERTEX
  8
0
  5
10ACF
 10
33.5009
 20
86.8818
 30
0.000000
  70
    32
  0
VERTEX
  8
0
  5
10AD0
 10
33.5002
 20
86.8398
 30
0.000000
  70
    32
  0
VERTEX
  8
0
  5
10AD1
 10
33.5000
 20
86.7978
 30
0.000000
  70
    32
  0
VERTEX
  8
0
  5
10AD2
 10
33.5002
 20
86.7557
 30
0.000000
  70
    32
  0
VERTEX
  8
0
  5
10AD3
 10
33.5009
 20
86.7137
 30
0.000000
  70
    32
  0
VERTEX
  8
0
  5
10AD4
 10
33.5020
 20
86.6717
 30
0.000000
  70
    32
  0
VERTEX
  8
0
  5
10AD5
 10
33.5035
 20
86.6297
 30
0.000000
  70
    32
  0
VERTEX
  8
0
  5
10AD6
 10
33.5055
 20
86.5878
 30
0.000000
  70
    32
  0
VERTEX
  8
0
  5
10AD7
 10
33.5079
 20
86.5459
 30
0.000000
  70
    32
  0
VERTEX
  8
0
  5
10AD8
 10
33.5107
 20
86.5040
 30
0.000000
  70
    32
  0
VERTEX
  8
0
  5
10AD9
 10
33.5140
 20
86.4621
 30
0.000000
  70
    32
  0
VERTEX
  8
0
  5
10ADA
 10
33.5177
 20
86.4203
 30
0.000000
  70
    32
  0
VERTEX
  8
0
  5
10ADB
 10
33.5219
 20
86.3785
 30
0.000000
  70
    32
  0
VERTEX
  8
0
  5
10ADC
 10
33.5265
 20
86.3369
 30
0.000000
  70
    32
  0
VERTEX
  8
0
  5
10ADD
 10
33.5315
 20
86.2952
 30
0.000000
  70
    32
  0
VERTEX
  8
0
  5
10ADE
 10
33.5369
 20
86.2537
 30
0.000000
  70
    32
  0
VERTEX
  8
0
  5
10ADF
 10
33.5428
 20
86.2122
 30
0.000000
  70
    32
  0
VERTEX
  8
0
  5
10AE0
 10
33.5491
 20
86.1708
 30
0.000000
  70
    32
  0
VERTEX
  8
0
  5
10AE1
 10
33.5559
 20
86.1295
 30
0.000000
  70
    32
  0
VERTEX
  8
0
  5
10AE2
 10
33.5631
 20
86.0883
 30
0.000000
  70
    32
  0
VERTEX
  8
0
  5
10AE3
 10
33.5707
 20
86.0472
 30
0.000000
  70
    32
  0
VERTEX
  8
0
  5
10AE4
 10
33.5787
 20
86.0062
 30
0.000000
  70
    32
  0
VERTEX
  8
0
  5
10AE5
 10
33.5872
 20
85.9654
 30
0.000000
  70
    32
  0
VERTEX
  8
0
  5
10AE6
 10
33.5961
 20
85.9246
 30
0.000000
  70
    32
  0
VERTEX
  8
0
  5
10AE7
 10
33.6054
 20
85.8840
 30
0.000000
  70
    32
  0
VERTEX
  8
0
  5
10AE8
 10
33.6151
 20
85.8435
 30
0.000000
  70
    32
  0
VERTEX
  8
0
  5
10AE9
 10
33.6253
 20
85.8031
 30
0.000000
  70
    32
  0
VERTEX
  8
0
  5
10AEA
 10
33.6359
 20
85.7629
 30
0.000000
  70
    32
  0
VERTEX
  8
0
  5
10AEB
 10
33.6469
 20
85.7228
 30
0.000000
  70
    32
  0
VERTEX
  8
0
  5
10AEC
 10
33.6583
 20
85.6829
 30
0.000000
  70
    32
  0
VERTEX
  8
0
  5
10AED
 10
33.6701
 20
85.6432
 30
0.000000
  70
    32
  0
VERTEX
  8
0
  5
10AEE
 10
33.6824
 20
85.6036
 30
0.000000
  70
    32
  0
VERTEX
  8
0
  5
10AEF
 10
33.6950
 20
85.5642
 30
0.000000
  70
    32
  0
VERTEX
  8
0
  5
10AF0
 10
33.7081
 20
85.5249
 30
0.000000
  70
    32
  0
VERTEX
  8
0
  5
10AF1
 10
33.7215
 20
85.4859
 30
0.000000
  70
    32
  0
VERTEX
  8
0
  5
10AF2
 10
33.7354
 20
85.4470
 30
0.000000
  70
    32
  0
VERTEX
  8
0
  5
10AF3
 10
33.7497
 20
85.4083
 30
0.000000
  70
    32
  0
VERTEX
  8
0
  5
10AF4
 10
33.7644
 20
85.3699
 30
0.000000
  70
    32
  0
VERTEX
  8
0
  5
10AF5
 10
33.7795
 20
85.3316
 30
0.000000
  70
    32
  0
VERTEX
  8
0
  5
10AF6
 10
33.7950
 20
85.2936
 30
0.000000
  70
    32
  0
VERTEX
  8
0
  5
10AF7
 10
33.8108
 20
85.2557
 30
0.000000
  70
    32
  0
VERTEX
  8
0
  5
10AF8
 10
33.8271
 20
85.2181
 30
0.000000
  70
    32
  0
VERTEX
  8
0
  5
10AF9
 10
33.8438
 20
85.1807
 30
0.000000
  70
    32
  0
VERTEX
  8
0
  5
10AFA
 10
33.8608
 20
85.1436
 30
0.000000
  70
    32
  0
VERTEX
  8
0
  5
10AFB
 10
33.8783
 20
85.1067
 30
0.000000
  70
    32
  0
VERTEX
  8
0
  5
10AFC
 10
33.8961
 20
85.0700
 30
0.000000
  70
    32
  0
VERTEX
  8
0
  5
10AFD
 10
33.9143
 20
85.0336
 30
0.000000
  70
    32
  0
VERTEX
  8
0
  5
10AFE
 10
33.9329
 20
84.9974
 30
0.000000
  70
    32
  0
VERTEX
  8
0
  5
10AFF
 10
33.9518
 20
84.9615
 30
0.000000
  70
    32
  0
VERTEX
  8
0
  5
10B00
 10
33.9711
 20
84.9259
 30
0.000000
  70
    32
  0
VERTEX
  8
0
  5
10B01
 10
33.9908
 20
84.8905
 30
0.000000
  70
    32
  0
VERTEX
  8
0
  5
10B02
 10
34.0109
 20
84.8554
 30
0.000000
  70
    32
  0
VERTEX
  8
0
  5
10B03
 10
34.0313
 20
84.8206
 30
0.000000
  70
    32
  0
VERTEX
  8
0
  5
10B04
 10
34.0521
 20
84.7860
 30
0.000000
  70
    32
  0
VERTEX
  8
0
  5
10B05
 10
34.0733
 20
84.7518
 30
0.000000
  70
    32
  0
VERTEX
  8
0
  5
10B06
 10
34.0948
 20
84.7178
 30
0.000000
  70
    32
  0
VERTEX
  8
0
  5
10B07
 10
34.1166
 20
84.6842
 30
0.000000
  70
    32
  0
VERTEX
  8
0
  5
10B08
 10
34.1389
 20
84.6509
 30
0.000000
  70
    32
  0
VERTEX
  8
0
  5
10B09
 10
34.1614
 20
84.6178
 30
0.000000
  70
    32
  0
VERTEX
  8
0
  5
10B0A
 10
34.1843
 20
84.5851
 30
0.000000
  70
    32
  0
VERTEX
  8
0
  5
10B0B
 10
34.2075
 20
84.5527
 30
0.000000
  70
    32
  0
VERTEX
  8
0
  5
10B0C
 10
34.2311
 20
84.5206
 30
0.000000
  70
    32
  0
VERTEX
  8
0
  5
10B0D
 10
34.2550
 20
84.4889
 30
0.000000
  70
    32
  0
VERTEX
  8
0
  5
10B0E
 10
34.2793
 20
84.4575
 30
0.000000
  70
    32
  0
VERTEX
  8
0
  5
10B0F
 10
34.3038
 20
84.4264
 30
0.000000
  70
    32
  0
VERTEX
  8
0
  5
10B10
 10
34.3287
 20
84.3957
 30
0.000000
  70
    32
  0
VERTEX
  8
0
  5
10B11
 10
34.3539
 20
84.3653
 30
0.000000
  70
    32
  0
SEQEND
  8
0
  5
10B12
  0
POLYLINE
  5
F896
  8
0
 10
13.598086961523549
 20
89.327569822634132
 30
0.0
 66
     1
 70
     8
  0
VERTEX
  8
0
  5
10B13
 10
13.5981
 20
89.3276
 30
0.000000
  70
    32
  0
VERTEX
  8
0
  5
10B14
 10
13.5726
 20
89.2968
 30
0.000000
  70
    32
  0
VERTEX
  8
0
  5
10B15
 10
13.5475
 20
89.2657
 30
0.000000
  70
    32
  0
VERTEX
  8
0
  5
10B16
 10
13.5226
 20
89.2342
 30
0.000000
  70
    32
  0
VERTEX
  8
0
  5
10B17
 10
13.4981
 20
89.2023
 30
0.000000
  70
    32
  0
VERTEX
  8
0
  5
10B18
 10
13.4739
 20
89.1700
 30
0.000000
  70
    32
  0
VERTEX
  8
0
  5
10B19
 10
13.4501
 20
89.1373
 30
0.000000
  70
    32
  0
VERTEX
  8
0
  5
10B1A
 10
13.4265
 20
89.1043
 30
0.000000
  70
    32
  0
VERTEX
  8
0
  5
10B1B
 10
13.4033
 20
89.0709
 30
0.000000
  70
    32
  0
VERTEX
  8
0
  5
10B1C
 10
13.3805
 20
89.0371
 30
0.000000
  70
    32
  0
VERTEX
  8
0
  5
10B1D
 10
13.3580
 20
89.0030
 30
0.000000
  70
    32
  0
VERTEX
  8
0
  5
10B1E
 10
13.3358
 20
88.9685
 30
0.000000
  70
    32
  0
VERTEX
  8
0
  5
10B1F
 10
13.3140
 20
88.9336
 30
0.000000
  70
    32
  0
VERTEX
  8
0
  5
10B20
 10
13.2926
 20
88.8985
 30
0.000000
  70
    32
  0
VERTEX
  8
0
  5
10B21
 10
13.2715
 20
88.8630
 30
0.000000
  70
    32
  0
VERTEX
  8
0
  5
10B22
 10
13.2507
 20
88.8271
 30
0.000000
  70
    32
  0
VERTEX
  8
0
  5
10B23
 10
13.2304
 20
88.7910
 30
0.000000
  70
    32
  0
VERTEX
  8
0
  5
10B24
 10
13.2103
 20
88.7545
 30
0.000000
  70
    32
  0
VERTEX
  8
0
  5
10B25
 10
13.1907
 20
88.7177
 30
0.000000
  70
    32
  0
VERTEX
  8
0
  5
10B26
 10
13.1715
 20
88.6806
 30
0.000000
  70
    32
  0
VERTEX
  8
0
  5
10B27
 10
13.1526
 20
88.6432
 30
0.000000
  70
    32
  0
VERTEX
  8
0
  5
10B28
 10
13.1341
 20
88.6056
 30
0.000000
  70
    32
  0
VERTEX
  8
0
  5
10B29
 10
13.1160
 20
88.5676
 30
0.000000
  70
    32
  0
VERTEX
  8
0
  5
10B2A
 10
13.0982
 20
88.5293
 30
0.000000
  70
    32
  0
VERTEX
  8
0
  5
10B2B
 10
13.0809
 20
88.4908
 30
0.000000
  70
    32
  0
VERTEX
  8
0
  5
10B2C
 10
13.0639
 20
88.4520
 30
0.000000
  70
    32
  0
VERTEX
  8
0
  5
10B2D
 10
13.0474
 20
88.4129
 30
0.000000
  70
    32
  0
VERTEX
  8
0
  5
10B2E
 10
13.0312
 20
88.3736
 30
0.000000
  70
    32
  0
VERTEX
  8
0
  5
10B2F
 10
13.0155
 20
88.3340
 30
0.000000
  70
    32
  0
VERTEX
  8
0
  5
10B30
 10
13.0001
 20
88.2942
 30
0.000000
  70
    32
  0
VERTEX
  8
0
  5
10B31
 10
12.9851
 20
88.2542
 30
0.000000
  70
    32
  0
VERTEX
  8
0
  5
10B32
 10
12.9706
 20
88.2139
 30
0.000000
  70
    32
  0
VERTEX
  8
0
  5
10B33
 10
12.9565
 20
88.1734
 30
0.000000
  70
    32
  0
VERTEX
  8
0
  5
10B34
 10
12.9427
 20
88.1326
 30
0.000000
  70
    32
  0
VERTEX
  8
0
  5
10B35
 10
12.9294
 20
88.0917
 30
0.000000
  70
    32
  0
VERTEX
  8
0
  5
10B36
 10
12.9165
 20
88.0505
 30
0.000000
  70
    32
  0
VERTEX
  8
0
  5
10B37
 10
12.9040
 20
88.0092
 30
0.000000
  70
    32
  0
VERTEX
  8
0
  5
10B38
 10
12.8920
 20
87.9676
 30
0.000000
  70
    32
  0
VERTEX
  8
0
  5
10B39
 10
12.8803
 20
87.9259
 30
0.000000
  70
    32
  0
VERTEX
  8
0
  5
10B3A
 10
12.8691
 20
87.8840
 30
0.000000
  70
    32
  0
VERTEX
  8
0
  5
10B3B
 10
12.8583
 20
87.8419
 30
0.000000
  70
    32
  0
VERTEX
  8
0
  5
10B3C
 10
12.8480
 20
87.7997
 30
0.000000
  70
    32
  0
VERTEX
  8
0
  5
10B3D
 10
12.8380
 20
87.7573
 30
0.000000
  70
    32
  0
VERTEX
  8
0
  5
10B3E
 10
12.8285
 20
87.7147
 30
0.000000
  70
    32
  0
VERTEX
  8
0
  5
10B3F
 10
12.8195
 20
87.6720
 30
0.000000
  70
    32
  0
VERTEX
  8
0
  5
10B40
 10
12.8108
 20
87.6292
 30
0.000000
  70
    32
  0
VERTEX
  8
0
  5
10B41
 10
12.8026
 20
87.5862
 30
0.000000
  70
    32
  0
VERTEX
  8
0
  5
10B42
 10
12.7949
 20
87.5431
 30
0.000000
  70
    32
  0
VERTEX
  8
0
  5
10B43
 10
12.7875
 20
87.4998
 30
0.000000
  70
    32
  0
VERTEX
  8
0
  5
10B44
 10
12.7806
 20
87.4565
 30
0.000000
  70
    32
  0
VERTEX
  8
0
  5
10B45
 10
12.7742
 20
87.4131
 30
0.000000
  70
    32
  0
VERTEX
  8
0
  5
10B46
 10
12.7682
 20
87.3695
 30
0.000000
  70
    32
  0
VERTEX
  8
0
  5
10B47
 10
12.7626
 20
87.3259
 30
0.000000
  70
    32
  0
VERTEX
  8
0
  5
10B48
 10
12.7575
 20
87.2822
 30
0.000000
  70
    32
  0
VERTEX
  8
0
  5
10B49
 10
12.7528
 20
87.2384
 30
0.000000
  70
    32
  0
VERTEX
  8
0
  5
10B4A
 10
12.7486
 20
87.1945
 30
0.000000
  70
    32
  0
VERTEX
  8
0
  5
10B4B
 10
12.7448
 20
87.1506
 30
0.000000
  70
    32
  0
VERTEX
  8
0
  5
10B4C
 10
12.7414
 20
87.1066
 30
0.000000
  70
    32
  0
VERTEX
  8
0
  5
10B4D
 10
12.7385
 20
87.0626
 30
0.000000
  70
    32
  0
VERTEX
  8
0
  5
10B4E
 10
12.7360
 20
87.0185
 30
0.000000
  70
    32
  0
VERTEX
  8
0
  5
10B4F
 10
12.7340
 20
86.9744
 30
0.000000
  70
    32
  0
VERTEX
  8
0
  5
10B50
 10
12.7325
 20
86.9303
 30
0.000000
  70
    32
  0
VERTEX
  8
0
  5
10B51
 10
12.7313
 20
86.8861
 30
0.000000
  70
    32
  0
VERTEX
  8
0
  5
10B52
 10
12.7307
 20
86.8420
 30
0.000000
  70
    32
  0
VERTEX
  8
0
  5
10B53
 10
12.7305
 20
86.7978
 30
0.000000
  70
    32
  0
VERTEX
  8
0
  5
10B54
 10
12.7307
 20
86.7536
 30
0.000000
  70
    32
  0
VERTEX
  8
0
  5
10B55
 10
12.7313
 20
86.7094
 30
0.000000
  70
    32
  0
VERTEX
  8
0
  5
10B56
 10
12.7325
 20
86.6653
 30
0.000000
  70
    32
  0
VERTEX
  8
0
  5
10B57
 10
12.7340
 20
86.6211
 30
0.000000
  70
    32
  0
VERTEX
  8
0
  5
10B58
 10
12.7360
 20
86.5770
 30
0.000000
  70
    32
  0
VERTEX
  8
0
  5
10B59
 10
12.7385
 20
86.5330
 30
0.000000
  70
    32
  0
VERTEX
  8
0
  5
10B5A
 10
12.7414
 20
86.4889
 30
0.000000
  70
    32
  0
VERTEX
  8
0
  5
10B5B
 10
12.7448
 20
86.4449
 30
0.000000
  70
    32
  0
VERTEX
  8
0
  5
10B5C
 10
12.7486
 20
86.4010
 30
0.000000
  70
    32
  0
VERTEX
  8
0
  5
10B5D
 10
12.7528
 20
86.3572
 30
0.000000
  70
    32
  0
VERTEX
  8
0
  5
10B5E
 10
12.7575
 20
86.3134
 30
0.000000
  70
    32
  0
VERTEX
  8
0
  5
10B5F
 10
12.7626
 20
86.2697
 30
0.000000
  70
    32
  0
VERTEX
  8
0
  5
10B60
 10
12.7682
 20
86.2260
 30
0.000000
  70
    32
  0
VERTEX
  8
0
  5
10B61
 10
12.7742
 20
86.1825
 30
0.000000
  70
    32
  0
VERTEX
  8
0
  5
10B62
 10
12.7806
 20
86.1390
 30
0.000000
  70
    32
  0
VERTEX
  8
0
  5
10B63
 10
12.7875
 20
86.0957
 30
0.000000
  70
    32
  0
VERTEX
  8
0
  5
10B64
 10
12.7949
 20
86.0525
 30
0.000000
  70
    32
  0
VERTEX
  8
0
  5
10B65
 10
12.8026
 20
86.0094
 30
0.000000
  70
    32
  0
VERTEX
  8
0
  5
10B66
 10
12.8108
 20
85.9664
 30
0.000000
  70
    32
  0
VERTEX
  8
0
  5
10B67
 10
12.8195
 20
85.9235
 30
0.000000
  70
    32
  0
VERTEX
  8
0
  5
10B68
 10
12.8285
 20
85.8808
 30
0.000000
  70
    32
  0
VERTEX
  8
0
  5
10B69
 10
12.8380
 20
85.8383
 30
0.000000
  70
    32
  0
VERTEX
  8
0
  5
10B6A
 10
12.8480
 20
85.7959
 30
0.000000
  70
    32
  0
VERTEX
  8
0
  5
10B6B
 10
12.8583
 20
85.7536
 30
0.000000
  70
    32
  0
VERTEX
  8
0
  5
10B6C
 10
12.8691
 20
85.7115
 30
0.000000
  70
    32
  0
VERTEX
  8
0
  5
10B6D
 10
12.8803
 20
85.6696
 30
0.000000
  70
    32
  0
VERTEX
  8
0
  5
10B6E
 10
12.8920
 20
85.6279
 30
0.000000
  70
    32
  0
VERTEX
  8
0
  5
10B6F
 10
12.9040
 20
85.5864
 30
0.000000
  70
    32
  0
VERTEX
  8
0
  5
10B70
 10
12.9165
 20
85.5450
 30
0.000000
  70
    32
  0
VERTEX
  8
0
  5
10B71
 10
12.9294
 20
85.5039
 30
0.000000
  70
    32
  0
VERTEX
  8
0
  5
10B72
 10
12.9427
 20
85.4629
 30
0.000000
  70
    32
  0
VERTEX
  8
0
  5
10B73
 10
12.9565
 20
85.4222
 30
0.000000
  70
    32
  0
VERTEX
  8
0
  5
10B74
 10
12.9706
 20
85.3817
 30
0.000000
  70
    32
  0
VERTEX
  8
0
  5
10B75
 10
12.9851
 20
85.3414
 30
0.000000
  70
    32
  0
VERTEX
  8
0
  5
10B76
 10
13.0001
 20
85.3013
 30
0.000000
  70
    32
  0
VERTEX
  8
0
  5
10B77
 10
13.0155
 20
85.2615
 30
0.000000
  70
    32
  0
VERTEX
  8
0
  5
10B78
 10
13.0312
 20
85.2219
 30
0.000000
  70
    32
  0
VERTEX
  8
0
  5
10B79
 10
13.0474
 20
85.1826
 30
0.000000
  70
    32
  0
VERTEX
  8
0
  5
10B7A
 10
13.0639
 20
85.1435
 30
0.000000
  70
    32
  0
VERTEX
  8
0
  5
10B7B
 10
13.0809
 20
85.1047
 30
0.000000
  70
    32
  0
VERTEX
  8
0
  5
10B7C
 10
13.0982
 20
85.0662
 30
0.000000
  70
    32
  0
VERTEX
  8
0
  5
10B7D
 10
13.1160
 20
85.0280
 30
0.000000
  70
    32
  0
VERTEX
  8
0
  5
10B7E
 10
13.1341
 20
84.9900
 30
0.000000
  70
    32
  0
VERTEX
  8
0
  5
10B7F
 10
13.1526
 20
84.9523
 30
0.000000
  70
    32
  0
VERTEX
  8
0
  5
10B80
 10
13.1715
 20
84.9149
 30
0.000000
  70
    32
  0
VERTEX
  8
0
  5
10B81
 10
13.1907
 20
84.8778
 30
0.000000
  70
    32
  0
VERTEX
  8
0
  5
10B82
 10
13.2103
 20
84.8410
 30
0.000000
  70
    32
  0
VERTEX
  8
0
  5
10B83
 10
13.2303
 20
84.8046
 30
0.000000
  70
    32
  0
VERTEX
  8
0
  5
10B84
 10
13.2507
 20
84.7684
 30
0.000000
  70
    32
  0
VERTEX
  8
0
  5
10B85
 10
13.2715
 20
84.7326
 30
0.000000
  70
    32
  0
VERTEX
  8
0
  5
10B86
 10
13.2926
 20
84.6971
 30
0.000000
  70
    32
  0
VERTEX
  8
0
  5
10B87
 10
13.3140
 20
84.6619
 30
0.000000
  70
    32
  0
VERTEX
  8
0
  5
10B88
 10
13.3358
 20
84.6271
 30
0.000000
  70
    32
  0
VERTEX
  8
0
  5
10B89
 10
13.3580
 20
84.5926
 30
0.000000
  70
    32
  0
VERTEX
  8
0
  5
10B8A
 10
13.3805
 20
84.5585
 30
0.000000
  70
    32
  0
VERTEX
  8
0
  5
10B8B
 10
13.4033
 20
84.5247
 30
0.000000
  70
    32
  0
VERTEX
  8
0
  5
10B8C
 10
13.4265
 20
84.4913
 30
0.000000
  70
    32
  0
VERTEX
  8
0
  5
10B8D
 10
13.4501
 20
84.4582
 30
0.000000
  70
    32
  0
VERTEX
  8
0
  5
10B8E
 10
13.4739
 20
84.4256
 30
0.000000
  70
    32
  0
VERTEX
  8
0
  5
10B8F
 10
13.4981
 20
84.3933
 30
0.000000
  70
    32
  0
VERTEX
  8
0
  5
10B90
 10
13.5226
 20
84.3614
 30
0.000000
  70
    32
  0
VERTEX
  8
0
  5
10B91
 10
13.5475
 20
84.3298
 30
0.000000
  70
    32
  0
VERTEX
  8
0
  5
10B92
 10
13.5726
 20
84.2987
 30
0.000000
  70
    32
  0
VERTEX
  8
0
  5
10B93
 10
13.5981
 20
84.2680
 30
0.000000
  70
    32
  0
SEQEND
  8
0
  5
10B94
  0
LINE
  5
F8C6
  8
0
 10
12.92525999999998
 20
85.516947162676843
 30
0.0
 11
12.92525999999998
 21
80.695841682315844
 31
0.0
  0
LINE
  5
F8C8
  8
0
 10
30.598086449680519
 20
80.297771682316124
 30
0.0
 11
36.5
 21
80.297771682316124
 31
0.0
  0
LINE
  5
F8C9
  8
0
 10
30.598086449680519
 20
93.297771682316124
 30
0.0
 11
36.5
 21
93.297771682316124
 31
0.0
  0
POINT
  5
F91A
  8
0
 10
94.795848114612454
 20
-37.50000399999999
 30
0.0
  0
LINE
  5
F91B
  8
0
 10
81.795848114612454
 20
6.0
 30
0.0
 11
89.795848114612454
 21
6.0
 31
0.0
  0
LINE
  5
F91C
  8
0
 10
87.795844314612623
 20
9.0
 30
0.0
 11
101.7958519146127
 21
9.0
 31
0.0
  0
LINE
  5
F91D
  8
0
 10
81.795848114612454
 20
14.25
 30
0.0
 11
81.795848114612454
 21
6.0
 31
0.0
  0
LINE
  5
F91E
  8
0
 10
101.2958481146124
 20
-7.0
 30
0.0
 11
101.2958481146124
 21
-10.76162199999998
 31
0.0
  0
LINE
  5
F91F
  8
0
 10
101.2958481146124
 20
15.75
 30
0.0
 11
101.2958481146124
 21
11.00001500000007
 31
0.0
  0
LINE
  5
F920
  8
0
 10
103.7958481146124
 20
5.0
 30
0.0
 11
105.2958481146124
 21
5.0
 31
0.0
  0
LINE
  5
F921
  8
0
 10
88.295848114612454
 20
15.75
 30
0.0
 11
88.295848114612454
 21
11.00001500000007
 31
0.0
  0
LINE
  5
F922
  8
0
 10
83.945848114612545
 20
-16.500003999999979
 30
0.0
 11
83.945848114612545
 21
-37.50000399999999
 31
0.0
  0
LINE
  5
F923
  8
0
 10
89.295848114612454
 20
15.0
 30
0.0
 11
92.545848114612454
 21
15.0
 31
0.0
  0
LINE
  5
F924
  8
0
 10
88.295848114612454
 20
15.75
 30
0.0
 11
90.795848114612454
 21
15.75
 31
0.0
  0
LINE
  5
F925
  8
0
 10
98.795848114612454
 20
24.225447999999911
 30
0.0
 11
98.795848114612454
 21
15.0
 31
0.0
  0
LINE
  5
F926
  8
0
 10
81.795848114612454
 20
14.25
 30
0.0
 11
88.295848114612454
 21
14.25
 31
0.0
  0
LINE
  5
F928
  8
0
 10
101.2958481146124
 20
14.25
 30
0.0
 11
107.7958481146124
 21
14.25
 31
0.0
  0
LINE
  5
F929
  8
0
 10
91.795848114612454
 20
25.225447999999911
 30
0.0
 11
97.795848114612454
 21
25.225447999999911
 31
0.0
  0
LINE
  5
F92A
  8
0
 10
80.795848114612454
 20
-16.500003999999979
 30
0.0
 11
108.7958481146124
 21
-16.500003999999979
 31
0.0
  0
LINE
  5
F92B
  8
0
 10
81.795848114612454
 20
7.5
 30
0.0
 11
88.295848114612454
 21
7.5
 31
0.0
  0
LINE
  5
F92C
  8
0
 10
88.295848114612454
 20
-8.5
 30
0.0
 11
101.2958481146124
 21
-8.5
 31
0.0
  0
LINE
  5
F92D
  8
0
 10
80.795848114612454
 20
-7.0
 30
0.0
 11
88.295848114612454
 21
-7.0
 31
0.0
  0
LINE
  5
F92E
  8
0
  6
CENTER
 10
94.795848114612454
 20
26.62720100000001
 30
0.0
 11
94.795848114612454
 21
-45.75372909999998
 31
0.0
  0
LINE
  5
F92F
  8
0
 10
105.6458481146128
 20
-16.500003999999979
 30
0.0
 11
105.6458481146128
 21
-37.50000399999999
 31
0.0
  0
LINE
  5
F930
  8
0
 10
103.7958481146124
 20
5.0
 30
0.0
 11
103.7958481146124
 21
-5.5
 31
0.0
  0
LINE
  5
F931
  8
0
 10
93.545848114612454
 20
23.657554000000111
 30
0.0
 11
96.045848114612454
 21
23.657554000000111
 31
0.0
  0
LINE
  5
F932
  8
0
 10
93.545848114612454
 20
20.0
 30
0.0
 11
96.045848114612454
 21
20.0
 31
0.0
  0
LINE
  5
F934
  8
0
 10
90.795848114612454
 20
7.5
 30
0.0
 11
90.795848114612454
 21
-4.1241161249206471
 31
0.0
  0
LINE
  5
F935
  8
0
 10
80.795848114612454
 20
-7.0
 30
0.0
 11
80.795848114612454
 21
-16.500003999999979
 31
0.0
  0
LINE
  5
F936
  8
0
 10
89.295845214612655
 20
15.00000399999999
 30
0.0
 11
87.795844314612623
 21
9.0
 31
0.0
  0
LINE
  5
F937
  8
0
 10
98.795848114611985
 20
15.75
 30
0.0
 11
101.2958481146124
 21
15.75
 31
0.0
  0
LINE
  5
F938
  8
0
 10
85.795848114612454
 20
5.0
 30
0.0
 11
85.795848114612454
 21
-5.5
 31
0.0
  0
LINE
  5
F939
  8
0
 10
88.295848114612454
 20
-7.0
 30
0.0
 11
88.295848114612454
 21
-10.76162199999998
 31
0.0
  0
LINE
  5
F93A
  8
0
 10
108.7958481146124
 20
-7.0
 30
0.0
 11
108.7958481146124
 21
-16.500003999999979
 31
0.0
  0
LINE
  5
F93B
  8
0
 10
97.795848614612623
 20
25.225447999999911
 30
0.0
 11
98.795849514612655
 21
24.225447999999911
 31
0.0
  0
LINE
  5
F93C
  8
0
 10
88.295848114612454
 20
9.0
 30
0.0
 11
88.295848114612454
 21
7.5
 31
0.0
  0
LINE
  5
F93D
  8
0
 10
98.795848114612454
 20
7.5
 30
0.0
 11
98.795848114611985
 21
-4.1241161249213292
 31
0.0
  0
LINE
  5
F93E
  8
0
 10
97.045848114612454
 20
22.657554000000111
 30
0.0
 11
97.045848114612454
 21
9.0
 31
0.0
  0
LINE
  5
F93F
  8
0
 10
101.2958481146124
 20
9.0
 30
0.0
 11
101.2958481146124
 21
7.5
 31
0.0
  0
LINE
  5
F940
  8
0
 10
84.295848114612454
 20
5.0
 30
0.0
 11
84.295848114612454
 21
-7.0
 31
0.0
  0
LINE
  5
F941
  8
0
 10
105.2958481146124
 20
5.0
 30
0.0
 11
105.2958481146124
 21
-7.0
 31
0.0
  0
LINE
  5
F942
  8
0
 10
92.545848114612454
 20
22.657554000000111
 30
0.0
 11
92.545848114612454
 21
9.0
 31
0.0
  0
LINE
  5
F943
  8
0
 10
100.29585101461269
 20
15.00000399999999
 30
0.0
 11
101.7958519146127
 21
9.0
 31
0.0
  0
LINE
  5
F944
  8
0
 10
84.295848114612454
 20
5.0
 30
0.0
 11
85.795848114612454
 21
5.0
 31
0.0
  0
LINE
  5
F945
  8
0
 10
97.045848114612454
 20
15.0
 30
0.0
 11
100.2958481146124
 21
15.0
 31
0.0
  0
LINE
  5
F946
  8
0
 10
85.795848114612454
 20
2.5
 30
0.0
 11
90.795848114612454
 21
2.5
 31
0.0
  0
LINE
  5
F947
  8
0
  6
CENTER
 10
79.076500898316226
 20
0.0000000000002274
 30
0.0
 11
110.51519533090909
 21
0.0000000000002274
 31
0.0
  0
LINE
  5
F948
  8
0
 10
85.795848114612454
 20
-2.5
 30
0.0
 11
90.795848114612454
 21
-2.5
 31
0.0
  0
LINE
  5
F94A
  8
0
 10
85.795848114612454
 20
-5.5
 30
0.0
 11
89.795848114612454
 21
-5.5
 31
0.0
  0
LINE
  5
F951
  8
0
 10
83.945848114612545
 20
-37.50000399999999
 30
0.0
 11
105.6458481146128
 21
-37.50000399999999
 31
0.0
  0
LINE
  5
F952
  8
0
 10
91.79584761461274
 20
25.225447999999911
 30
0.0
 11
90.795846714612708
 21
24.225447999999911
 31
0.0
  0
LINE
  5
F953
  8
0
 10
90.795848114612454
 20
24.225447999999911
 30
0.0
 11
90.795848114612454
 21
15.0
 31
0.0
  0
LINE
  5
F954
  8
0
 10
107.7958481146124
 20
14.25
 30
0.0
 11
107.7958481146124
 21
6.0
 31
0.0
  0
ARC
  5
F955
  8
0
 10
96.045848114612454
 20
21.0
 30
0.0
 40
1.0
 50
270.0
 51
0.0
  0
ARC
  5
F956
  8
0
 10
93.545848114612454
 20
22.657554000000111
 30
0.0
 40
1.0
 50
90.0
 51
180.0
  0
ARC
  5
F957
  8
0
 10
93.545848114612454
 20
21.0
 30
0.0
 40
1.0
 50
180.0
 51
270.0
  0
ARC
  5
F958
  8
0
 10
96.045848114612454
 20
22.657554000000111
 30
0.0
 40
1.0
 50
0.0
 51
90.0
  0
POLYLINE
  5
F959
  8
0
 10
84.295848114612454
 20
2.9999999000000002
 30
0.0
 66
     1
 70
     8
  0
VERTEX
  8
0
  5
10B95
 10
84.2958
 20
3.00000
 30
0.000000
  70
    32
  0
VERTEX
  8
0
  5
10B96
 10
84.2590
 20
2.99910
 30
0.000000
  70
    32
  0
VERTEX
  8
0
  5
10B97
 10
84.2222
 20
2.99639
 30
0.000000
  70
    32
  0
VERTEX
  8
0
  5
10B98
 10
84.1855
 20
2.99187
 30
0.000000
  70
    32
  0
VERTEX
  8
0
  5
10B99
 10
84.1488
 20
2.98555
 30
0.000000
  70
    32
  0
VERTEX
  8
0
  5
10B9A
 10
84.1122
 20
2.97744
 30
0.000000
  70
    32
  0
VERTEX
  8
0
  5
10B9B
 10
84.0758
 20
2.96753
 30
0.000000
  70
    32
  0
VERTEX
  8
0
  5
10B9C
 10
84.0394
 20
2.95583
 30
0.000000
  70
    32
  0
VERTEX
  8
0
  5
10B9D
 10
84.0032
 20
2.94236
 30
0.000000
  70
    32
  0
VERTEX
  8
0
  5
10B9E
 10
83.9672
 20
2.92711
 30
0.000000
  70
    32
  0
VERTEX
  8
0
  5
10B9F
 10
83.9314
 20
2.91009
 30
0.000000
  70
    32
  0
VERTEX
  8
0
  5
10BA0
 10
83.8958
 20
2.89133
 30
0.000000
  70
    32
  0
VERTEX
  8
0
  5
10BA1
 10
83.8604
 20
2.87082
 30
0.000000
  70
    32
  0
VERTEX
  8
0
  5
10BA2
 10
83.8253
 20
2.84858
 30
0.000000
  70
    32
  0
VERTEX
  8
0
  5
10BA3
 10
83.7905
 20
2.82463
 30
0.000000
  70
    32
  0
VERTEX
  8
0
  5
10BA4
 10
83.7560
 20
2.79898
 30
0.000000
  70
    32
  0
VERTEX
  8
0
  5
10BA5
 10
83.7218
 20
2.77164
 30
0.000000
  70
    32
  0
VERTEX
  8
0
  5
10BA6
 10
83.6880
 20
2.74263
 30
0.000000
  70
    32
  0
VERTEX
  8
0
  5
10BA7
 10
83.6545
 20
2.71197
 30
0.000000
  70
    32
  0
VERTEX
  8
0
  5
10BA8
 10
83.6214
 20
2.67967
 30
0.000000
  70
    32
  0
VERTEX
  8
0
  5
10BA9
 10
83.5888
 20
2.64576
 30
0.000000
  70
    32
  0
VERTEX
  8
0
  5
10BAA
 10
83.5565
 20
2.61026
 30
0.000000
  70
    32
  0
VERTEX
  8
0
  5
10BAB
 10
83.5247
 20
2.57319
 30
0.000000
  70
    32
  0
VERTEX
  8
0
  5
10BAC
 10
83.4934
 20
2.53456
 30
0.000000
  70
    32
  0
VERTEX
  8
0
  5
10BAD
 10
83.4625
 20
2.49441
 30
0.000000
  70
    32
  0
VERTEX
  8
0
  5
10BAE
 10
83.4321
 20
2.45275
 30
0.000000
  70
    32
  0
VERTEX
  8
0
  5
10BAF
 10
83.4023
 20
2.40962
 30
0.000000
  70
    32
  0
VERTEX
  8
0
  5
10BB0
 10
83.3730
 20
2.36504
 30
0.000000
  70
    32
  0
VERTEX
  8
0
  5
10BB1
 10
83.3443
 20
2.31903
 30
0.000000
  70
    32
  0
VERTEX
  8
0
  5
10BB2
 10
83.3161
 20
2.27163
 30
0.000000
  70
    32
  0
VERTEX
  8
0
  5
10BB3
 10
83.2885
 20
2.22285
 30
0.000000
  70
    32
  0
VERTEX
  8
0
  5
10BB4
 10
83.2615
 20
2.17274
 30
0.000000
  70
    32
  0
VERTEX
  8
0
  5
10BB5
 10
83.2352
 20
2.12132
 30
0.000000
  70
    32
  0
VERTEX
  8
0
  5
10BB6
 10
83.2095
 20
2.06862
 30
0.000000
  70
    32
  0
VERTEX
  8
0
  5
10BB7
 10
83.1844
 20
2.01468
 30
0.000000
  70
    32
  0
VERTEX
  8
0
  5
10BB8
 10
83.1600
 20
1.95952
 30
0.000000
  70
    32
  0
VERTEX
  8
0
  5
10BB9
 10
83.1363
 20
1.90318
 30
0.000000
  70
    32
  0
VERTEX
  8
0
  5
10BBA
 10
83.1133
 20
1.84569
 30
0.000000
  70
    32
  0
VERTEX
  8
0
  5
10BBB
 10
83.0910
 20
1.78710
 30
0.000000
  70
    32
  0
VERTEX
  8
0
  5
10BBC
 10
83.0695
 20
1.72742
 30
0.000000
  70
    32
  0
VERTEX
  8
0
  5
10BBD
 10
83.0486
 20
1.66671
 30
0.000000
  70
    32
  0
VERTEX
  8
0
  5
10BBE
 10
83.0286
 20
1.60499
 30
0.000000
  70
    32
  0
VERTEX
  8
0
  5
10BBF
 10
83.0093
 20
1.54231
 30
0.000000
  70
    32
  0
VERTEX
  8
0
  5
10BC0
 10
82.9907
 20
1.47869
 30
0.000000
  70
    32
  0
VERTEX
  8
0
  5
10BC1
 10
82.9730
 20
1.41419
 30
0.000000
  70
    32
  0
VERTEX
  8
0
  5
10BC2
 10
82.9560
 20
1.34883
 30
0.000000
  70
    32
  0
VERTEX
  8
0
  5
10BC3
 10
82.9399
 20
1.28267
 30
0.000000
  70
    32
  0
VERTEX
  8
0
  5
10BC4
 10
82.9245
 20
1.21572
 30
0.000000
  70
    32
  0
VERTEX
  8
0
  5
10BC5
 10
82.9100
 20
1.14805
 30
0.000000
  70
    32
  0
VERTEX
  8
0
  5
10BC6
 10
82.8964
 20
1.07969
 30
0.000000
  70
    32
  0
VERTEX
  8
0
  5
10BC7
 10
82.8835
 20
1.01067
 30
0.000000
  70
    32
  0
VERTEX
  8
0
  5
10BC8
 10
82.8716
 20
0.941045
 30
0.000000
  70
    32
  0
VERTEX
  8
0
  5
10BC9
 10
82.8604
 20
0.870854
 30
0.000000
  70
    32
  0
VERTEX
  8
0
  5
10BCA
 10
82.8502
 20
0.800138
 30
0.000000
  70
    32
  0
VERTEX
  8
0
  5
10BCB
 10
82.8408
 20
0.728940
 30
0.000000
  70
    32
  0
VERTEX
  8
0
  5
10BCC
 10
82.8323
 20
0.657304
 30
0.000000
  70
    32
  0
VERTEX
  8
0
  5
10BCD
 10
82.8247
 20
0.585271
 30
0.000000
  70
    32
  0
VERTEX
  8
0
  5
10BCE
 10
82.8179
 20
0.512886
 30
0.000000
  70
    32
  0
VERTEX
  8
0
  5
10BCF
 10
82.8121
 20
0.440191
 30
0.000000
  70
    32
  0
VERTEX
  8
0
  5
10BD0
 10
82.8071
 20
0.367232
 30
0.000000
  70
    32
  0
VERTEX
  8
0
  5
10BD1
 10
82.8031
 20
0.294051
 30
0.000000
  70
    32
  0
VERTEX
  8
0
  5
10BD2
 10
82.7999
 20
0.220694
 30
0.000000
  70
    32
  0
VERTEX
  8
0
  5
10BD3
 10
82.7977
 20
0.147203
 30
0.000000
  70
    32
  0
VERTEX
  8
0
  5
10BD4
 10
82.7963
 20
0.0736236
 30
0.000000
  70
    32
  0
VERTEX
  8
0
  5
10BD5
 10
82.7958
 20
-3.48077e-008
 30
0.000000
  70
    32
  0
VERTEX
  8
0
  5
10BD6
 10
82.7963
 20
-0.0736237
 30
0.000000
  70
    32
  0
VERTEX
  8
0
  5
10BD7
 10
82.7977
 20
-0.147203
 30
0.000000
  70
    32
  0
VERTEX
  8
0
  5
10BD8
 10
82.7999
 20
-0.220694
 30
0.000000
  70
    32
  0
VERTEX
  8
0
  5
10BD9
 10
82.8031
 20
-0.294051
 30
0.000000
  70
    32
  0
VERTEX
  8
0
  5
10BDA
 10
82.8071
 20
-0.367232
 30
0.000000
  70
    32
  0
VERTEX
  8
0
  5
10BDB
 10
82.8121
 20
-0.440191
 30
0.000000
  70
    32
  0
VERTEX
  8
0
  5
10BDC
 10
82.8179
 20
-0.512886
 30
0.000000
  70
    32
  0
VERTEX
  8
0
  5
10BDD
 10
82.8247
 20
-0.585271
 30
0.000000
  70
    32
  0
VERTEX
  8
0
  5
10BDE
 10
82.8323
 20
-0.657304
 30
0.000000
  70
    32
  0
VERTEX
  8
0
  5
10BDF
 10
82.8408
 20
-0.728941
 30
0.000000
  70
    32
  0
VERTEX
  8
0
  5
10BE0
 10
82.8502
 20
-0.800138
 30
0.000000
  70
    32
  0
VERTEX
  8
0
  5
10BE1
 10
82.8604
 20
-0.870854
 30
0.000000
  70
    32
  0
VERTEX
  8
0
  5
10BE2
 10
82.8716
 20
-0.941045
 30
0.000000
  70
    32
  0
VERTEX
  8
0
  5
10BE3
 10
82.8835
 20
-1.01067
 30
0.000000
  70
    32
  0
VERTEX
  8
0
  5
10BE4
 10
82.8964
 20
-1.07969
 30
0.000000
  70
    32
  0
VERTEX
  8
0
  5
10BE5
 10
82.9100
 20
-1.14805
 30
0.000000
  70
    32
  0
VERTEX
  8
0
  5
10BE6
 10
82.9245
 20
-1.21572
 30
0.000000
  70
    32
  0
VERTEX
  8
0
  5
10BE7
 10
82.9399
 20
-1.28267
 30
0.000000
  70
    32
  0
VERTEX
  8
0
  5
10BE8
 10
82.9560
 20
-1.34883
 30
0.000000
  70
    32
  0
VERTEX
  8
0
  5
10BE9
 10
82.9730
 20
-1.41419
 30
0.000000
  70
    32
  0
VERTEX
  8
0
  5
10BEA
 10
82.9907
 20
-1.47869
 30
0.000000
  70
    32
  0
VERTEX
  8
0
  5
10BEB
 10
83.0093
 20
-1.54231
 30
0.000000
  70
    32
  0
VERTEX
  8
0
  5
10BEC
 10
83.0286
 20
-1.60499
 30
0.000000
  70
    32
  0
VERTEX
  8
0
  5
10BED
 10
83.0486
 20
-1.66671
 30
0.000000
  70
    32
  0
VERTEX
  8
0
  5
10BEE
 10
83.0695
 20
-1.72742
 30
0.000000
  70
    32
  0
VERTEX
  8
0
  5
10BEF
 10
83.0910
 20
-1.78710
 30
0.000000
  70
    32
  0
VERTEX
  8
0
  5
10BF0
 10
83.1133
 20
-1.84569
 30
0.000000
  70
    32
  0
VERTEX
  8
0
  5
10BF1
 10
83.1363
 20
-1.90318
 30
0.000000
  70
    32
  0
VERTEX
  8
0
  5
10BF2
 10
83.1600
 20
-1.95952
 30
0.000000
  70
    32
  0
VERTEX
  8
0
  5
10BF3
 10
83.1844
 20
-2.01468
 30
0.000000
  70
    32
  0
VERTEX
  8
0
  5
10BF4
 10
83.2095
 20
-2.06862
 30
0.000000
  70
    32
  0
VERTEX
  8
0
  5
10BF5
 10
83.2352
 20
-2.12132
 30
0.000000
  70
    32
  0
VERTEX
  8
0
  5
10BF6
 10
83.2615
 20
-2.17274
 30
0.000000
  70
    32
  0
VERTEX
  8
0
  5
10BF7
 10
83.2885
 20
-2.22285
 30
0.000000
  70
    32
  0
VERTEX
  8
0
  5
10BF8
 10
83.3161
 20
-2.27163
 30
0.000000
  70
    32
  0
VERTEX
  8
0
  5
10BF9
 10
83.3443
 20
-2.31903
 30
0.000000
  70
    32
  0
VERTEX
  8
0
  5
10BFA
 10
83.3730
 20
-2.36504
 30
0.000000
  70
    32
  0
VERTEX
  8
0
  5
10BFB
 10
83.4023
 20
-2.40962
 30
0.000000
  70
    32
  0
VERTEX
  8
0
  5
10BFC
 10
83.4321
 20
-2.45275
 30
0.000000
  70
    32
  0
VERTEX
  8
0
  5
10BFD
 10
83.4625
 20
-2.49441
 30
0.000000
  70
    32
  0
VERTEX
  8
0
  5
10BFE
 10
83.4934
 20
-2.53456
 30
0.000000
  70
    32
  0
VERTEX
  8
0
  5
10BFF
 10
83.5247
 20
-2.57319
 30
0.000000
  70
    32
  0
VERTEX
  8
0
  5
10C00
 10
83.5565
 20
-2.61026
 30
0.000000
  70
    32
  0
VERTEX
  8
0
  5
10C01
 10
83.5888
 20
-2.64576
 30
0.000000
  70
    32
  0
VERTEX
  8
0
  5
10C02
 10
83.6214
 20
-2.67967
 30
0.000000
  70
    32
  0
VERTEX
  8
0
  5
10C03
 10
83.6545
 20
-2.71197
 30
0.000000
  70
    32
  0
VERTEX
  8
0
  5
10C04
 10
83.6880
 20
-2.74263
 30
0.000000
  70
    32
  0
VERTEX
  8
0
  5
10C05
 10
83.7218
 20
-2.77164
 30
0.000000
  70
    32
  0
VERTEX
  8
0
  5
10C06
 10
83.7560
 20
-2.79898
 30
0.000000
  70
    32
  0
VERTEX
  8
0
  5
10C07
 10
83.7905
 20
-2.82463
 30
0.000000
  70
    32
  0
VERTEX
  8
0
  5
10C08
 10
83.8253
 20
-2.84858
 30
0.000000
  70
    32
  0
VERTEX
  8
0
  5
10C09
 10
83.8604
 20
-2.87082
 30
0.000000
  70
    32
  0
VERTEX
  8
0
  5
10C0A
 10
83.8958
 20
-2.89133
 30
0.000000
  70
    32
  0
VERTEX
  8
0
  5
10C0B
 10
83.9314
 20
-2.91009
 30
0.000000
  70
    32
  0
VERTEX
  8
0
  5
10C0C
 10
83.9672
 20
-2.92711
 30
0.000000
  70
    32
  0
VERTEX
  8
0
  5
10C0D
 10
84.0032
 20
-2.94236
 30
0.000000
  70
    32
  0
VERTEX
  8
0
  5
10C0E
 10
84.0394
 20
-2.95583
 30
0.000000
  70
    32
  0
VERTEX
  8
0
  5
10C0F
 10
84.0758
 20
-2.96753
 30
0.000000
  70
    32
  0
VERTEX
  8
0
  5
10C10
 10
84.1122
 20
-2.97744
 30
0.000000
  70
    32
  0
VERTEX
  8
0
  5
10C11
 10
84.1488
 20
-2.98555
 30
0.000000
  70
    32
  0
VERTEX
  8
0
  5
10C12
 10
84.1855
 20
-2.99187
 30
0.000000
  70
    32
  0
VERTEX
  8
0
  5
10C13
 10
84.2222
 20
-2.99639
 30
0.000000
  70
    32
  0
VERTEX
  8
0
  5
10C14
 10
84.2590
 20
-2.99910
 30
0.000000
  70
    32
  0
VERTEX
  8
0
  5
10C15
 10
84.2958
 20
-3.00000
 30
0.000000
  70
    32
  0
SEQEND
  8
0
  5
10C16
  0
POLYLINE
  5
F95A
  8
0
 10
105.29584814942005
 20
-2.9999998999999997
 30
0.0
 66
     1
 70
     8
  0
VERTEX
  8
0
  5
10C17
 10
105.296
 20
-3.00000
 30
0.000000
  70
    32
  0
VERTEX
  8
0
  5
10C18
 10
105.333
 20
-2.99910
 30
0.000000
  70
    32
  0
VERTEX
  8
0
  5
10C19
 10
105.369
 20
-2.99639
 30
0.000000
  70
    32
  0
VERTEX
  8
0
  5
10C1A
 10
105.406
 20
-2.99187
 30
0.000000
  70
    32
  0
VERTEX
  8
0
  5
10C1B
 10
105.443
 20
-2.98555
 30
0.000000
  70
    32
  0
VERTEX
  8
0
  5
10C1C
 10
105.479
 20
-2.97744
 30
0.000000
  70
    32
  0
VERTEX
  8
0
  5
10C1D
 10
105.516
 20
-2.96753
 30
0.000000
  70
    32
  0
VERTEX
  8
0
  5
10C1E
 10
105.552
 20
-2.95583
 30
0.000000
  70
    32
  0
VERTEX
  8
0
  5
10C1F
 10
105.588
 20
-2.94236
 30
0.000000
  70
    32
  0
VERTEX
  8
0
  5
10C20
 10
105.624
 20
-2.92711
 30
0.000000
  70
    32
  0
VERTEX
  8
0
  5
10C21
 10
105.660
 20
-2.91009
 30
0.000000
  70
    32
  0
VERTEX
  8
0
  5
10C22
 10
105.696
 20
-2.89133
 30
0.000000
  70
    32
  0
VERTEX
  8
0
  5
10C23
 10
105.731
 20
-2.87082
 30
0.000000
  70
    32
  0
VERTEX
  8
0
  5
10C24
 10
105.766
 20
-2.84858
 30
0.000000
  70
    32
  0
VERTEX
  8
0
  5
10C25
 10
105.801
 20
-2.82463
 30
0.000000
  70
    32
  0
VERTEX
  8
0
  5
10C26
 10
105.836
 20
-2.79898
 30
0.000000
  70
    32
  0
VERTEX
  8
0
  5
10C27
 10
105.870
 20
-2.77164
 30
0.000000
  70
    32
  0
VERTEX
  8
0
  5
10C28
 10
105.904
 20
-2.74263
 30
0.000000
  70
    32
  0
VERTEX
  8
0
  5
10C29
 10
105.937
 20
-2.71197
 30
0.000000
  70
    32
  0
VERTEX
  8
0
  5
10C2A
 10
105.970
 20
-2.67967
 30
0.000000
  70
    32
  0
VERTEX
  8
0
  5
10C2B
 10
106.003
 20
-2.64576
 30
0.000000
  70
    32
  0
VERTEX
  8
0
  5
10C2C
 10
106.035
 20
-2.61026
 30
0.000000
  70
    32
  0
VERTEX
  8
0
  5
10C2D
 10
106.067
 20
-2.57319
 30
0.000000
  70
    32
  0
VERTEX
  8
0
  5
10C2E
 10
106.098
 20
-2.53456
 30
0.000000
  70
    32
  0
VERTEX
  8
0
  5
10C2F
 10
106.129
 20
-2.49441
 30
0.000000
  70
    32
  0
VERTEX
  8
0
  5
10C30
 10
106.160
 20
-2.45275
 30
0.000000
  70
    32
  0
VERTEX
  8
0
  5
10C31
 10
106.189
 20
-2.40962
 30
0.000000
  70
    32
  0
VERTEX
  8
0
  5
10C32
 10
106.219
 20
-2.36504
 30
0.000000
  70
    32
  0
VERTEX
  8
0
  5
10C33
 10
106.247
 20
-2.31903
 30
0.000000
  70
    32
  0
VERTEX
  8
0
  5
10C34
 10
106.276
 20
-2.27163
 30
0.000000
  70
    32
  0
VERTEX
  8
0
  5
10C35
 10
106.303
 20
-2.22285
 30
0.000000
  70
    32
  0
VERTEX
  8
0
  5
10C36
 10
106.330
 20
-2.17274
 30
0.000000
  70
    32
  0
VERTEX
  8
0
  5
10C37
 10
106.357
 20
-2.12132
 30
0.000000
  70
    32
  0
VERTEX
  8
0
  5
10C38
 10
106.382
 20
-2.06862
 30
0.000000
  70
    32
  0
VERTEX
  8
0
  5
10C39
 10
106.407
 20
-2.01468
 30
0.000000
  70
    32
  0
VERTEX
  8
0
  5
10C3A
 10
106.432
 20
-1.95952
 30
0.000000
  70
    32
  0
VERTEX
  8
0
  5
10C3B
 10
106.455
 20
-1.90318
 30
0.000000
  70
    32
  0
VERTEX
  8
0
  5
10C3C
 10
106.478
 20
-1.84569
 30
0.000000
  70
    32
  0
VERTEX
  8
0
  5
10C3D
 10
106.501
 20
-1.78710
 30
0.000000
  70
    32
  0
VERTEX
  8
0
  5
10C3E
 10
106.522
 20
-1.72742
 30
0.000000
  70
    32
  0
VERTEX
  8
0
  5
10C3F
 10
106.543
 20
-1.66671
 30
0.000000
  70
    32
  0
VERTEX
  8
0
  5
10C40
 10
106.563
 20
-1.60499
 30
0.000000
  70
    32
  0
VERTEX
  8
0
  5
10C41
 10
106.582
 20
-1.54231
 30
0.000000
  70
    32
  0
VERTEX
  8
0
  5
10C42
 10
106.601
 20
-1.47869
 30
0.000000
  70
    32
  0
VERTEX
  8
0
  5
10C43
 10
106.619
 20
-1.41419
 30
0.000000
  70
    32
  0
VERTEX
  8
0
  5
10C44
 10
106.636
 20
-1.34883
 30
0.000000
  70
    32
  0
VERTEX
  8
0
  5
10C45
 10
106.652
 20
-1.28267
 30
0.000000
  70
    32
  0
VERTEX
  8
0
  5
10C46
 10
106.667
 20
-1.21572
 30
0.000000
  70
    32
  0
VERTEX
  8
0
  5
10C47
 10
106.682
 20
-1.14805
 30
0.000000
  70
    32
  0
VERTEX
  8
0
  5
10C48
 10
106.695
 20
-1.07969
 30
0.000000
  70
    32
  0
VERTEX
  8
0
  5
10C49
 10
106.708
 20
-1.01067
 30
0.000000
  70
    32
  0
VERTEX
  8
0
  5
10C4A
 10
106.720
 20
-0.941045
 30
0.000000
  70
    32
  0
VERTEX
  8
0
  5
10C4B
 10
106.731
 20
-0.870854
 30
0.000000
  70
    32
  0
VERTEX
  8
0
  5
10C4C
 10
106.742
 20
-0.800138
 30
0.000000
  70
    32
  0
VERTEX
  8
0
  5
10C4D
 10
106.751
 20
-0.728940
 30
0.000000
  70
    32
  0
VERTEX
  8
0
  5
10C4E
 10
106.759
 20
-0.657304
 30
0.000000
  70
    32
  0
VERTEX
  8
0
  5
10C4F
 10
106.767
 20
-0.585271
 30
0.000000
  70
    32
  0
VERTEX
  8
0
  5
10C50
 10
106.774
 20
-0.512886
 30
0.000000
  70
    32
  0
VERTEX
  8
0
  5
10C51
 10
106.780
 20
-0.440191
 30
0.000000
  70
    32
  0
VERTEX
  8
0
  5
10C52
 10
106.785
 20
-0.367232
 30
0.000000
  70
    32
  0
VERTEX
  8
0
  5
10C53
 10
106.789
 20
-0.294051
 30
0.000000
  70
    32
  0
VERTEX
  8
0
  5
10C54
 10
106.792
 20
-0.220694
 30
0.000000
  70
    32
  0
VERTEX
  8
0
  5
10C55
 10
106.794
 20
-0.147203
 30
0.000000
  70
    32
  0
VERTEX
  8
0
  5
10C56
 10
106.795
 20
-0.0736236
 30
0.000000
  70
    32
  0
VERTEX
  8
0
  5
10C57
 10
106.796
 20
3.48077e-008
 30
0.000000
  70
    32
  0
VERTEX
  8
0
  5
10C58
 10
106.795
 20
0.0736237
 30
0.000000
  70
    32
  0
VERTEX
  8
0
  5
10C59
 10
106.794
 20
0.147203
 30
0.000000
  70
    32
  0
VERTEX
  8
0
  5
10C5A
 10
106.792
 20
0.220694
 30
0.000000
  70
    32
  0
VERTEX
  8
0
  5
10C5B
 10
106.789
 20
0.294051
 30
0.000000
  70
    32
  0
VERTEX
  8
0
  5
10C5C
 10
106.785
 20
0.367232
 30
0.000000
  70
    32
  0
VERTEX
  8
0
  5
10C5D
 10
106.780
 20
0.440191
 30
0.000000
  70
    32
  0
VERTEX
  8
0
  5
10C5E
 10
106.774
 20
0.512886
 30
0.000000
  70
    32
  0
VERTEX
  8
0
  5
10C5F
 10
106.767
 20
0.585271
 30
0.000000
  70
    32
  0
VERTEX
  8
0
  5
10C60
 10
106.759
 20
0.657304
 30
0.000000
  70
    32
  0
VERTEX
  8
0
  5
10C61
 10
106.751
 20
0.728941
 30
0.000000
  70
    32
  0
VERTEX
  8
0
  5
10C62
 10
106.742
 20
0.800138
 30
0.000000
  70
    32
  0
VERTEX
  8
0
  5
10C63
 10
106.731
 20
0.870854
 30
0.000000
  70
    32
  0
VERTEX
  8
0
  5
10C64
 10
106.720
 20
0.941045
 30
0.000000
  70
    32
  0
VERTEX
  8
0
  5
10C65
 10
106.708
 20
1.01067
 30
0.000000
  70
    32
  0
VERTEX
  8
0
  5
10C66
 10
106.695
 20
1.07969
 30
0.000000
  70
    32
  0
VERTEX
  8
0
  5
10C67
 10
106.682
 20
1.14805
 30
0.000000
  70
    32
  0
VERTEX
  8
0
  5
10C68
 10
106.667
 20
1.21572
 30
0.000000
  70
    32
  0
VERTEX
  8
0
  5
10C69
 10
106.652
 20
1.28267
 30
0.000000
  70
    32
  0
VERTEX
  8
0
  5
10C6A
 10
106.636
 20
1.34883
 30
0.000000
  70
    32
  0
VERTEX
  8
0
  5
10C6B
 10
106.619
 20
1.41419
 30
0.000000
  70
    32
  0
VERTEX
  8
0
  5
10C6C
 10
106.601
 20
1.47869
 30
0.000000
  70
    32
  0
VERTEX
  8
0
  5
10C6D
 10
106.582
 20
1.54231
 30
0.000000
  70
    32
  0
VERTEX
  8
0
  5
10C6E
 10
106.563
 20
1.60499
 30
0.000000
  70
    32
  0
VERTEX
  8
0
  5
10C6F
 10
106.543
 20
1.66671
 30
0.000000
  70
    32
  0
VERTEX
  8
0
  5
10C70
 10
106.522
 20
1.72742
 30
0.000000
  70
    32
  0
VERTEX
  8
0
  5
10C71
 10
106.501
 20
1.78710
 30
0.000000
  70
    32
  0
VERTEX
  8
0
  5
10C72
 10
106.478
 20
1.84569
 30
0.000000
  70
    32
  0
VERTEX
  8
0
  5
10C73
 10
106.455
 20
1.90318
 30
0.000000
  70
    32
  0
VERTEX
  8
0
  5
10C74
 10
106.432
 20
1.95952
 30
0.000000
  70
    32
  0
VERTEX
  8
0
  5
10C75
 10
106.407
 20
2.01468
 30
0.000000
  70
    32
  0
VERTEX
  8
0
  5
10C76
 10
106.382
 20
2.06862
 30
0.000000
  70
    32
  0
VERTEX
  8
0
  5
10C77
 10
106.357
 20
2.12132
 30
0.000000
  70
    32
  0
VERTEX
  8
0
  5
10C78
 10
106.330
 20
2.17274
 30
0.000000
  70
    32
  0
VERTEX
  8
0
  5
10C79
 10
106.303
 20
2.22285
 30
0.000000
  70
    32
  0
VERTEX
  8
0
  5
10C7A
 10
106.276
 20
2.27163
 30
0.000000
  70
    32
  0
VERTEX
  8
0
  5
10C7B
 10
106.247
 20
2.31903
 30
0.000000
  70
    32
  0
VERTEX
  8
0
  5
10C7C
 10
106.219
 20
2.36504
 30
0.000000
  70
    32
  0
VERTEX
  8
0
  5
10C7D
 10
106.189
 20
2.40962
 30
0.000000
  70
    32
  0
VERTEX
  8
0
  5
10C7E
 10
106.160
 20
2.45275
 30
0.000000
  70
    32
  0
VERTEX
  8
0
  5
10C7F
 10
106.129
 20
2.49441
 30
0.000000
  70
    32
  0
VERTEX
  8
0
  5
10C80
 10
106.098
 20
2.53456
 30
0.000000
  70
    32
  0
VERTEX
  8
0
  5
10C81
 10
106.067
 20
2.57319
 30
0.000000
  70
    32
  0
VERTEX
  8
0
  5
10C82
 10
106.035
 20
2.61026
 30
0.000000
  70
    32
  0
VERTEX
  8
0
  5
10C83
 10
106.003
 20
2.64576
 30
0.000000
  70
    32
  0
VERTEX
  8
0
  5
10C84
 10
105.970
 20
2.67967
 30
0.000000
  70
    32
  0
VERTEX
  8
0
  5
10C85
 10
105.937
 20
2.71197
 30
0.000000
  70
    32
  0
VERTEX
  8
0
  5
10C86
 10
105.904
 20
2.74263
 30
0.000000
  70
    32
  0
VERTEX
  8
0
  5
10C87
 10
105.870
 20
2.77164
 30
0.000000
  70
    32
  0
VERTEX
  8
0
  5
10C88
 10
105.836
 20
2.79898
 30
0.000000
  70
    32
  0
VERTEX
  8
0
  5
10C89
 10
105.801
 20
2.82463
 30
0.000000
  70
    32
  0
VERTEX
  8
0
  5
10C8A
 10
105.766
 20
2.84858
 30
0.000000
  70
    32
  0
VERTEX
  8
0
  5
10C8B
 10
105.731
 20
2.87082
 30
0.000000
  70
    32
  0
VERTEX
  8
0
  5
10C8C
 10
105.696
 20
2.89133
 30
0.000000
  70
    32
  0
VERTEX
  8
0
  5
10C8D
 10
105.660
 20
2.91009
 30
0.000000
  70
    32
  0
VERTEX
  8
0
  5
10C8E
 10
105.624
 20
2.92711
 30
0.000000
  70
    32
  0
VERTEX
  8
0
  5
10C8F
 10
105.588
 20
2.94236
 30
0.000000
  70
    32
  0
VERTEX
  8
0
  5
10C90
 10
105.552
 20
2.95583
 30
0.000000
  70
    32
  0
VERTEX
  8
0
  5
10C91
 10
105.516
 20
2.96753
 30
0.000000
  70
    32
  0
VERTEX
  8
0
  5
10C92
 10
105.479
 20
2.97744
 30
0.000000
  70
    32
  0
VERTEX
  8
0
  5
10C93
 10
105.443
 20
2.98555
 30
0.000000
  70
    32
  0
VERTEX
  8
0
  5
10C94
 10
105.406
 20
2.99187
 30
0.000000
  70
    32
  0
VERTEX
  8
0
  5
10C95
 10
105.369
 20
2.99639
 30
0.000000
  70
    32
  0
VERTEX
  8
0
  5
10C96
 10
105.333
 20
2.99910
 30
0.000000
  70
    32
  0
VERTEX
  8
0
  5
10C97
 10
105.296
 20
3.00000
 30
0.000000
  70
    32
  0
SEQEND
  8
0
  5
10C98
  0
ARC
  5
F9C8
  8
0
 10
94.795848114612909
 20
2.8040871053544829
 30
0.0
 40
8.0
 50
239.99999999999619
 51
299.99999999999721
  0
LINE
  5
F9C9
  8
0
 10
98.795848114611985
 20
2.5
 30
0.0
 11
103.7958481146124
 21
2.5
 31
0.0
  0
LINE
  5
F9CA
  8
0
 10
98.795848114611985
 20
-2.5
 30
0.0
 11
103.7958481146124
 21
-2.5
 31
0.0
  0
LINE
  5
1007E
  8
0
  6
CENTER
 10
28.0
 20
95.579352986240565
 30
0.0
 11
28.0
 21
78.01619044007407
 31
0.0
  0
CIRCLE
  5
10091
  8
0
 10
28.0
 20
86.797771682316124
 30
0.0
 40
4.0
  0
CIRCLE
  5
10092
  8
0
 10
28.0
 20
86.797771682316124
 30
0.0
 40
5.5
  0
CIRCLE
  5
10093
  8
0
 10
28.0
 20
86.797771682316124
 30
0.0
 40
3.0
  0
CIRCLE
  5
100AE
  8
0
 10
28.0
 20
0.0
 30
0.0
 40
2.9999998999996929
  0
CIRCLE
  5
100AF
  8
0
 10
-20.0
 20
0.0
 30
0.0
 40
2.9999998999996929
  0
TEXT
  5
10264
  8
0
 10
-152.997803163752
 20
175.97646402199371
 30
0.0
 40
30.0
  1
P-HANGER(S) 1S
 72
     4
 11
41.002196836247997
 21
188.83360687913651
 31
0.0
  0
LINE
  5
10265
  8
0
 10
89.795848114612454
 20
7.5
 30
0.0
 11
89.795848114612454
 21
6.0
 31
0.0
  0
LINE
  5
10266
  8
0
 10
99.795848114612454
 20
7.5
 30
0.0
 11
99.795848114612454
 21
6.0
 31
0.0
  0
LINE
  5
10267
  8
0
 10
101.2958481146124
 20
7.5
 30
0.0
 11
107.7958481146124
 21
7.5
 31
0.0
  0
LINE
  5
10268
  8
0
 10
99.795848114612454
 20
6.0
 30
0.0
 11
107.7958481146124
 21
6.0
 31
0.0
  0
LINE
  5
10269
  8
0
 10
89.795848114612454
 20
7.5
 30
0.0
 11
99.795848114612454
 21
7.5
 31
0.0
  0
LINE
  5
1026A
  8
0
 10
89.795848114612454
 20
-5.5
 30
0.0
 11
89.795848114612454
 21
-7.0
 31
0.0
  0
LINE
  5
1026B
  8
0
 10
99.795848114612454
 20
-5.5
 30
0.0
 11
99.795848114612454
 21
-7.0
 31
0.0
  0
LINE
  5
1026C
  8
0
 10
99.795848114612454
 20
-5.5
 30
0.0
 11
103.7958481146124
 21
-5.5
 31
0.0
  0
LINE
  5
1026D
  8
0
 10
89.795848114612454
 20
-7.0
 30
0.0
 11
99.795848114612454
 21
-7.0
 31
0.0
  0
LINE
  5
1026E
  8
0
 10
101.2958481146124
 20
-7.0
 30
0.0
 11
108.7958481146124
 21
-7.0
 31
0.0
  0
ENDSEC
  0
EOF
