  0
SECTION
  2
HEADER
  9
$ACADVER
  1
AC1015
  9
$ACADMAINTVER
 70
    14
  9
$DWGCODEPAGE
  3
ANSI_932
  9
$INSBASE
 10
0.0
 20
0.0
 30
0.0
  9
$EXTMIN
 10
964.2961401999873
 20
504.7860079394486
 30
-0.000000000000013
  9
$EXTMAX
 10
2426.961312657301
 20
1876.568028730794
 30
0.0000000000000023
  9
$LIMMIN
 10
0.0
 20
0.0
  9
$LIMMAX
 10
12.0
 20
9.0
  9
$ORTHOMODE
 70
     0
  9
$REGENMODE
 70
     1
  9
$FILLMODE
 70
     1
  9
$QTEXTMODE
 70
     0
  9
$MIRRTEXT
 70
     1
  9
$LTSCALE
 40
1.0
  9
$ATTMODE
 70
     1
  9
$TEXTSIZE
 40
0.2
  9
$TRACEWID
 40
0.05
  9
$TEXTSTYLE
  7
STANDARD
  9
$CLAYER
  8
0
  9
$CELTYPE
  6
CONTINUOUS
  9
$CECOLOR
 62
   256
  9
$CELTSCALE
 40
1.0
  9
$DISPSILH
 70
     0
  9
$DIMSCALE
 40
1.0
  9
$DIMASZ
 40
0.18
  9
$DIMEXO
 40
0.0625
  9
$DIMDLI
 40
0.38
  9
$DIMRND
 40
0.0
  9
$DIMDLE
 40
0.0
  9
$DIMEXE
 40
0.18
  9
$DIMTP
 40
0.0
  9
$DIMTM
 40
0.0
  9
$DIMTXT
 40
0.18
  9
$DIMCEN
 40
0.09
  9
$DIMTSZ
 40
0.0
  9
$DIMTOL
 70
     0
  9
$DIMLIM
 70
     0
  9
$DIMTIH
 70
     1
  9
$DIMTOH
 70
     1
  9
$DIMSE1
 70
     0
  9
$DIMSE2
 70
     0
  9
$DIMTAD
 70
     0
  9
$DIMZIN
 70
     0
  9
$DIMBLK
  1

  9
$DIMASO
 70
     1
  9
$DIMSHO
 70
     0
  9
$DIMPOST
  1

  9
$DIMAPOST
  1

  9
$DIMALT
 70
     0
  9
$DIMALTD
 70
     2
  9
$DIMALTF
 40
25.4
  9
$DIMLFAC
 40
1.0
  9
$DIMTOFL
 70
     0
  9
$DIMTVP
 40
0.0
  9
$DIMTIX
 70
     0
  9
$DIMSOXD
 70
     0
  9
$DIMSAH
 70
     0
  9
$DIMBLK1
  1

  9
$DIMBLK2
  1

  9
$DIMSTYLE
  2
STANDARD
  9
$DIMCLRD
 70
     0
  9
$DIMCLRE
 70
     0
  9
$DIMCLRT
 70
     0
  9
$DIMTFAC
 40
1.0
  9
$DIMGAP
 40
0.09
  9
$DIMJUST
 70
     0
  9
$DIMSD1
 70
     0
  9
$DIMSD2
 70
     0
  9
$DIMTOLJ
 70
     1
  9
$DIMTZIN
 70
     0
  9
$DIMALTZ
 70
     0
  9
$DIMALTTZ
 70
     0
  9
$DIMUPT
 70
     0
  9
$DIMDEC
 70
     4
  9
$DIMTDEC
 70
     4
  9
$DIMALTU
 70
     2
  9
$DIMALTTD
 70
     2
  9
$DIMTXSTY
  7
STANDARD
  9
$DIMAUNIT
 70
     0
  9
$DIMADEC
 70
     0
  9
$DIMALTRND
 40
0.0
  9
$DIMAZIN
 70
     0
  9
$DIMDSEP
 70
    46
  9
$DIMATFIT
 70
     3
  9
$DIMFRAC
 70
     0
  9
$DIMLDRBLK
  1

  9
$DIMLUNIT
 70
     2
  9
$DIMLWD
 70
    -2
  9
$DIMLWE
 70
    -2
  9
$DIMTMOVE
 70
     2
  9
$LUNITS
 70
     2
  9
$LUPREC
 70
     4
  9
$SKETCHINC
 40
0.1
  9
$FILLETRAD
 40
0.0
  9
$AUNITS
 70
     0
  9
$AUPREC
 70
     0
  9
$MENU
  1
.
  9
$ELEVATION
 40
0.0
  9
$PELEVATION
 40
0.0
  9
$THICKNESS
 40
0.0
  9
$LIMCHECK
 70
     0
  9
$CHAMFERA
 40
0.0
  9
$CHAMFERB
 40
0.0
  9
$CHAMFERC
 40
0.0
  9
$CHAMFERD
 40
0.0
  9
$SKPOLY
 70
     0
  9
$TDCREATE
 40
2452488.423138738
  9
$TDUCREATE
 40
2452488.048138738
  9
$TDUPDATE
 40
2456906.718921481
  9
$TDUUPDATE
 40
2456906.343921481
  9
$TDINDWG
 40
0.2869786690
  9
$TDUSRTIMER
 40
0.2869784838
  9
$USRTIMER
 70
     1
  9
$ANGBASE
 50
0.0
  9
$ANGDIR
 70
     0
  9
$PDMODE
 70
     3
  9
$PDSIZE
 40
0.0
  9
$PLINEWID
 40
0.0
  9
$SPLFRAME
 70
     0
  9
$SPLINETYPE
 70
     6
  9
$SPLINESEGS
 70
     8
  9
$HANDSEED
  5
24B3
  9
$SURFTAB1
 70
     6
  9
$SURFTAB2
 70
     6
  9
$SURFTYPE
 70
     6
  9
$SURFU
 70
     6
  9
$SURFV
 70
     6
  9
$UCSBASE
  2

  9
$UCSNAME
  2

  9
$UCSORG
 10
0.0
 20
0.0
 30
0.0
  9
$UCSXDIR
 10
1.0
 20
0.0
 30
0.0
  9
$UCSYDIR
 10
0.0
 20
1.0
 30
0.0
  9
$UCSORTHOREF
  2

  9
$UCSORTHOVIEW
 70
     0
  9
$UCSORGTOP
 10
0.0
 20
0.0
 30
0.0
  9
$UCSORGBOTTOM
 10
0.0
 20
0.0
 30
0.0
  9
$UCSORGLEFT
 10
0.0
 20
0.0
 30
0.0
  9
$UCSORGRIGHT
 10
0.0
 20
0.0
 30
0.0
  9
$UCSORGFRONT
 10
0.0
 20
0.0
 30
0.0
  9
$UCSORGBACK
 10
0.0
 20
0.0
 30
0.0
  9
$PUCSBASE
  2

  9
$PUCSNAME
  2

  9
$PUCSORG
 10
0.0
 20
0.0
 30
0.0
  9
$PUCSXDIR
 10
1.0
 20
0.0
 30
0.0
  9
$PUCSYDIR
 10
0.0
 20
1.0
 30
0.0
  9
$PUCSORTHOREF
  2

  9
$PUCSORTHOVIEW
 70
     0
  9
$PUCSORGTOP
 10
0.0
 20
0.0
 30
0.0
  9
$PUCSORGBOTTOM
 10
0.0
 20
0.0
 30
0.0
  9
$PUCSORGLEFT
 10
0.0
 20
0.0
 30
0.0
  9
$PUCSORGRIGHT
 10
0.0
 20
0.0
 30
0.0
  9
$PUCSORGFRONT
 10
0.0
 20
0.0
 30
0.0
  9
$PUCSORGBACK
 10
0.0
 20
0.0
 30
0.0
  9
$USERI1
 70
     0
  9
$USERI2
 70
     0
  9
$USERI3
 70
     0
  9
$USERI4
 70
     0
  9
$USERI5
 70
     0
  9
$USERR1
 40
0.0
  9
$USERR2
 40
0.0
  9
$USERR3
 40
0.0
  9
$USERR4
 40
0.0
  9
$USERR5
 40
0.0
  9
$WORLDVIEW
 70
     1
  9
$SHADEDGE
 70
     3
  9
$SHADEDIF
 70
    70
  9
$TILEMODE
 70
     1
  9
$MAXACTVP
 70
    48
  9
$PINSBASE
 10
0.0
 20
0.0
 30
0.0
  9
$PLIMCHECK
 70
     0
  9
$PEXTMIN
 10
1.000000000000000E+20
 20
1.000000000000000E+20
 30
1.000000000000000E+20
  9
$PEXTMAX
 10
-1.000000000000000E+20
 20
-1.000000000000000E+20
 30
-1.000000000000000E+20
  9
$PLIMMIN
 10
0.0
 20
0.0
  9
$PLIMMAX
 10
12.0
 20
9.0
  9
$UNITMODE
 70
     0
  9
$VISRETAIN
 70
     1
  9
$PLINEGEN
 70
     0
  9
$PSLTSCALE
 70
     1
  9
$TREEDEPTH
 70
  3020
  9
$CMLSTYLE
  2
Standard
  9
$CMLJUST
 70
     0
  9
$CMLSCALE
 40
1.0
  9
$PROXYGRAPHICS
 70
     1
  9
$MEASUREMENT
 70
     0
  9
$CELWEIGHT
370
    -1
  9
$ENDCAPS
280
     0
  9
$JOINSTYLE
280
     0
  9
$LWDISPLAY
290
     0
  9
$INSUNITS
 70
     0
  9
$HYPERLINKBASE
  1

  9
$STYLESHEET
  1

  9
$XEDIT
290
     1
  9
$CEPSNTYPE
380
     0
  9
$PSTYLEMODE
290
     1
  9
$FINGERPRINTGUID
  2
{FFE95C04-33D2-4560-80D0-1E2918E4EC86}
  9
$VERSIONGUID
  2
{54E23626-2CA1-4C05-988C-6121DC0EEAD4}
  9
$EXTNAMES
290
     1
  9
$PSVPSCALE
 40
0.0
  9
$OLESTARTUP
290
     0
  0
ENDSEC
  0
SECTION
  2
CLASSES
  0
CLASS
  1
ACDBDICTIONARYWDFLT
  2
AcDbDictionaryWithDefault
  3
AutoCAD 2000
 90
        0
280
     0
281
     0
  0
CLASS
  1
ACDBPLACEHOLDER
  2
AcDbPlaceHolder
  3
AutoCAD 2000
 90
        0
280
     0
281
     0
  0
CLASS
  1
LAYOUT
  2
AcDbLayout
  3
AutoCAD 2000
 90
        0
280
     0
281
     0
  0
CLASS
  1
DICTIONARYVAR
  2
AcDbDictionaryVar
  3
AutoCAD 2000
 90
        0
280
     0
281
     0
  0
CLASS
  1
LONG_TRANSACTION
  2
AcDbLongTransaction
  3
AutoCAD 2000
 90
    32768
280
     0
281
     0
  0
CLASS
  1
LWPOLYLINE
  2
AcDbPolyline
  3
AutoCAD 2000
 90
    32768
280
     0
281
     1
  0
CLASS
  1
HATCH
  2
AcDbHatch
  3
AutoCAD 2000
 90
    32768
280
     0
281
     1
  0
CLASS
  1
XRECORD
  2
AcDbXrecord
  3
AutoCAD 2000
 90
    32768
280
     0
281
     0
  0
ENDSEC
  0
SECTION
  2
TABLES
  0
TABLE
  2
VPORT
  5
21B6
330
0
100
AcDbSymbolTable
 70
     2
  0
VPORT
  5
24B2
330
21B6
100
AcDbSymbolTableRecord
100
AcDbViewportTableRecord
  2
*Active
 70
     0
 10
0.0
 20
0.0
 11
1.0
 21
1.0
 12
1695.628726428644
 22
1190.677018335121
 13
0.0
 23
0.0
 14
1.0
 24
1.0
 15
0.0
 25
0.0
 16
0.0
 26
0.0
 36
1.0
 17
0.0
 27
0.0
 37
0.0
 40
1380.491747907481
 41
1.953389830508474
 42
50.0
 43
0.0
 44
0.0
 50
0.0
 51
0.0
 71
     0
 72
   100
 73
     1
 74
     3
 75
     0
 76
     0
 77
     0
 78
     0
281
     0
 65
     1
110
0.0
120
0.0
130
0.0
111
1.0
121
0.0
131
0.0
112
0.0
122
1.0
132
0.0
 79
     0
146
0.0
  0
ENDTAB
  0
TABLE
  2
LTYPE
  5
21B3
330
0
100
AcDbSymbolTable
 70
     2
  0
LTYPE
  5
21C1
330
21B3
100
AcDbSymbolTableRecord
100
AcDbLinetypeTableRecord
  2
ByBlock
 70
     0
  3

 72
    65
 73
     0
 40
0.0
  0
LTYPE
  5
21C2
330
21B3
100
AcDbSymbolTableRecord
100
AcDbLinetypeTableRecord
  2
ByLayer
 70
     0
  3

 72
    65
 73
     0
 40
0.0
  0
LTYPE
  5
21C3
330
21B3
100
AcDbSymbolTableRecord
100
AcDbLinetypeTableRecord
  2
CONTINUOUS
 70
     0
  3
Solid line
 72
    65
 73
     0
 40
0.0
  0
LTYPE
  5
2268
330
21B3
100
AcDbSymbolTableRecord
100
AcDbLinetypeTableRecord
  2
CENTER
 70
     0
  3
Center ____ _ ____ _ ____ _ ____ _ ____ _ ____
 72
    65
 73
     4
 40
2.0
 49
1.25
 74
     0
 49
-0.25
 74
     0
 49
0.25
 74
     0
 49
-0.25
 74
     0
  0
ENDTAB
  0
TABLE
  2
LAYER
  5
21B0
102
{ACAD_XDICTIONARY
360
2244
102
}
330
0
100
AcDbSymbolTable
 70
     1
  0
LAYER
  5
21BE
330
21B0
100
AcDbSymbolTableRecord
100
AcDbLayerTableRecord
  2
0
 70
     0
 62
     7
  6
CONTINUOUS
370
    -3
390
21BD
  0
ENDTAB
  0
TABLE
  2
STYLE
  5
21B1
330
0
100
AcDbSymbolTable
 70
     1
  0
STYLE
  5
21BF
330
21B1
100
AcDbSymbolTableRecord
100
AcDbTextStyleTableRecord
  2
STANDARD
 70
     0
 40
0.0
 41
1.0
 50
0.0
 71
     0
 42
0.2
  3
txt
  4
BIGFONT
  0
ENDTAB
  0
TABLE
  2
VIEW
  5
21B4
330
0
100
AcDbSymbolTable
 70
     1
  0
VIEW
  5
21DE
330
21B4
100
AcDbSymbolTableRecord
100
AcDbViewTableRecord
  2
OLE1
 70
     0
 40
3692.141019219747
 10
1914.591370701856
 20
1272.206200738182
 41
4595.022665841169
 11
0.0
 21
0.0
 31
1.0
 12
0.0
 22
0.0
 32
0.0
 42
50.0
 43
0.0
 44
0.0
 50
0.0
 71
     0
281
     0
 72
     1
110
0.0
120
0.0
130
0.0
111
1.0
121
0.0
131
0.0
112
0.0
122
1.0
132
0.0
 79
     0
146
0.0
  0
ENDTAB
  0
TABLE
  2
UCS
  5
21B5
330
0
100
AcDbSymbolTable
 70
     0
  0
ENDTAB
  0
TABLE
  2
APPID
  5
21B7
330
0
100
AcDbSymbolTable
 70
    13
  0
APPID
  5
21C0
330
21B7
100
AcDbSymbolTableRecord
100
AcDbRegAppTableRecord
  2
ACAD
 70
     0
  0
APPID
  5
21DF
330
21B7
100
AcDbSymbolTableRecord
100
AcDbRegAppTableRecord
  2
MCAD_NO_VIS
 70
     0
  0
APPID
  5
21E0
330
21B7
100
AcDbSymbolTableRecord
100
AcDbRegAppTableRecord
  2
ACAD_TEMP_GRAPHIC
 70
     0
  0
APPID
  5
21E1
330
21B7
100
AcDbSymbolTableRecord
100
AcDbRegAppTableRecord
  2
ACATTRIBSERVICES
 70
     0
  0
APPID
  5
21E2
330
21B7
100
AcDbSymbolTableRecord
100
AcDbRegAppTableRecord
  2
CONTENTBLOCKICON
 70
     0
  0
APPID
  5
2241
330
21B7
100
AcDbSymbolTableRecord
100
AcDbRegAppTableRecord
  2
ACAD_DSTYLE_DIMJAG
 70
     0
  0
APPID
  5
2242
330
21B7
100
AcDbSymbolTableRecord
100
AcDbRegAppTableRecord
  2
ACAD_DSTYLE_DIMTALN
 70
     0
  0
APPID
  5
2243
330
21B7
100
AcDbSymbolTableRecord
100
AcDbRegAppTableRecord
  2
ACAD_PSEXT
 70
     0
  0
APPID
  5
226A
330
21B7
100
AcDbSymbolTableRecord
100
AcDbRegAppTableRecord
  2
ACAD_DSTYLE_DIMBREAK
 70
     0
  0
APPID
  5
226B
330
21B7
100
AcDbSymbolTableRecord
100
AcDbRegAppTableRecord
  2
ACAD_DSTYLE_DIMARC_LENGTH_SYMBOL
 70
     0
  0
APPID
  5
226C
330
21B7
100
AcDbSymbolTableRecord
100
AcDbRegAppTableRecord
  2
ACAD_DSTYLE_DIM_LINETYPE
 70
     0
  0
APPID
  5
226D
330
21B7
100
AcDbSymbolTableRecord
100
AcDbRegAppTableRecord
  2
ACAD_DSTYLE_DIM_EXT1_LINETYPE
 70
     0
  0
APPID
  5
226E
330
21B7
100
AcDbSymbolTableRecord
100
AcDbRegAppTableRecord
  2
ACAD_DSTYLE_DIM_EXT2_LINETYPE
 70
     0
  0
ENDTAB
  0
TABLE
  2
DIMSTYLE
  5
21B8
330
0
100
AcDbSymbolTable
 70
     1
100
AcDbDimStyleTable
 71
     1
340
21E3
  0
DIMSTYLE
105
21E3
330
21B8
100
AcDbSymbolTableRecord
100
AcDbDimStyleTableRecord
  2
STANDARD
 70
     0
279
     2
340
21BF
  0
ENDTAB
  0
TABLE
  2
BLOCK_RECORD
  5
21AF
330
0
100
AcDbSymbolTable
 70
     0
  0
BLOCK_RECORD
  5
21CC
102
{ACAD_XDICTIONARY
360
21F8
102
}
330
21AF
100
AcDbSymbolTableRecord
100
AcDbBlockTableRecord
  2
*Model_Space
340
21CF
  0
BLOCK_RECORD
  5
21C8
102
{ACAD_XDICTIONARY
360
21FA
102
}
330
21AF
100
AcDbSymbolTableRecord
100
AcDbBlockTableRecord
  2
*Paper_Space
340
21CB
  0
ENDTAB
  0
ENDSEC
  0
SECTION
  2
BLOCKS
  0
BLOCK
  5
21CD
330
21CC
100
AcDbEntity
  8
0
100
AcDbBlockBegin
  2
*Model_Space
 70
     0
 10
0.0
 20
0.0
 30
0.0
  3
*Model_Space
  1

  0
ENDBLK
  5
21CE
330
21CC
100
AcDbEntity
  8
0
100
AcDbBlockEnd
  0
BLOCK
  5
21C9
330
21C8
100
AcDbEntity
 67
     1
  8
0
100
AcDbBlockBegin
  2
*Paper_Space
 70
     0
 10
0.0
 20
0.0
 30
0.0
  3
*Paper_Space
  1

  0
ENDBLK
  5
21CA
330
21C8
100
AcDbEntity
 67
     1
  8
0
100
AcDbBlockEnd
  0
ENDSEC
  0
SECTION
  2
ENTITIES
  0
LINE
  5
2385
330
21CC
100
AcDbEntity
  8
0
  6
CENTER
 48
10.0
100
AcDbLine
 10
2336.846018418049
 20
863.4799250087713
 30
0.0
 11
2336.846018418049
 21
1010.83698963769
 31
0.0
  0
LINE
  5
2386
330
21CC
100
AcDbEntity
  8
0
  6
CENTER
 48
10.0
100
AcDbLine
 10
2231.34601841805
 20
1006.691828142094
 30
0.0
 11
2231.346018418051
 21
599.2990088599104
 31
0.0
  0
LINE
  5
2387
330
21CC
100
AcDbEntity
  8
0
  6
CENTER
 48
10.0
100
AcDbLine
 10
2426.961292879902
 20
794.9142833217613
 30
0.0
 11
2035.7307439562
 21
794.9142833217611
 31
0.0
  0
LINE
  5
2388
330
21CC
100
AcDbEntity
  8
0
  6
CENTER
 48
10.0
100
AcDbLine
 10
1658.595011337972
 20
863.4799097499822
 30
0.0
 11
1658.595011337972
 21
1010.836974378901
 31
0.0
  0
LINE
  5
2389
330
21CC
100
AcDbEntity
  8
0
  6
CENTER
 48
10.0
100
AcDbLine
 10
1831.302336269439
 20
794.9142833217615
 30
0.0
 11
964.3024153130481
 21
794.9142833217613
 31
0.0
  0
LINE
  5
238A
330
21CC
100
AcDbEntity
  8
0
  6
CENTER
 48
10.0
100
AcDbLine
 10
1658.595011337972
 20
1485.34873317375
 30
0.0
 11
1658.595011337972
 21
1594.335854022219
 31
0.0
  0
LINE
  5
238B
330
21CC
100
AcDbEntity
  8
0
  6
CENTER
 48
10.0
100
AcDbLine
 10
1604.101450913737
 20
1539.842293597985
 30
0.0
 11
1713.088571762207
 21
1539.842293597985
 31
0.0
  0
LINE
  5
238C
330
21CC
100
AcDbEntity
  8
0
  6
CENTER
 48
10.0
100
AcDbLine
 10
1831.609642704498
 20
1434.342293597984
 30
0.0
 11
1108.201151076887
 21
1434.342293597984
 31
0.0
  0
TEXT
  5
238D
330
21CC
100
AcDbEntity
  8
0
  6
Continuous
100
AcDbText
 10
1044.001725443899
 20
1828.56801143857
 30
0.0
 40
48.000002
  1
EZB2__110___　4SX2.5S
 41
0.8449620000000001
100
AcDbText
  0
LINE
  5
238E
330
21CC
100
AcDbEntity
  8
0
100
AcDbLine
 10
1624.845011337972
 20
940.9143159762287
 30
0.0
 11
1677.412206615392
 21
940.9143159762287
 31
0.0
  0
LINE
  5
238F
330
21CC
100
AcDbEntity
  8
0
100
AcDbLine
 10
2303.096018418052
 20
980.244396549302
 30
0.0
 11
2370.596018418049
 21
980.2444491144814
 31
0.0
  0
LINE
  5
2390
330
21CC
100
AcDbEntity
  8
0
100
AcDbLine
 10
1586.19492730477
 20
1434.342293597986
 30
0.0
 11
1015.194927304769
 21
1434.342293597985
 31
0.0
  0
TEXT
  5
2391
330
21CC
100
AcDbEntity
  8
0
  6
Continuous
100
AcDbText
 10
1044.001725443899
 20
1741.873968177855
 30
0.0
 40
48.000002
  1
EZB2__150___　4SX2.5S
 41
0.8449620000000001
100
AcDbText
  0
LINE
  5
2392
330
21CC
100
AcDbEntity
  8
0
100
AcDbLine
 10
1586.19492730477
 20
1517.342291690637
 30
0.0
 11
1627.046439037957
 21
1517.342291690637
 31
0.0
  0
LINE
  5
2393
330
21CC
100
AcDbEntity
  8
0
100
AcDbLine
 10
1685.495092972494
 20
1567.734014736275
 30
0.0
 11
1685.495092972494
 21
1594.342293597985
 31
0.0
  0
CIRCLE
  5
2394
330
21CC
100
AcDbEntity
  8
0
100
AcDbCircle
 10
1658.595011337972
 20
1539.842293597985
 30
0.0
 40
33.75000000000007
  0
CIRCLE
  5
2395
330
21CC
100
AcDbEntity
  8
0
100
AcDbCircle
 10
1658.595011337972
 20
1539.842293597985
 30
0.0
 40
38.75
  0
LINE
  5
2396
330
21CC
100
AcDbEntity
  8
0
100
AcDbLine
 10
1749.59502659676
 20
1559.342293597985
 30
0.0
 11
1749.59502659676
 21
1609.342293597984
 31
0.0
  0
LINE
  5
2397
330
21CC
100
AcDbEntity
  8
0
100
AcDbLine
 10
1742.59501172454
 20
1559.342287513413
 30
0.0
 11
1738.709748271648
 21
1573.842287998866
 31
0.0
  0
LINE
  5
2398
330
21CC
100
AcDbEntity
  8
0
100
AcDbLine
 10
1738.709758692185
 20
1594.842288903828
 30
0.0
 11
1742.595026094342
 21
1609.342304128139
 31
0.0
  0
LINE
  5
2399
330
21CC
100
AcDbEntity
  8
0
100
AcDbLine
 10
1738.709765061117
 20
1573.842293597984
 30
0.0
 11
1721.595026596761
 21
1573.842293597984
 31
0.0
  0
LINE
  5
239A
330
21CC
100
AcDbEntity
  8
0
100
AcDbLine
 10
1738.709765061117
 20
1594.842293597985
 30
0.0
 11
1721.595026596761
 21
1594.842293597985
 31
0.0
  0
LINE
  5
239B
330
21CC
100
AcDbEntity
  8
0
100
AcDbLine
 10
1749.59502659676
 20
1559.342293597985
 30
0.0
 11
1742.59502659676
 21
1559.342293597985
 31
0.0
  0
LINE
  5
239C
330
21CC
100
AcDbEntity
  8
0
100
AcDbLine
 10
1749.59502659676
 20
1609.342293597984
 30
0.0
 11
1742.59502659676
 21
1609.342293597984
 31
0.0
  0
LINE
  5
239D
330
21CC
100
AcDbEntity
  8
0
100
AcDbLine
 10
1790.344768290855
 20
1493.842293597984
 30
0.0
 11
1787.178222696353
 21
1485.142281390954
 31
0.0
  0
LINE
  5
239E
330
21CC
100
AcDbEntity
  8
0
100
AcDbLine
 10
1793.194765671469
 20
1493.842293597984
 30
0.0
 11
1790.344768290855
 21
1493.842293597984
 31
0.0
  0
LINE
  5
239F
330
21CC
100
AcDbEntity
  8
0
100
AcDbLine
 10
1763.594830638649
 20
1485.142304573604
 30
0.0
 11
1762.151471383249
 21
1487.642276413735
 31
0.0
  0
LINE
  5
23A0
330
21CC
100
AcDbEntity
  8
0
100
AcDbLine
 10
1756.314634903646
 20
1487.64218983822
 30
0.0
 11
1762.151457413412
 21
1487.64218983822
 31
0.0
  0
LINE
  5
23A1
330
21CC
100
AcDbEntity
  8
0
100
AcDbLine
 10
1787.178222696353
 20
1485.142281390954
 30
0.0
 11
1763.594767197348
 21
1485.142281390954
 31
0.0
  0
LINE
  5
23A2
330
21CC
100
AcDbEntity
  8
0
100
AcDbLine
 10
1756.314609736708
 20
1487.642295437732
 30
0.0
 11
1721.595022052984
 21
1537.227004952907
 31
0.0
  0
LINE
  5
23A3
330
21CC
100
AcDbEntity
  8
0
100
AcDbLine
 10
1674.444757553327
 20
1575.202554413042
 30
0.0
 11
1685.495092639611
 21
1594.342293597985
 31
0.0
  0
LINE
  5
23A4
330
21CC
100
AcDbEntity
  8
0
100
AcDbLine
 10
1685.495092639611
 20
1594.342293597985
 30
0.0
 11
1721.595026596761
 21
1594.342293597985
 31
0.0
  0
LINE
  5
23A5
330
21CC
100
AcDbEntity
  8
0
100
AcDbLine
 10
1793.194765671469
 20
1374.842293597985
 30
0.0
 11
1790.344768290855
 21
1374.842293597985
 31
0.0
  0
LINE
  5
23A6
330
21CC
100
AcDbEntity
  8
0
100
AcDbLine
 10
1790.344768290855
 20
1374.842293597985
 30
0.0
 11
1787.178222696353
 21
1383.542305805017
 31
0.0
  0
LINE
  5
23A7
330
21CC
100
AcDbEntity
  8
0
100
AcDbLine
 10
1756.314634903646
 20
1381.042397357751
 30
0.0
 11
1762.151457413412
 21
1381.042397357751
 31
0.0
  0
LINE
  5
23A8
330
21CC
100
AcDbEntity
  8
0
100
AcDbLine
 10
1763.594830638649
 20
1383.542282622367
 30
0.0
 11
1762.151471383249
 21
1381.042310782236
 31
0.0
  0
LINE
  5
23A9
330
21CC
100
AcDbEntity
  8
0
100
AcDbLine
 10
1787.178222696353
 20
1383.542305805017
 30
0.0
 11
1763.594767197348
 21
1383.542305805017
 31
0.0
  0
LINE
  5
23AA
330
21CC
100
AcDbEntity
  8
0
100
AcDbLine
 10
1742.59501172454
 20
1309.342299682558
 30
0.0
 11
1738.709748271648
 21
1294.842299197104
 31
0.0
  0
LINE
  5
23AB
330
21CC
100
AcDbEntity
  8
0
100
AcDbLine
 10
1738.709765061117
 20
1273.842293597985
 30
0.0
 11
1721.595026596761
 21
1273.842293597985
 31
0.0
  0
LINE
  5
23AC
330
21CC
100
AcDbEntity
  8
0
100
AcDbLine
 10
1738.709765061117
 20
1294.842293597985
 30
0.0
 11
1721.595026596761
 21
1294.842293597985
 31
0.0
  0
LINE
  5
23AD
330
21CC
100
AcDbEntity
  8
0
100
AcDbLine
 10
1749.59502659676
 20
1309.342293597985
 30
0.0
 11
1742.59502659676
 21
1309.342293597985
 31
0.0
  0
LINE
  5
23AE
330
21CC
100
AcDbEntity
  8
0
100
AcDbLine
 10
1756.314609736708
 20
1381.042291758238
 30
0.0
 11
1721.595022052984
 21
1331.457582243062
 31
0.0
  0
LINE
  5
23AF
330
21CC
100
AcDbEntity
  8
0
100
AcDbLine
 10
1673.952188114261
 20
1294.33518796063
 30
0.0
 11
1685.495092639611
 21
1274.342293597985
 31
0.0
  0
ARC
  5
23B0
330
21CC
100
AcDbEntity
  8
0
100
AcDbCircle
 10
1677.595011337972
 20
1316.842293597985
 30
0.0
 40
22.79999923706055
100
AcDbArc
 50
179.999994991043
 51
260.8062821040711
  0
LINE
  5
23B1
330
21CC
100
AcDbEntity
  8
0
100
AcDbLine
 10
1685.495092639611
 20
1274.342293597985
 30
0.0
 11
1721.595026596761
 21
1274.342293597985
 31
0.0
  0
LINE
  5
23B2
330
21CC
100
AcDbEntity
  8
0
100
AcDbLine
 10
1749.59502659676
 20
1259.342293597985
 30
0.0
 11
1742.59502659676
 21
1259.342293597985
 31
0.0
  0
LINE
  5
23B3
330
21CC
100
AcDbEntity
  8
0
100
AcDbLine
 10
1749.59502659676
 20
1309.342293597985
 30
0.0
 11
1749.59502659676
 21
1259.342293597985
 31
0.0
  0
LINE
  5
23B4
330
21CC
100
AcDbEntity
  8
0
100
AcDbLine
 10
1738.709758692185
 20
1273.842298292142
 30
0.0
 11
1742.595026094342
 21
1259.34228306783
 31
0.0
  0
LINE
  5
23B5
330
21CC
100
AcDbEntity
  8
0
100
AcDbLine
 10
1586.19492730477
 20
1351.342295505334
 30
0.0
 11
1654.79501210091
 21
1351.342295505334
 31
0.0
  0
LINE
  5
23B6
330
21CC
100
AcDbEntity
  8
0
100
AcDbLine
 10
1704.495005234456
 20
1594.342293597985
 30
0.0
 11
1704.495005234456
 21
1274.342293597985
 31
0.0
  0
LINE
  5
23B7
330
21CC
100
AcDbEntity
  8
0
100
AcDbLine
 10
1685.495092972494
 20
1275.342293597985
 30
0.0
 11
1685.495092972494
 21
1511.950572459696
 31
0.0
  0
LINE
  5
23B8
330
21CC
100
AcDbEntity
  8
0
100
AcDbLine
 10
1721.595026596761
 20
1594.842293597985
 30
0.0
 11
1721.595026596761
 21
1273.842293597985
 31
0.0
  0
LINE
  5
23B9
330
21CC
100
AcDbEntity
  8
0
100
AcDbLine
 10
1793.194765671469
 20
1493.842293597984
 30
0.0
 11
1793.194765671469
 21
1374.842293597985
 31
0.0
  0
LINE
  5
23BA
330
21CC
100
AcDbEntity
  8
0
100
AcDbLine
 10
1763.594844023158
 20
1485.142281390954
 30
0.0
 11
1763.594844023158
 21
1383.542305805017
 31
0.0
  0
LINE
  5
23BB
330
21CC
100
AcDbEntity
  8
0
100
AcDbLine
 10
1787.178222696353
 20
1485.142281390954
 30
0.0
 11
1787.178222696353
 21
1383.542305805017
 31
0.0
  0
LINE
  5
23BC
330
21CC
100
AcDbEntity
  8
0
100
AcDbLine
 10
1654.79501210091
 20
1316.842293597985
 30
0.0
 11
1654.79501210091
 21
1501.279066220101
 31
0.0
  0
LINE
  5
23BD
330
21CC
100
AcDbEntity
  8
0
100
AcDbLine
 10
1349.194927304769
 20
1143.342232562827
 30
0.0
 11
1349.19492730477
 21
1255.842232562828
 31
0.0
  0
LINE
  5
23BE
330
21CC
100
AcDbEntity
  8
0
100
AcDbLine
 10
1169.19492730477
 20
1143.342232562827
 30
0.0
 11
1169.19492730477
 21
1255.842232562828
 31
0.0
  0
LINE
  5
23C0
330
21CC
100
AcDbEntity
  8
0
100
AcDbLine
 10
1586.19492730477
 20
1255.842232562828
 30
0.0
 11
1015.194927304769
 21
1255.842232562828
 31
0.0
  0
LINE
  5
23C1
330
21CC
100
AcDbEntity
  8
0
100
AcDbLine
 10
1586.19492730477
 20
1612.842354633144
 30
0.0
 11
1015.194927304769
 21
1612.842354633142
 31
0.0
  0
LINE
  5
23C2
330
21CC
100
AcDbEntity
  8
0
100
AcDbLine
 10
1586.19492730477
 20
1255.842232562828
 30
0.0
 11
1586.19492730477
 21
1612.842354633144
 31
0.0
  0
LINE
  5
23C3
330
21CC
100
AcDbEntity
  8
0
100
AcDbLine
 10
1015.194927304769
 20
1255.842232562828
 30
0.0
 11
1015.194927304769
 21
1612.842354633142
 31
0.0
  0
CIRCLE
  5
23C4
330
21CC
100
AcDbEntity
  8
0
100
AcDbCircle
 10
2231.34601841805
 20
794.9142833217612
 30
0.0
 40
50.79998779296829
  0
CIRCLE
  5
23C5
330
21CC
100
AcDbEntity
  8
0
100
AcDbCircle
 10
2231.34601841805
 20
794.9142833217612
 30
0.0
 40
59.5
  0
LINE
  5
23C8
330
21CC
100
AcDbEntity
  8
0
100
AcDbLine
 10
1624.845011337972
 20
980.2444089237287
 30
0.0
 11
1692.345011337972
 21
980.2444045632793
 31
0.0
  0
LINE
  5
23C9
330
21CC
100
AcDbEntity
  8
0
100
AcDbLine
 10
1787.178222696353
 20
845.7142711147296
 30
0.0
 11
1787.178222696353
 21
744.1142955287931
 31
0.0
  0
LINE
  5
23CA
330
21CC
100
AcDbEntity
  8
0
100
AcDbLine
 10
1763.594844023158
 20
845.7142711147296
 30
0.0
 11
1763.594844023158
 21
744.1142955287931
 31
0.0
  0
LINE
  5
23CB
330
21CC
100
AcDbEntity
  8
0
100
AcDbLine
 10
2303.096018418052
 20
970.6888308002055
 30
0.0
 11
2231.34603780047
 21
989.9141803247729
 31
0.0
  0
LINE
  5
23CC
330
21CC
100
AcDbEntity
  8
0
100
AcDbLine
 10
2322.334121577523
 20
671.4072663897439
 30
0.0
 11
2325.747592291944
 21
664.7079527118495
 31
0.0
  0
LINE
  5
23CD
330
21CC
100
AcDbEntity
  8
0
100
AcDbLine
 10
2315.004312672012
 20
668.5936162816324
 30
0.0
 11
2322.334121577523
 21
671.4072663897439
 31
0.0
  0
ARC
  5
23CE
330
21CC
100
AcDbEntity
  8
0
100
AcDbCircle
 10
2311.420603378988
 20
677.9294200405111
 30
0.0
 40
10.0
100
AcDbArc
 50
236.9999999923094
 51
290.9999946648055
  0
LINE
  5
23CF
330
21CC
100
AcDbEntity
  8
0
100
AcDbLine
 10
2298.810023439932
 20
649.1555398046862
 30
0.0
 11
2292.914868798611
 21
652.9838981777236
 31
0.0
  0
LINE
  5
23D0
330
21CC
100
AcDbEntity
  8
0
100
AcDbLine
 10
2273.141572792905
 20
657.8186164609563
 30
0.0
 11
2276.555033054223
 21
651.1193232984331
 31
0.0
  0
LINE
  5
23D1
330
21CC
100
AcDbEntity
  8
0
100
AcDbLine
 10
2283.884876322516
 20
653.9329865971803
 30
0.0
 11
2276.555033054223
 21
651.1193232984331
 31
0.0
  0
ARC
  5
23D2
330
21CC
100
AcDbEntity
  8
0
100
AcDbCircle
 10
2287.4685770118
 20
644.5972056850426
 30
0.0
 40
10.0
100
AcDbArc
 50
57.00000158617013
 51
110.9999996737642
  0
LINE
  5
23D3
330
21CC
100
AcDbEntity
  8
0
100
AcDbLine
 10
2273.141572792905
 20
657.8186164609563
 30
0.0
 11
2300.079146408953
 21
673.3710321186364
 31
0.0
  0
LINE
  5
23D4
330
21CC
100
AcDbEntity
  8
0
100
AcDbLine
 10
2300.079146408953
 20
673.3710321186364
 30
0.0
 11
2305.974160521929
 21
669.5427650057772
 31
0.0
  0
LINE
  5
23D5
330
21CC
100
AcDbEntity
  8
0
100
AcDbLine
 10
2325.747592291944
 20
664.7079527118495
 30
0.0
 11
2298.810023439932
 21
649.1555398046862
 31
0.0
  0
ARC
  5
23D6
330
21CC
100
AcDbEntity
  8
0
100
AcDbCircle
 10
2274.296076150471
 20
949.5113659369726
 30
0.0
 40
10.0
100
AcDbArc
 50
201.0000015861687
 51
254.9999996737654
  0
LINE
  5
23D7
330
21CC
100
AcDbEntity
  8
0
100
AcDbLine
 10
2271.707916572066
 20
939.8521141094995
 30
0.0
 11
2279.291714134139
 21
937.820041759917
 31
0.0
  0
LINE
  5
23D8
330
21CC
100
AcDbEntity
  8
0
100
AcDbLine
 10
2278.115515773456
 20
930.3938181402463
 30
0.0
 11
2279.291714134139
 21
937.820041759917
 31
0.0
  0
LINE
  5
23D9
330
21CC
100
AcDbEntity
  8
0
100
AcDbLine
 10
2262.44133167877
 20
952.4899311182615
 30
0.0
 11
2264.960359375906
 21
945.9276391757656
 31
0.0
  0
LINE
  5
23DA
330
21CC
100
AcDbEntity
  8
0
100
AcDbLine
 10
2237.914461792112
 20
946.282961292427
 30
0.0
 11
2230.330699783372
 21
948.3150241155223
 31
0.0
  0
ARC
  5
23DB
330
21CC
100
AcDbEntity
  8
0
100
AcDbCircle
 10
2235.326295745302
 20
936.6236859244034
 30
0.0
 40
10.0
100
AcDbArc
 50
20.99999999230872
 51
74.99999466480635
  0
LINE
  5
23DC
330
21CC
100
AcDbEntity
  8
0
100
AcDbLine
 10
2247.181080369737
 20
933.6451580736577
 30
0.0
 11
2244.662112721036
 21
940.2072935846302
 31
0.0
  0
LINE
  5
23DD
330
21CC
100
AcDbEntity
  8
0
100
AcDbLine
 10
2230.330699783372
 20
948.3150241155223
 30
0.0
 11
2231.506901745953
 21
955.7412704766575
 31
0.0
  0
LINE
  5
23DE
330
21CC
100
AcDbEntity
  8
0
100
AcDbLine
 10
2231.506901745953
 20
955.7412704766575
 30
0.0
 11
2262.44133167877
 21
952.4899311182615
 31
0.0
  0
LINE
  5
23DF
330
21CC
100
AcDbEntity
  8
0
100
AcDbLine
 10
2278.115515773456
 20
930.3938181402463
 30
0.0
 11
2247.181080369737
 21
933.6451580736577
 31
0.0
  0
LINE
  5
23E0
330
21CC
100
AcDbEntity
  8
0
100
AcDbLine
 10
2376.925041841639
 20
843.2833445803662
 30
0.0
 11
2384.351288230264
 21
844.4595463693802
 31
0.0
  0
LINE
  5
23E1
330
21CC
100
AcDbEntity
  8
0
100
AcDbLine
 10
2368.180224112219
 20
822.7244424095104
 30
0.0
 11
2373.642782039012
 21
827.1479343984264
 31
0.0
  0
LINE
  5
23E2
330
21CC
100
AcDbEntity
  8
0
100
AcDbLine
 10
2374.647282333
 20
792.2993267469792
 30
0.0
 11
2368.180224112219
 21
822.7244424095104
 31
0.0
  0
LINE
  5
23E3
330
21CC
100
AcDbEntity
  8
0
100
AcDbLine
 10
2390.818345307317
 20
814.0344360876742
 30
0.0
 11
2385.35565716129
 21
809.6108386493051
 31
0.0
  0
LINE
  5
23E4
330
21CC
100
AcDbEntity
  8
0
100
AcDbLine
 10
2374.647282333
 20
792.2993267469792
 30
0.0
 11
2382.073505980161
 21
793.4755249341004
 31
0.0
  0
LINE
  5
23E5
330
21CC
100
AcDbEntity
  8
0
100
AcDbLine
 10
2381.662599301234
 20
801.3160899135954
 30
0.0
 11
2382.073505980161
 21
793.4755249341004
 31
0.0
  0
ARC
  5
23E6
330
21CC
100
AcDbEntity
  8
0
100
AcDbCircle
 10
2391.64887898817
 20
801.8394768489795
 30
0.0
 40
10.0
100
AcDbArc
 50
129.0000015861741
 51
182.9999996737621
  0
ARC
  5
23E7
330
21CC
100
AcDbEntity
  8
0
100
AcDbCircle
 10
2367.349642520032
 20
834.919428299956
 30
0.0
 40
10.0
100
AcDbArc
 50
308.9999999923079
 51
2.999994664806186
  0
LINE
  5
23E8
330
21CC
100
AcDbEntity
  8
0
100
AcDbLine
 10
2384.351288230264
 20
844.4595463693802
 30
0.0
 11
2390.818345307317
 21
814.0344360876742
 31
0.0
  0
LINE
  5
23E9
330
21CC
100
AcDbEntity
  8
0
100
AcDbLine
 10
2377.335946594209
 20
835.4428163579484
 30
0.0
 11
2376.925041841639
 21
843.2833445803662
 31
0.0
  0
ARC
  5
23EA
330
21CC
100
AcDbEntity
  8
0
100
AcDbCircle
 10
2144.831209456972
 20
682.6085166664969
 30
0.0
 40
10.0
100
AcDbArc
 50
164.9999999923075
 51
218.9999946648055
  0
LINE
  5
23EB
330
21CC
100
AcDbEntity
  8
0
100
AcDbLine
 10
2137.05975953168
 20
676.3152845732165
 30
0.0
 11
2142.000735318898
 21
670.2136877500614
 31
0.0
  0
LINE
  5
23EC
330
21CC
100
AcDbEntity
  8
0
100
AcDbLine
 10
2142.000735318898
 20
670.2136877500614
 30
0.0
 11
2136.684129851388
 21
664.8970824068101
 31
0.0
  0
ARC
  5
23ED
330
21CC
100
AcDbEntity
  8
0
100
AcDbCircle
 10
2105.728806594477
 20
695.0880267254953
 30
0.0
 40
10.0
100
AcDbArc
 50
345.0000015861713
 51
38.99999967376216
  0
LINE
  5
23EE
330
21CC
100
AcDbEntity
  8
0
100
AcDbLine
 10
2113.500237449928
 20
701.3812435761036
 30
0.0
 11
2108.559238498985
 21
707.4828690040723
 31
0.0
  0
LINE
  5
23EF
330
21CC
100
AcDbEntity
  8
0
100
AcDbLine
 10
2113.875827685404
 20
712.7994580662336
 30
0.0
 11
2108.559238498985
 21
707.4828690040723
 31
0.0
  0
LINE
  5
23F0
330
21CC
100
AcDbEntity
  8
0
100
AcDbLine
 10
2113.568739649501
 20
685.7102729048183
 30
0.0
 11
2115.388021858255
 21
692.4999259388386
 31
0.0
  0
LINE
  5
23F1
330
21CC
100
AcDbEntity
  8
0
100
AcDbLine
 10
2113.875827685404
 20
712.7994580662336
 30
0.0
 11
2136.991221975357
 21
691.9862638873155
 31
0.0
  0
LINE
  5
23F2
330
21CC
100
AcDbEntity
  8
0
100
AcDbLine
 10
2136.684129851388
 20
664.8970824068101
 30
0.0
 11
2113.568739649501
 21
685.7102729048183
 31
0.0
  0
LINE
  5
23F3
330
21CC
100
AcDbEntity
  8
0
100
AcDbLine
 10
2136.991221975357
 20
691.9862638873155
 30
0.0
 11
2135.171983134543
 21
685.1967727046385
 31
0.0
  0
LINE
  5
23F4
330
21CC
100
AcDbEntity
  8
0
100
AcDbLine
 10
2309.34644444544
 20
655.2148433101938
 30
0.0
 11
2321.346020643404
 21
640.9143059347925
 31
0.0
  0
LINE
  5
23F5
330
21CC
100
AcDbEntity
  8
0
100
AcDbLine
 10
2409.846079453206
 20
634.9142833217614
 30
0.0
 11
2321.346079453205
 21
634.9142833217614
 31
0.0
  0
LINE
  5
23F6
330
21CC
100
AcDbEntity
  8
0
100
AcDbLine
 10
2321.346079453205
 20
640.9142833217615
 30
0.0
 11
2321.346079453205
 21
634.9142833217614
 31
0.0
  0
LINE
  5
23F7
330
21CC
100
AcDbEntity
  8
0
100
AcDbLine
 10
2381.346079453208
 20
652.9142833217616
 30
0.0
 11
2381.346079453208
 21
634.9142833217614
 31
0.0
  0
LINE
  5
23F8
330
21CC
100
AcDbEntity
  8
0
100
AcDbLine
 10
2356.739560440213
 20
695.5339048804598
 30
0.0
 11
2381.346015692885
 21
652.9142749536104
 31
0.0
  0
LINE
  5
23F9
330
21CC
100
AcDbEntity
  8
0
100
AcDbLine
 10
2409.846079453208
 20
942.0852379141207
 30
0.0
 11
2371.596018418049
 21
952.3343109648337
 31
0.0
  0
LINE
  5
23FA
330
21CC
100
AcDbEntity
  8
0
100
AcDbLine
 10
2328.346079453207
 20
634.9142833217614
 30
0.0
 11
2328.346079453207
 21
594.9142833217614
 31
0.0
  0
LINE
  5
23FB
330
21CC
100
AcDbEntity
  8
0
100
AcDbLine
 10
2350.846079453208
 20
594.9142833217614
 30
0.0
 11
2328.346079453207
 21
594.9142833217614
 31
0.0
  0
LINE
  5
23FC
330
21CC
100
AcDbEntity
  8
0
100
AcDbLine
 10
2410.846079453206
 20
594.9142833217614
 30
0.0
 11
2410.846079453206
 21
579.2444224819173
 31
0.0
  0
LINE
  5
23FD
330
21CC
100
AcDbEntity
  8
0
100
AcDbLine
 10
2410.846079453206
 20
594.9142833217614
 30
0.0
 11
2409.846079453206
 21
594.9142833217614
 31
0.0
  0
LINE
  5
23FE
330
21CC
100
AcDbEntity
  8
0
100
AcDbLine
 10
2409.846079453208
 20
942.0852379141207
 30
0.0
 11
2409.846079453206
 21
594.9142833217614
 31
0.0
  0
ARC
  5
23FF
330
21CC
100
AcDbEntity
  8
0
100
AcDbCircle
 10
2350.846079453208
 20
579.9142833217614
 30
0.0
 40
15.0
100
AcDbArc
 50
357.6236438758481
 51
89.99999749552477
  0
LINE
  5
2400
330
21CC
100
AcDbEntity
  8
0
100
AcDbLine
 10
2373.34620152352
 20
569.9142833217614
 30
0.0
 11
2373.34620152352
 21
544.9145274623864
 31
0.0
  0
LINE
  5
2401
330
21CC
100
AcDbEntity
  8
0
100
AcDbLine
 10
2360.846079453208
 20
510.9142833217616
 30
0.0
 11
2360.846079453208
 21
504.9142833217614
 31
0.0
  0
LINE
  5
2402
330
21CC
100
AcDbEntity
  8
0
100
AcDbLine
 10
2380.34620152352
 20
510.9142833217616
 30
0.0
 11
2380.34620152352
 21
544.9145274623864
 31
0.0
  0
LINE
  5
2403
330
21CC
100
AcDbEntity
  8
0
100
AcDbLine
 10
2396.345957382894
 20
510.9142833217616
 30
0.0
 11
2396.345957382894
 21
544.9145274623864
 31
0.0
  0
LINE
  5
2404
330
21CC
100
AcDbEntity
  8
0
100
AcDbLine
 10
2403.345957382895
 20
569.9142833217614
 30
0.0
 11
2403.345957382895
 21
544.9145274623864
 31
0.0
  0
LINE
  5
2405
330
21CC
100
AcDbEntity
  8
0
100
AcDbLine
 10
2415.84620152352
 20
510.9142833217616
 30
0.0
 11
2415.84620152352
 21
504.9142833217614
 31
0.0
  0
LINE
  5
2406
330
21CC
100
AcDbEntity
  8
0
100
AcDbLine
 10
2373.346323593831
 20
544.9145274623864
 30
0.0
 11
2403.345957382895
 21
544.9145274623864
 31
0.0
  0
LINE
  5
2407
330
21CC
100
AcDbEntity
  8
0
100
AcDbLine
 10
2415.84620152352
 20
504.9142833217614
 30
0.0
 11
2360.846079453208
 21
504.9142833217614
 31
0.0
  0
LINE
  5
2408
330
21CC
100
AcDbEntity
  8
0
100
AcDbLine
 10
2368.346020720415
 20
569.914283321762
 30
0.0
 11
2408.346034291659
 21
569.9142833217614
 31
0.0
  0
LINE
  5
2409
330
21CC
100
AcDbEntity
  8
0
100
AcDbLine
 10
2415.84620152352
 20
510.9142833217616
 30
0.0
 11
2360.846079453208
 21
510.9142833217616
 31
0.0
  0
LINE
  5
240A
330
21CC
100
AcDbEntity
  8
0
100
AcDbLine
 10
2410.846028539816
 20
579.2443887963145
 30
0.0
 11
2408.346034291659
 21
569.9142833217614
 31
0.0
  0
LINE
  5
240B
330
21CC
100
AcDbEntity
  8
0
100
AcDbLine
 10
2365.833179836915
 20
579.2923330917131
 30
0.0
 11
2368.346020720415
 21
569.914283321762
 31
0.0
  0
CIRCLE
  5
240C
330
21CC
100
AcDbEntity
  8
0
100
AcDbCircle
 10
2231.34601841805
 20
794.9142833217612
 30
0.0
 40
102.8847113549219
  0
CIRCLE
  5
240D
330
21CC
100
AcDbEntity
  8
0
100
AcDbCircle
 10
2231.34601841805
 20
794.9142833217612
 30
0.0
 40
160.0
  0
LINE
  5
240E
330
21CC
100
AcDbEntity
  8
0
100
AcDbLine
 10
1756.314609736708
 20
848.2142851615078
 30
0.0
 11
1721.595022052984
 21
897.7989946766838
 31
0.0
  0
LINE
  5
240F
330
21CC
100
AcDbEntity
  8
0
100
AcDbLine
 10
1793.194765671469
 20
854.4142833217613
 30
0.0
 11
1790.344768290855
 21
854.4142833217613
 31
0.0
  0
LINE
  5
2410
330
21CC
100
AcDbEntity
  8
0
100
AcDbLine
 10
1790.344768290855
 20
854.4142833217613
 30
0.0
 11
1787.178222696353
 21
845.7142711147296
 31
0.0
  0
LINE
  5
2411
330
21CC
100
AcDbEntity
  8
0
100
AcDbLine
 10
1756.314634903646
 20
848.2141795619972
 30
0.0
 11
1762.151457413412
 21
848.2141795619972
 31
0.0
  0
LINE
  5
2412
330
21CC
100
AcDbEntity
  8
0
100
AcDbLine
 10
1763.594830638649
 20
845.7142942973794
 30
0.0
 11
1762.151471383249
 21
848.214266137511
 31
0.0
  0
LINE
  5
2413
330
21CC
100
AcDbEntity
  8
0
100
AcDbLine
 10
1787.178222696353
 20
845.7142711147296
 30
0.0
 11
1763.594767197348
 21
845.7142711147296
 31
0.0
  0
ARC
  5
2414
330
21CC
100
AcDbEntity
  8
0
100
AcDbCircle
 10
1677.595011337972
 20
912.4142833217613
 30
0.0
 40
22.79999923706055
100
AcDbArc
 50
99.19371789592881
 51
180.0000050089569
  0
LINE
  5
2415
330
21CC
100
AcDbEntity
  8
0
100
AcDbLine
 10
1673.952188114261
 20
934.9213889591165
 30
0.0
 11
1685.495092639611
 21
954.9142833217613
 31
0.0
  0
LINE
  5
2416
330
21CC
100
AcDbEntity
  8
0
100
AcDbLine
 10
1685.495092639611
 20
954.9142833217613
 30
0.0
 11
1721.595026596761
 21
954.9142833217613
 31
0.0
  0
LINE
  5
2417
330
21CC
100
AcDbEntity
  8
0
100
AcDbLine
 10
1749.59502659676
 20
919.914283321761
 30
0.0
 11
1742.59502659676
 21
919.914283321761
 31
0.0
  0
LINE
  5
2418
330
21CC
100
AcDbEntity
  8
0
100
AcDbLine
 10
1738.709758692185
 20
955.4142786276043
 30
0.0
 11
1742.595026094342
 21
969.9142938519162
 31
0.0
  0
LINE
  5
2419
330
21CC
100
AcDbEntity
  8
0
100
AcDbLine
 10
1749.59502659676
 20
969.914283321761
 30
0.0
 11
1742.59502659676
 21
969.914283321761
 31
0.0
  0
LINE
  5
241A
330
21CC
100
AcDbEntity
  8
0
100
AcDbLine
 10
1742.59501172454
 20
919.9142772371887
 30
0.0
 11
1738.709748271648
 21
934.4142777226416
 31
0.0
  0
LINE
  5
241B
330
21CC
100
AcDbEntity
  8
0
100
AcDbLine
 10
1749.59502659676
 20
919.914283321761
 30
0.0
 11
1749.59502659676
 21
969.914283321761
 31
0.0
  0
LINE
  5
241C
330
21CC
100
AcDbEntity
  8
0
100
AcDbLine
 10
1738.709765061117
 20
955.4142833217612
 30
0.0
 11
1721.595026596761
 21
955.4142833217612
 31
0.0
  0
LINE
  5
241D
330
21CC
100
AcDbEntity
  8
0
100
AcDbLine
 10
1738.709765061117
 20
934.4142833217613
 30
0.0
 11
1721.595026596761
 21
934.4142833217613
 31
0.0
  0
LINE
  5
241E
330
21CC
100
AcDbEntity
  8
0
100
AcDbLine
 10
2375.596018418049
 20
982.0643003509784
 30
0.0
 11
2370.596018418049
 21
980.2444491144814
 31
0.0
  0
LINE
  5
241F
330
21CC
100
AcDbEntity
  8
0
100
AcDbLine
 10
2375.596018418049
 20
984.914283321761
 30
0.0
 11
2375.596018418049
 21
982.0643003509784
 31
0.0
  0
LINE
  5
2420
330
21CC
100
AcDbEntity
  8
0
100
AcDbLine
 10
2370.596024725367
 20
940.914300921484
 30
0.0
 11
2371.596004224886
 21
939.9143214219677
 31
0.0
  0
LINE
  5
2421
330
21CC
100
AcDbEntity
  8
0
100
AcDbLine
 10
2370.596018418049
 20
980.2444491144814
 30
0.0
 11
2370.596018418049
 21
940.9142833217613
 31
0.0
  0
LINE
  5
2422
330
21CC
100
AcDbEntity
  8
0
100
AcDbLine
 10
2298.096018418049
 20
984.914283321761
 30
0.0
 11
2298.096018418049
 21
982.0642477858017
 31
0.0
  0
LINE
  5
2423
330
21CC
100
AcDbEntity
  8
0
100
AcDbLine
 10
2298.096018418049
 20
982.0642477858017
 30
0.0
 11
2303.096018418052
 21
980.244396549302
 31
0.0
  0
LINE
  5
2424
330
21CC
100
AcDbEntity
  8
0
100
AcDbLine
 10
2303.09611375676
 20
940.9142577631108
 30
0.0
 11
2302.096080309277
 21
939.9142243156283
 31
0.0
  0
LINE
  5
2425
330
21CC
100
AcDbEntity
  8
0
100
AcDbLine
 10
2302.096018418049
 20
939.9142222866046
 30
0.0
 11
2302.096018418049
 21
938.4219050705732
 31
0.0
  0
LINE
  5
2426
330
21CC
100
AcDbEntity
  8
0
100
AcDbLine
 10
2303.096018418052
 20
980.244396549302
 30
0.0
 11
2303.096018418052
 21
940.9142222866048
 31
0.0
  0
LINE
  5
2427
330
21CC
100
AcDbEntity
  8
0
100
AcDbLine
 10
2370.596018418049
 20
940.9142833217613
 30
0.0
 11
2303.096079453205
 21
940.9142833217613
 31
0.0
  0
LINE
  5
2428
330
21CC
100
AcDbEntity
  8
0
100
AcDbLine
 10
2375.596018418049
 20
984.914283321761
 30
0.0
 11
2298.096018418049
 21
984.914283321761
 31
0.0
  0
LINE
  5
2429
330
21CC
100
AcDbEntity
  8
0
100
AcDbLine
 10
2371.596018418049
 20
939.9142833217613
 30
0.0
 11
2371.596018418049
 21
871.9203707434717
 31
0.0
  0
LINE
  5
242A
330
21CC
100
AcDbEntity
  8
0
100
AcDbLine
 10
1940.345957382895
 20
911.914283321761
 30
0.0
 11
2052.845957382895
 21
911.914283321761
 31
0.0
  0
LINE
  5
242B
330
21CC
100
AcDbEntity
  8
0
100
AcDbLine
 10
2052.845957382895
 20
942.0852379141207
 30
0.0
 11
2231.345999035633
 21
989.9141803247729
 31
0.0
  0
LINE
  5
242C
330
21CC
100
AcDbEntity
  8
0
100
AcDbLine
 10
2089.415611500242
 20
847.9367381035833
 30
0.0
 11
2085.139493568822
 21
841.3520937731135
 31
0.0
  0
LINE
  5
242D
330
21CC
100
AcDbEntity
  8
0
100
AcDbLine
 10
2085.139493568822
 20
841.3520937731135
 30
0.0
 11
2078.440179970703
 21
844.7655646441116
 31
0.0
  0
LINE
  5
242E
330
21CC
100
AcDbEntity
  8
0
100
AcDbLine
 10
2104.298419223984
 20
852.844520119688
 30
0.0
 11
2097.279053673735
 21
852.476650915336
 31
0.0
  0
LINE
  5
242F
330
21CC
100
AcDbEntity
  8
0
100
AcDbLine
 10
2091.091652014735
 20
873.181236693367
 30
0.0
 11
2098.111184896191
 21
873.5491146671755
 31
0.0
  0
LINE
  5
2430
330
21CC
100
AcDbEntity
  8
0
100
AcDbLine
 10
2105.974462444511
 20
878.0889824124306
 30
0.0
 11
2110.250600422744
 21
884.6736576122847
 31
0.0
  0
LINE
  5
2431
330
21CC
100
AcDbEntity
  8
0
100
AcDbLine
 10
2116.949893505489
 20
881.2601971943923
 30
0.0
 11
2110.250600422744
 21
884.6736576122847
 31
0.0
  0
ARC
  5
2432
330
21CC
100
AcDbEntity
  8
0
100
AcDbCircle
 10
2097.587753345338
 20
883.5353414123209
 30
0.0
 40
10.0
100
AcDbArc
 50
273.0000015861668
 51
326.9999996737617
  0
LINE
  5
2433
330
21CC
100
AcDbEntity
  8
0
100
AcDbLine
 10
2116.949893505489
 20
881.2601971943923
 30
0.0
 11
2104.298419223984
 21
852.844520119688
 31
0.0
  0
LINE
  5
2434
330
21CC
100
AcDbEntity
  8
0
100
AcDbLine
 10
2078.440179970703
 20
844.7655646441116
 30
0.0
 11
2091.091652014735
 21
873.181236693367
 31
0.0
  0
ARC
  5
2435
330
21CC
100
AcDbEntity
  8
0
100
AcDbCircle
 10
2097.802340988963
 20
842.4903656774429
 30
0.0
 40
10.0
100
AcDbArc
 50
92.99999999230873
 51
146.999994664805
  0
LINE
  5
2436
330
21CC
100
AcDbEntity
  8
0
100
AcDbLine
 10
2141.345957382895
 20
640.9142833217615
 30
0.0
 11
2141.345957382895
 21
634.9142833217614
 31
0.0
  0
LINE
  5
2437
330
21CC
100
AcDbEntity
  8
0
100
AcDbLine
 10
2153.345592390662
 20
655.2148433101938
 30
0.0
 11
2141.346016192699
 21
640.9143059347925
 31
0.0
  0
LINE
  5
2438
330
21CC
100
AcDbEntity
  8
0
100
AcDbLine
 10
2081.345957382894
 20
652.9142833217616
 30
0.0
 11
2081.345957382894
 21
634.9142833217614
 31
0.0
  0
LINE
  5
2439
330
21CC
100
AcDbEntity
  8
0
100
AcDbLine
 10
2105.952476395889
 20
695.5339048804598
 30
0.0
 11
2081.346021143219
 21
652.9142749536104
 31
0.0
  0
LINE
  5
243A
330
21CC
100
AcDbEntity
  8
0
100
AcDbLine
 10
2096.858856999187
 20
579.2923330917131
 30
0.0
 11
2094.346016115686
 21
569.914283321762
 31
0.0
  0
ARC
  5
243B
330
21CC
100
AcDbEntity
  8
0
100
AcDbCircle
 10
2111.845957382894
 20
579.9142833217614
 30
0.0
 40
15.0
100
AcDbArc
 50
90.0000025044752
 51
182.3763561241518
  0
LINE
  5
243C
330
21CC
100
AcDbEntity
  8
0
100
AcDbLine
 10
2111.845957382894
 20
594.9142833217614
 30
0.0
 11
2134.345957382895
 21
594.9142833217614
 31
0.0
  0
LINE
  5
243D
330
21CC
100
AcDbEntity
  8
0
100
AcDbLine
 10
2101.845957382895
 20
510.9142833217616
 30
0.0
 11
2101.845957382895
 21
504.9142833217614
 31
0.0
  0
LINE
  5
243E
330
21CC
100
AcDbEntity
  8
0
100
AcDbLine
 10
2046.84583531258
 20
510.9142833217616
 30
0.0
 11
2101.845957382895
 21
510.9142833217616
 31
0.0
  0
LINE
  5
243F
330
21CC
100
AcDbEntity
  8
0
100
AcDbLine
 10
2082.34583531258
 20
510.9142833217616
 30
0.0
 11
2082.34583531258
 21
544.9145274623864
 31
0.0
  0
LINE
  5
2440
330
21CC
100
AcDbEntity
  8
0
100
AcDbLine
 10
2089.345835312582
 20
569.9142833217614
 30
0.0
 11
2089.345835312582
 21
544.9145274623864
 31
0.0
  0
LINE
  5
2441
330
21CC
100
AcDbEntity
  8
0
100
AcDbLine
 10
2134.345957382895
 20
634.9142833217614
 30
0.0
 11
2134.345957382895
 21
594.9142833217614
 31
0.0
  0
LINE
  5
2442
330
21CC
100
AcDbEntity
  8
0
100
AcDbLine
 10
1940.34603809998
 20
722.9143014202145
 30
0.0
 11
2052.845957382895
 21
692.7700386471378
 31
0.0
  0
LINE
  5
2443
330
21CC
100
AcDbEntity
  8
0
100
AcDbLine
 10
2051.845957382894
 20
594.9142833217614
 30
0.0
 11
2052.845957382895
 21
594.9142833217614
 31
0.0
  0
LINE
  5
2444
330
21CC
100
AcDbEntity
  8
0
100
AcDbLine
 10
2051.846008296286
 20
579.2443887963145
 30
0.0
 11
2054.346002544443
 21
569.9142833217614
 31
0.0
  0
LINE
  5
2445
330
21CC
100
AcDbEntity
  8
0
100
AcDbLine
 10
2051.845957382894
 20
594.9142833217614
 30
0.0
 11
2051.845957382894
 21
579.2444224819173
 31
0.0
  0
LINE
  5
2446
330
21CC
100
AcDbEntity
  8
0
100
AcDbLine
 10
2046.84583531258
 20
510.9142833217616
 30
0.0
 11
2046.84583531258
 21
504.9142833217614
 31
0.0
  0
LINE
  5
2447
330
21CC
100
AcDbEntity
  8
0
100
AcDbLine
 10
2066.346079453205
 20
510.9142833217616
 30
0.0
 11
2066.346079453205
 21
544.9145274623864
 31
0.0
  0
LINE
  5
2448
330
21CC
100
AcDbEntity
  8
0
100
AcDbLine
 10
2059.346079453205
 20
569.9142833217614
 30
0.0
 11
2059.346079453205
 21
544.9145274623864
 31
0.0
  0
LINE
  5
2449
330
21CC
100
AcDbEntity
  8
0
100
AcDbLine
 10
2052.845957382895
 20
942.0852379141207
 30
0.0
 11
2052.845957382895
 21
594.9142833217614
 31
0.0
  0
LINE
  5
244A
330
21CC
100
AcDbEntity
  8
0
100
AcDbLine
 10
2046.84583531258
 20
504.9142833217614
 30
0.0
 11
2101.845957382895
 21
504.9142833217614
 31
0.0
  0
LINE
  5
244B
330
21CC
100
AcDbEntity
  8
0
100
AcDbLine
 10
2089.345713242268
 20
544.9145274623864
 30
0.0
 11
2059.346079453205
 21
544.9145274623864
 31
0.0
  0
LINE
  5
244C
330
21CC
100
AcDbEntity
  8
0
100
AcDbLine
 10
2094.346016115686
 20
569.914283321762
 30
0.0
 11
2054.346002544443
 21
569.9142833217614
 31
0.0
  0
LINE
  5
244D
330
21CC
100
AcDbEntity
  8
0
100
AcDbLine
 10
2052.845957382895
 20
634.9142833217614
 30
0.0
 11
2141.345957382895
 21
634.9142833217614
 31
0.0
  0
LINE
  5
244E
330
21CC
100
AcDbEntity
  8
0
100
AcDbLine
 10
2134.345957382895
 20
630.9142833217614
 30
0.0
 11
2328.346079453207
 21
630.9142833217614
 31
0.0
  0
LINE
  5
244F
330
21CC
100
AcDbEntity
  8
0
100
AcDbLine
 10
1940.345957382895
 20
911.914283321761
 30
0.0
 11
1940.345957382895
 21
722.9142833217612
 31
0.0
  0
LINE
  5
2450
330
21CC
100
AcDbEntity
  8
0
100
AcDbLine
 10
1697.345011337972
 20
982.0642557997761
 30
0.0
 11
1692.345011337972
 21
980.2444045632793
 31
0.0
  0
LINE
  5
2451
330
21CC
100
AcDbEntity
  8
0
100
AcDbLine
 10
1697.345011337972
 20
984.914268062972
 30
0.0
 11
1697.345011337972
 21
982.0642557997761
 31
0.0
  0
LINE
  5
2452
330
21CC
100
AcDbEntity
  8
0
100
AcDbLine
 10
1619.845011337972
 20
982.0642601602267
 30
0.0
 11
1624.845011337972
 21
980.2444089237287
 31
0.0
  0
LINE
  5
2453
330
21CC
100
AcDbEntity
  8
0
100
AcDbLine
 10
1619.845011337972
 20
984.914268062972
 30
0.0
 11
1619.845011337972
 21
982.0642601602267
 31
0.0
  0
LINE
  5
2454
330
21CC
100
AcDbEntity
  8
0
100
AcDbLine
 10
1697.345011337972
 20
984.914268062972
 30
0.0
 11
1619.845011337972
 21
984.914268062972
 31
0.0
  0
LINE
  5
2455
330
21CC
100
AcDbEntity
  8
0
100
AcDbLine
 10
1624.84500669914
 20
940.9143113373968
 30
0.0
 11
1623.845032594419
 21
939.914337232676
 31
0.0
  0
LINE
  5
2456
330
21CC
100
AcDbEntity
  8
0
100
AcDbLine
 10
1624.845011337972
 20
980.2444089237287
 30
0.0
 11
1624.845011337972
 21
940.9143138393393
 31
0.0
  0
LINE
  5
2457
330
21CC
100
AcDbEntity
  8
0
100
AcDbLine
 10
1692.345011337972
 20
980.2444045632793
 30
0.0
 11
1692.345011337972
 21
954.9142833217613
 31
0.0
  0
LINE
  5
2458
330
21CC
100
AcDbEntity
  8
0
100
AcDbLine
 10
1630.49512730477
 20
869.9142833217612
 30
0.0
 11
1654.79501210091
 21
869.9142833217612
 31
0.0
  0
LINE
  5
2459
330
21CC
100
AcDbEntity
  8
0
100
AcDbLine
 10
1630.49505523779
 20
869.9142559629089
 30
0.0
 11
1586.19492730477
 21
871.6181070499581
 31
0.0
  0
LINE
  5
245A
330
21CC
100
AcDbEntity
  8
0
100
AcDbLine
 10
1623.845011337972
 20
939.9142680629719
 30
0.0
 11
1623.845011337972
 21
870.1700268840394
 31
0.0
  0
LINE
  5
245B
330
21CC
100
AcDbEntity
  8
0
100
AcDbLine
 10
1169.19492730477
 20
911.9142528041827
 30
0.0
 11
1349.19492730477
 21
911.9142528041827
 31
0.0
  0
LINE
  5
245C
330
21CC
100
AcDbEntity
  8
0
100
AcDbLine
 10
1349.19492730477
 20
911.9142528041827
 30
0.0
 11
1349.19492730477
 21
595.9142833217614
 31
0.0
  0
LINE
  5
245D
330
21CC
100
AcDbEntity
  8
0
100
AcDbLine
 10
1790.344768290855
 20
735.4142833217612
 30
0.0
 11
1787.178222696353
 21
744.1142955287931
 31
0.0
  0
LINE
  5
245E
330
21CC
100
AcDbEntity
  8
0
100
AcDbLine
 10
1793.194765671469
 20
735.4142833217612
 30
0.0
 11
1790.344768290855
 21
735.4142833217612
 31
0.0
  0
LINE
  5
245F
330
21CC
100
AcDbEntity
  8
0
100
AcDbLine
 10
1763.594830638649
 20
744.1142723461425
 30
0.0
 11
1762.151471383249
 21
741.6143005060112
 31
0.0
  0
LINE
  5
2460
330
21CC
100
AcDbEntity
  8
0
100
AcDbLine
 10
1787.178222696353
 20
744.1142955287931
 30
0.0
 11
1763.594767197348
 21
744.1142955287931
 31
0.0
  0
LINE
  5
2461
330
21CC
100
AcDbEntity
  8
0
100
AcDbLine
 10
1756.314634903646
 20
741.6143870815275
 30
0.0
 11
1762.151457413412
 21
741.6143870815275
 31
0.0
  0
LINE
  5
2462
330
21CC
100
AcDbEntity
  8
0
100
AcDbLine
 10
1749.59502659676
 20
669.9142833217614
 30
0.0
 11
1742.59502659676
 21
669.9142833217614
 31
0.0
  0
LINE
  5
2463
330
21CC
100
AcDbEntity
  8
0
100
AcDbLine
 10
1738.709765061117
 20
634.4142833217614
 30
0.0
 11
1721.595026596761
 21
634.4142833217614
 31
0.0
  0
LINE
  5
2464
330
21CC
100
AcDbEntity
  8
0
100
AcDbLine
 10
1738.709765061117
 20
655.4142833217614
 30
0.0
 11
1721.595026596761
 21
655.4142833217614
 31
0.0
  0
LINE
  5
2465
330
21CC
100
AcDbEntity
  8
0
100
AcDbLine
 10
1742.59501172454
 20
669.9142894063344
 30
0.0
 11
1738.709748271648
 21
655.4142889208815
 31
0.0
  0
LINE
  5
2466
330
21CC
100
AcDbEntity
  8
0
100
AcDbLine
 10
1756.314609736708
 20
741.6142814820158
 30
0.0
 11
1721.595022052984
 21
692.02957196684
 31
0.0
  0
LINE
  5
2467
330
21CC
100
AcDbEntity
  8
0
100
AcDbLine
 10
1749.59502659676
 20
619.9142833217614
 30
0.0
 11
1742.59502659676
 21
619.9142833217614
 31
0.0
  0
LINE
  5
2468
330
21CC
100
AcDbEntity
  8
0
100
AcDbLine
 10
1749.59502659676
 20
669.9142833217614
 30
0.0
 11
1749.59502659676
 21
619.9142833217614
 31
0.0
  0
LINE
  5
2469
330
21CC
100
AcDbEntity
  8
0
100
AcDbLine
 10
1738.709758692185
 20
634.4142880159187
 30
0.0
 11
1742.595026094342
 21
619.914272791606
 31
0.0
  0
LINE
  5
246A
330
21CC
100
AcDbEntity
  8
0
100
AcDbLine
 10
1673.952188114261
 20
654.9071776844065
 30
0.0
 11
1685.495092639611
 21
634.9142833217614
 31
0.0
  0
LINE
  5
246B
330
21CC
100
AcDbEntity
  8
0
100
AcDbLine
 10
1685.495092639611
 20
634.9142833217614
 30
0.0
 11
1721.595026596761
 21
634.9142833217614
 31
0.0
  0
ARC
  5
246C
330
21CC
100
AcDbEntity
  8
0
100
AcDbCircle
 10
1677.595011337972
 20
677.4142833217609
 30
0.0
 40
22.79999923706055
100
AcDbArc
 50
179.999994991043
 51
260.8062821040711
  0
LINE
  5
246D
330
21CC
100
AcDbEntity
  8
0
100
AcDbLine
 10
1586.19492730477
 20
711.9142852291098
 30
0.0
 11
1654.79501210091
 21
711.9142852291098
 31
0.0
  0
LINE
  5
246E
330
21CC
100
AcDbEntity
  8
0
100
AcDbLine
 10
1591.19495276463
 20
569.9142698310343
 30
0.0
 11
1593.694954924688
 21
579.2444097063052
 31
0.0
  0
LINE
  5
246F
330
21CC
100
AcDbEntity
  8
0
100
AcDbLine
 10
1551.194967406374
 20
569.9142695426562
 30
0.0
 11
1548.682040620886
 21
579.2926448014867
 31
0.0
  0
ARC
  5
2470
330
21CC
100
AcDbEntity
  8
0
100
AcDbCircle
 10
1533.69492730477
 20
579.9142833217614
 30
0.0
 40
15.0
100
AcDbArc
 50
357.6248355437669
 51
90.0
  0
LINE
  5
2471
330
21CC
100
AcDbEntity
  8
0
100
AcDbLine
 10
1591.19492730477
 20
569.9142833217614
 30
0.0
 11
1551.19492730477
 21
569.9142833217614
 31
0.0
  0
LINE
  5
2472
330
21CC
100
AcDbEntity
  8
0
100
AcDbLine
 10
1598.694683164144
 20
510.9142833217616
 30
0.0
 11
1598.694683164144
 21
504.9142833217614
 31
0.0
  0
LINE
  5
2473
330
21CC
100
AcDbEntity
  8
0
100
AcDbLine
 10
1543.694805234456
 20
510.9142833217616
 30
0.0
 11
1598.694683164144
 21
510.9142833217616
 31
0.0
  0
LINE
  5
2474
330
21CC
100
AcDbEntity
  8
0
100
AcDbLine
 10
1579.194683164144
 20
510.9142833217616
 30
0.0
 11
1579.194683164144
 21
544.9145274623864
 31
0.0
  0
LINE
  5
2475
330
21CC
100
AcDbEntity
  8
0
100
AcDbLine
 10
1563.19492730477
 20
510.9142833217616
 30
0.0
 11
1563.19492730477
 21
544.9145274623864
 31
0.0
  0
LINE
  5
2476
330
21CC
100
AcDbEntity
  8
0
100
AcDbLine
 10
1543.694805234456
 20
510.9142833217616
 30
0.0
 11
1543.694805234456
 21
504.9142833217614
 31
0.0
  0
LINE
  5
2477
330
21CC
100
AcDbEntity
  8
0
100
AcDbLine
 10
1543.694805234456
 20
504.9142833217614
 30
0.0
 11
1598.694683164144
 21
504.9142833217614
 31
0.0
  0
LINE
  5
2478
330
21CC
100
AcDbEntity
  8
0
100
AcDbLine
 10
1586.194561093831
 20
544.9145274623864
 30
0.0
 11
1556.195049375081
 21
544.9145274623864
 31
0.0
  0
LINE
  5
2479
330
21CC
100
AcDbEntity
  8
0
100
AcDbLine
 10
1556.195049375081
 20
569.9142833217614
 30
0.0
 11
1556.195049375081
 21
544.9145274623864
 31
0.0
  0
LINE
  5
247A
330
21CC
100
AcDbEntity
  8
0
100
AcDbLine
 10
1586.194561093831
 20
569.9142833217614
 30
0.0
 11
1586.194561093831
 21
544.9145274623864
 31
0.0
  0
LINE
  5
247B
330
21CC
100
AcDbEntity
  8
0
100
AcDbLine
 10
1593.69492730477
 20
634.9142833217614
 30
0.0
 11
1593.69492730477
 21
579.2444224819173
 31
0.0
  0
LINE
  5
247C
330
21CC
100
AcDbEntity
  8
0
100
AcDbLine
 10
1238.694683164144
 20
510.9142833217616
 30
0.0
 11
1238.694683164144
 21
504.9142833217614
 31
0.0
  0
LINE
  5
247D
330
21CC
100
AcDbEntity
  8
0
100
AcDbLine
 10
1231.194870548375
 20
569.9143068748467
 30
0.0
 11
1233.707810415419
 21
579.2927309547368
 31
0.0
  0
LINE
  5
247E
330
21CC
100
AcDbEntity
  8
0
100
AcDbLine
 10
1191.19492730477
 20
569.9142833217614
 30
0.0
 11
1231.19492730477
 21
569.9142833217614
 31
0.0
  0
LINE
  5
247F
330
21CC
100
AcDbEntity
  8
0
100
AcDbLine
 10
1191.194867418434
 20
569.9142988237108
 30
0.0
 11
1188.694857359848
 21
579.2444681766995
 31
0.0
  0
LINE
  5
2480
330
21CC
100
AcDbEntity
  8
0
100
AcDbLine
 10
1226.194561093832
 20
544.9145274623864
 30
0.0
 11
1196.195049375082
 21
544.9145274623864
 31
0.0
  0
LINE
  5
2481
330
21CC
100
AcDbEntity
  8
0
100
AcDbLine
 10
1219.194683164144
 20
510.9142833217616
 30
0.0
 11
1219.194683164144
 21
544.9145274623864
 31
0.0
  0
LINE
  5
2482
330
21CC
100
AcDbEntity
  8
0
100
AcDbLine
 10
1203.19492730477
 20
510.9142833217616
 30
0.0
 11
1203.19492730477
 21
544.9145274623864
 31
0.0
  0
LINE
  5
2483
330
21CC
100
AcDbEntity
  8
0
100
AcDbLine
 10
1183.694805234456
 20
510.9142833217616
 30
0.0
 11
1183.694805234456
 21
504.9142833217614
 31
0.0
  0
LINE
  5
2484
330
21CC
100
AcDbEntity
  8
0
100
AcDbLine
 10
1196.195049375082
 20
569.9142833217614
 30
0.0
 11
1196.195049375082
 21
544.9145274623864
 31
0.0
  0
LINE
  5
2485
330
21CC
100
AcDbEntity
  8
0
100
AcDbLine
 10
1226.194561093832
 20
569.9142833217614
 30
0.0
 11
1226.194561093832
 21
544.9145274623864
 31
0.0
  0
ARC
  5
2486
330
21CC
100
AcDbEntity
  8
0
100
AcDbCircle
 10
1248.69492730477
 20
579.9142833217614
 30
0.0
 40
15.0
100
AcDbArc
 50
90.00001616485356
 51
182.3748350921342
  0
LINE
  5
2487
330
21CC
100
AcDbEntity
  8
0
100
AcDbLine
 10
1183.694805234456
 20
504.9142833217614
 30
0.0
 11
1238.694683164144
 21
504.9142833217614
 31
0.0
  0
LINE
  5
2488
330
21CC
100
AcDbEntity
  8
0
100
AcDbLine
 10
1183.694805234456
 20
510.9142833217616
 30
0.0
 11
1238.694683164144
 21
510.9142833217616
 31
0.0
  0
LINE
  5
2489
330
21CC
100
AcDbEntity
  8
0
100
AcDbLine
 10
1188.694927304769
 20
595.9142833217614
 30
0.0
 11
1188.694927304769
 21
579.2444224819173
 31
0.0
  0
LINE
  5
248A
330
21CC
100
AcDbEntity
  8
0
100
AcDbLine
 10
1593.69492730477
 20
634.9142833217614
 30
0.0
 11
1586.19492730477
 21
634.9142833217614
 31
0.0
  0
LINE
  5
248B
330
21CC
100
AcDbEntity
  8
0
100
AcDbLine
 10
1533.69492730477
 20
594.9142833217614
 30
0.0
 11
1248.69492730477
 21
594.9142833217614
 31
0.0
  0
LINE
  5
248C
330
21CC
100
AcDbEntity
  8
0
100
AcDbLine
 10
1586.19492730477
 20
989.9141803247729
 30
0.0
 11
1586.19492730477
 21
595.9142833217614
 31
0.0
  0
LINE
  5
248D
330
21CC
100
AcDbEntity
  8
0
100
AcDbLine
 10
1169.19492730477
 20
911.9142528041827
 30
0.0
 11
1169.19492730477
 21
595.9142833217614
 31
0.0
  0
LINE
  5
248E
330
21CC
100
AcDbEntity
  8
0
100
AcDbLine
 10
1793.194765671469
 20
854.4142833217613
 30
0.0
 11
1793.194765671469
 21
735.4142833217612
 31
0.0
  0
LINE
  5
248F
330
21CC
100
AcDbEntity
  8
0
100
AcDbLine
 10
1721.595026596761
 20
955.4142833217612
 30
0.0
 11
1721.595026596761
 21
634.4142833217614
 31
0.0
  0
LINE
  5
2490
330
21CC
100
AcDbEntity
  8
0
100
AcDbLine
 10
1704.495005234456
 20
954.9142833217613
 30
0.0
 11
1704.495005234456
 21
634.9142833217614
 31
0.0
  0
LINE
  5
2491
330
21CC
100
AcDbEntity
  8
0
100
AcDbLine
 10
1685.495092972494
 20
635.9142833217616
 30
0.0
 11
1685.495092972494
 21
954.9142833217613
 31
0.0
  0
LINE
  5
2492
330
21CC
100
AcDbEntity
  8
0
100
AcDbLine
 10
1654.79501210091
 20
677.4142833217609
 30
0.0
 11
1654.79501210091
 21
912.4142813285223
 31
0.0
  0
LINE
  5
2493
330
21CC
100
AcDbEntity
  8
0
100
AcDbLine
 10
1015.194927304769
 20
630.9143445408635
 30
0.0
 11
1111.356801740382
 21
595.9142833217614
 31
0.0
  0
LINE
  5
2494
330
21CC
100
AcDbEntity
  8
0
100
AcDbLine
 10
1015.194927304769
 20
989.9141803247729
 30
0.0
 11
1015.194927304769
 21
630.9143445408635
 31
0.0
  0
LINE
  5
2495
330
21CC
100
AcDbEntity
  8
0
100
AcDbLine
 10
1111.356801740382
 20
595.9142833217614
 30
0.0
 11
1586.19492730477
 21
595.9142833217614
 31
0.0
  0
LINE
  5
2496
330
21CC
100
AcDbEntity
  8
0
100
AcDbLine
 10
1015.194927304769
 20
989.9141803247729
 30
0.0
 11
1586.19492730477
 21
989.9141803247729
 31
0.0
  0
LINE
  5
249D
330
21CC
100
AcDbEntity
  8
0
  6
Continuous
100
AcDbLine
 10
1349.19492730477
 20
722.9143014202145
 30
0.0
 11
1169.19492730477
 21
722.9143014202145
 31
0.0
  0
LINE
  5
249E
330
21CC
100
AcDbEntity
  8
0
  6
Continuous
100
AcDbLine
 10
1349.19492730477
 20
692.7700386471378
 30
0.0
 11
1169.19492730477
 21
692.7700386471378
 31
0.0
  0
LINE
  5
24A6
330
21CC
100
AcDbEntity
  8
0
100
AcDbLine
 10
1015.194927304769
 20
942.0852379141207
 30
0.0
 11
1586.19492730477
 21
942.0852379141207
 31
0.0
  0
LINE
  5
24AC
330
21CC
100
AcDbEntity
  8
0
100
AcDbLine
 10
1349.194927304769
 20
1143.342232562827
 30
0.0
 11
1169.19492730477
 21
1143.342232562827
 31
0.0
  0
ENDSEC
  0
SECTION
  2
OBJECTS
  0
DICTIONARY
  5
21BA
330
0
100
AcDbDictionary
281
     1
  3
ACAD_GROUP
350
21BB
  3
ACAD_LAYOUT
350
21C7
  3
ACAD_MLINESTYLE
350
21C4
  3
ACAD_PLOTSETTINGS
350
21C6
  3
ACAD_PLOTSTYLENAME
350
21BC
  3
AcDbVariableDictionary
350
2238
  0
DICTIONARY
  5
2244
330
21B0
100
AcDbDictionary
280
     1
281
     1
  3
ACAD_LAYERSTATES
360
2245
  0
DICTIONARY
  5
21F8
330
21CC
100
AcDbDictionary
280
     1
281
     1
  3
ACAD_LAYOUTSELFREF
360
2227
  0
DICTIONARY
  5
21FA
330
21C8
100
AcDbDictionary
280
     1
281
     1
  3
ACAD_LAYOUTSELFREF
360
2226
  0
DICTIONARY
  5
21BB
102
{ACAD_REACTORS
330
21BA
102
}
330
21BA
100
AcDbDictionary
281
     1
  0
DICTIONARY
  5
21C7
102
{ACAD_REACTORS
330
21BA
102
}
330
21BA
100
AcDbDictionary
281
     1
  3
Model
350
21CF
  3
ﾚｲｱｳﾄ1
350
21CB
  0
DICTIONARY
  5
21C4
102
{ACAD_REACTORS
330
21BA
102
}
330
21BA
100
AcDbDictionary
281
     1
  3
Standard
350
21C5
  0
DICTIONARY
  5
21C6
102
{ACAD_REACTORS
330
21BA
102
}
330
21BA
100
AcDbDictionary
281
     1
  0
ACDBDICTIONARYWDFLT
  5
21BC
102
{ACAD_REACTORS
330
21BA
102
}
330
21BA
100
AcDbDictionary
281
     1
  3
Normal
350
21BD
100
AcDbDictionaryWithDefault
340
21BD
  0
DICTIONARY
  5
2238
102
{ACAD_REACTORS
330
21BA
102
}
330
21BA
100
AcDbDictionary
281
     1
  3
DIMASSOC
350
2239
  0
DICTIONARY
  5
2245
102
{ACAD_REACTORS
330
2244
102
}
330
2244
100
AcDbDictionary
281
     1
  0
XRECORD
  5
2227
102
{ACAD_REACTORS
330
21F8
102
}
330
21F8
100
AcDbXrecord
280
     1
340
21CC
  0
XRECORD
  5
2226
102
{ACAD_REACTORS
330
21FA
102
}
330
21FA
100
AcDbXrecord
280
     1
340
21C8
  0
LAYOUT
  5
21CF
102
{ACAD_REACTORS
330
21C7
102
}
330
21C7
100
AcDbPlotSettings
  1

  2
SII LP-2150 (D-SCAN C2)
  4

  6

 40
0.0
 41
0.0
 42
0.0
 43
0.0
 44
0.0
 45
0.0
 46
0.0
 47
0.0
 48
0.0
 49
0.0
140
0.0
141
0.0
142
1.0
143
1.0
 70
  1712
 72
     0
 73
     0
 74
     0
  7

 75
     0
147
1.0
148
0.0
149
0.0
100
AcDbLayout
  1
Model
 70
     1
 71
     0
 10
0.0
 20
0.0
 11
12.0
 21
9.0
 12
0.0
 22
0.0
 32
0.0
 14
0.0
 24
0.0
 34
0.0
 15
0.0
 25
0.0
 35
0.0
146
0.0
 13
0.0
 23
0.0
 33
0.0
 16
1.0
 26
0.0
 36
0.0
 17
0.0
 27
1.0
 37
0.0
 76
     0
330
21CC
  0
LAYOUT
  5
21CB
102
{ACAD_REACTORS
330
21C7
102
}
330
21C7
100
AcDbPlotSettings
  1

  2
SII LP-2150 (D-SCAN C2)
  4

  6

 40
0.0
 41
0.0
 42
0.0
 43
0.0
 44
0.0
 45
0.0
 46
0.0
 47
0.0
 48
0.0
 49
0.0
140
0.0
141
0.0
142
1.0
143
1.0
 70
   688
 72
     0
 73
     0
 74
     5
  7

 75
    16
147
1.0
148
0.0
149
0.0
100
AcDbLayout
  1
ﾚｲｱｳﾄ1
 70
     1
 71
     1
 10
0.0
 20
0.0
 11
12.0
 21
9.0
 12
0.0
 22
0.0
 32
0.0
 14
1.000000000000000E+20
 24
1.000000000000000E+20
 34
1.000000000000000E+20
 15
-1.000000000000000E+20
 25
-1.000000000000000E+20
 35
-1.000000000000000E+20
146
0.0
 13
0.0
 23
0.0
 33
0.0
 16
1.0
 26
0.0
 36
0.0
 17
0.0
 27
1.0
 37
0.0
 76
     0
330
21C8
  0
MLINESTYLE
  5
21C5
102
{ACAD_REACTORS
330
21C4
102
}
330
21C4
100
AcDbMlineStyle
  2
STANDARD
 70
     0
  3

 62
   256
 51
90.0
 52
90.0
 71
     2
 49
0.5
 62
   256
  6
BYLAYER
 49
-0.5
 62
   256
  6
BYLAYER
  0
ACDBPLACEHOLDER
  5
21BD
102
{ACAD_REACTORS
330
21BC
102
}
330
21BC
  0
DICTIONARYVAR
  5
2239
102
{ACAD_REACTORS
330
2238
102
}
330
2238
100
DictionaryVariables
280
     0
  1
1
  0
ENDSEC
  0
EOF
