  0
SECTION
  2
HEADER
  9
$ACADVER
  1
AC1015
  9
$ACADMAINTVER
 70
    14
  9
$DWGCODEPAGE
  3
ANSI_932
  9
$INSBASE
 10
0.0
 20
0.0
 30
0.0
  9
$EXTMIN
 10
936.6389248796622
 20
541.3071977857989
 30
-0.0000000000000058
  9
$EXTMAX
 10
2385.939115600038
 20
1966.20245357011
 30
0.0000000000000104
  9
$LIMMIN
 10
0.0
 20
0.0
  9
$LIMMAX
 10
12.0
 20
9.0
  9
$ORTHOMODE
 70
     0
  9
$REGENMODE
 70
     1
  9
$FILLMODE
 70
     1
  9
$QTEXTMODE
 70
     0
  9
$MIRRTEXT
 70
     1
  9
$LTSCALE
 40
1.0
  9
$ATTMODE
 70
     1
  9
$TEXTSIZE
 40
0.2
  9
$TRACEWID
 40
0.05
  9
$TEXTSTYLE
  7
STANDARD
  9
$CLAYER
  8
0
  9
$CELTYPE
  6
CONTINUOUS
  9
$CECOLOR
 62
   256
  9
$CELTSCALE
 40
1.0
  9
$DISPSILH
 70
     0
  9
$DIMSCALE
 40
1.0
  9
$DIMASZ
 40
0.18
  9
$DIMEXO
 40
0.0625
  9
$DIMDLI
 40
0.38
  9
$DIMRND
 40
0.0
  9
$DIMDLE
 40
0.0
  9
$DIMEXE
 40
0.18
  9
$DIMTP
 40
0.0
  9
$DIMTM
 40
0.0
  9
$DIMTXT
 40
0.18
  9
$DIMCEN
 40
0.09
  9
$DIMTSZ
 40
0.0
  9
$DIMTOL
 70
     0
  9
$DIMLIM
 70
     0
  9
$DIMTIH
 70
     1
  9
$DIMTOH
 70
     1
  9
$DIMSE1
 70
     0
  9
$DIMSE2
 70
     0
  9
$DIMTAD
 70
     0
  9
$DIMZIN
 70
     0
  9
$DIMBLK
  1

  9
$DIMASO
 70
     1
  9
$DIMSHO
 70
     0
  9
$DIMPOST
  1

  9
$DIMAPOST
  1

  9
$DIMALT
 70
     0
  9
$DIMALTD
 70
     2
  9
$DIMALTF
 40
25.4
  9
$DIMLFAC
 40
1.0
  9
$DIMTOFL
 70
     0
  9
$DIMTVP
 40
0.0
  9
$DIMTIX
 70
     0
  9
$DIMSOXD
 70
     0
  9
$DIMSAH
 70
     0
  9
$DIMBLK1
  1

  9
$DIMBLK2
  1

  9
$DIMSTYLE
  2
STANDARD
  9
$DIMCLRD
 70
     0
  9
$DIMCLRE
 70
     0
  9
$DIMCLRT
 70
     0
  9
$DIMTFAC
 40
1.0
  9
$DIMGAP
 40
0.09
  9
$DIMJUST
 70
     0
  9
$DIMSD1
 70
     0
  9
$DIMSD2
 70
     0
  9
$DIMTOLJ
 70
     1
  9
$DIMTZIN
 70
     0
  9
$DIMALTZ
 70
     0
  9
$DIMALTTZ
 70
     0
  9
$DIMUPT
 70
     0
  9
$DIMDEC
 70
     4
  9
$DIMTDEC
 70
     4
  9
$DIMALTU
 70
     2
  9
$DIMALTTD
 70
     2
  9
$DIMTXSTY
  7
STANDARD
  9
$DIMAUNIT
 70
     0
  9
$DIMADEC
 70
     0
  9
$DIMALTRND
 40
0.0
  9
$DIMAZIN
 70
     0
  9
$DIMDSEP
 70
    46
  9
$DIMATFIT
 70
     3
  9
$DIMFRAC
 70
     0
  9
$DIMLDRBLK
  1

  9
$DIMLUNIT
 70
     2
  9
$DIMLWD
 70
    -2
  9
$DIMLWE
 70
    -2
  9
$DIMTMOVE
 70
     2
  9
$LUNITS
 70
     2
  9
$LUPREC
 70
     4
  9
$SKETCHINC
 40
0.1
  9
$FILLETRAD
 40
0.0
  9
$AUNITS
 70
     0
  9
$AUPREC
 70
     0
  9
$MENU
  1
.
  9
$ELEVATION
 40
0.0
  9
$PELEVATION
 40
0.0
  9
$THICKNESS
 40
0.0
  9
$LIMCHECK
 70
     0
  9
$CHAMFERA
 40
0.0
  9
$CHAMFERB
 40
0.0
  9
$CHAMFERC
 40
0.0
  9
$CHAMFERD
 40
0.0
  9
$SKPOLY
 70
     0
  9
$TDCREATE
 40
2452488.423138738
  9
$TDUCREATE
 40
2452488.048138738
  9
$TDUPDATE
 40
2456906.718956307
  9
$TDUUPDATE
 40
2456906.343956308
  9
$TDINDWG
 40
0.2817244444
  9
$TDUSRTIMER
 40
0.2817242593
  9
$USRTIMER
 70
     1
  9
$ANGBASE
 50
0.0
  9
$ANGDIR
 70
     0
  9
$PDMODE
 70
     3
  9
$PDSIZE
 40
0.0
  9
$PLINEWID
 40
0.0
  9
$SPLFRAME
 70
     0
  9
$SPLINETYPE
 70
     6
  9
$SPLINESEGS
 70
     8
  9
$HANDSEED
  5
24AF
  9
$SURFTAB1
 70
     6
  9
$SURFTAB2
 70
     6
  9
$SURFTYPE
 70
     6
  9
$SURFU
 70
     6
  9
$SURFV
 70
     6
  9
$UCSBASE
  2

  9
$UCSNAME
  2

  9
$UCSORG
 10
0.0
 20
0.0
 30
0.0
  9
$UCSXDIR
 10
1.0
 20
0.0
 30
0.0
  9
$UCSYDIR
 10
0.0
 20
1.0
 30
0.0
  9
$UCSORTHOREF
  2

  9
$UCSORTHOVIEW
 70
     0
  9
$UCSORGTOP
 10
0.0
 20
0.0
 30
0.0
  9
$UCSORGBOTTOM
 10
0.0
 20
0.0
 30
0.0
  9
$UCSORGLEFT
 10
0.0
 20
0.0
 30
0.0
  9
$UCSORGRIGHT
 10
0.0
 20
0.0
 30
0.0
  9
$UCSORGFRONT
 10
0.0
 20
0.0
 30
0.0
  9
$UCSORGBACK
 10
0.0
 20
0.0
 30
0.0
  9
$PUCSBASE
  2

  9
$PUCSNAME
  2

  9
$PUCSORG
 10
0.0
 20
0.0
 30
0.0
  9
$PUCSXDIR
 10
1.0
 20
0.0
 30
0.0
  9
$PUCSYDIR
 10
0.0
 20
1.0
 30
0.0
  9
$PUCSORTHOREF
  2

  9
$PUCSORTHOVIEW
 70
     0
  9
$PUCSORGTOP
 10
0.0
 20
0.0
 30
0.0
  9
$PUCSORGBOTTOM
 10
0.0
 20
0.0
 30
0.0
  9
$PUCSORGLEFT
 10
0.0
 20
0.0
 30
0.0
  9
$PUCSORGRIGHT
 10
0.0
 20
0.0
 30
0.0
  9
$PUCSORGFRONT
 10
0.0
 20
0.0
 30
0.0
  9
$PUCSORGBACK
 10
0.0
 20
0.0
 30
0.0
  9
$USERI1
 70
     0
  9
$USERI2
 70
     0
  9
$USERI3
 70
     0
  9
$USERI4
 70
     0
  9
$USERI5
 70
     0
  9
$USERR1
 40
0.0
  9
$USERR2
 40
0.0
  9
$USERR3
 40
0.0
  9
$USERR4
 40
0.0
  9
$USERR5
 40
0.0
  9
$WORLDVIEW
 70
     1
  9
$SHADEDGE
 70
     3
  9
$SHADEDIF
 70
    70
  9
$TILEMODE
 70
     1
  9
$MAXACTVP
 70
    48
  9
$PINSBASE
 10
0.0
 20
0.0
 30
0.0
  9
$PLIMCHECK
 70
     0
  9
$PEXTMIN
 10
1.000000000000000E+20
 20
1.000000000000000E+20
 30
1.000000000000000E+20
  9
$PEXTMAX
 10
-1.000000000000000E+20
 20
-1.000000000000000E+20
 30
-1.000000000000000E+20
  9
$PLIMMIN
 10
0.0
 20
0.0
  9
$PLIMMAX
 10
12.0
 20
9.0
  9
$UNITMODE
 70
     0
  9
$VISRETAIN
 70
     1
  9
$PLINEGEN
 70
     0
  9
$PSLTSCALE
 70
     1
  9
$TREEDEPTH
 70
  3020
  9
$CMLSTYLE
  2
Standard
  9
$CMLJUST
 70
     0
  9
$CMLSCALE
 40
1.0
  9
$PROXYGRAPHICS
 70
     1
  9
$MEASUREMENT
 70
     0
  9
$CELWEIGHT
370
    -1
  9
$ENDCAPS
280
     0
  9
$JOINSTYLE
280
     0
  9
$LWDISPLAY
290
     0
  9
$INSUNITS
 70
     0
  9
$HYPERLINKBASE
  1

  9
$STYLESHEET
  1

  9
$XEDIT
290
     1
  9
$CEPSNTYPE
380
     0
  9
$PSTYLEMODE
290
     1
  9
$FINGERPRINTGUID
  2
{FFE95C04-33D2-4560-80D0-1E2918E4EC86}
  9
$VERSIONGUID
  2
{04B7E039-26B5-4D94-96BF-A8D381292CF5}
  9
$EXTNAMES
290
     1
  9
$PSVPSCALE
 40
0.0
  9
$OLESTARTUP
290
     0
  0
ENDSEC
  0
SECTION
  2
CLASSES
  0
CLASS
  1
ACDBDICTIONARYWDFLT
  2
AcDbDictionaryWithDefault
  3
AutoCAD 2000
 90
        0
280
     0
281
     0
  0
CLASS
  1
ACDBPLACEHOLDER
  2
AcDbPlaceHolder
  3
AutoCAD 2000
 90
        0
280
     0
281
     0
  0
CLASS
  1
LAYOUT
  2
AcDbLayout
  3
AutoCAD 2000
 90
        0
280
     0
281
     0
  0
CLASS
  1
DICTIONARYVAR
  2
AcDbDictionaryVar
  3
AutoCAD 2000
 90
        0
280
     0
281
     0
  0
CLASS
  1
LONG_TRANSACTION
  2
AcDbLongTransaction
  3
AutoCAD 2000
 90
    32768
280
     0
281
     0
  0
CLASS
  1
LWPOLYLINE
  2
AcDbPolyline
  3
AutoCAD 2000
 90
    32768
280
     0
281
     1
  0
CLASS
  1
HATCH
  2
AcDbHatch
  3
AutoCAD 2000
 90
    32768
280
     0
281
     1
  0
CLASS
  1
XRECORD
  2
AcDbXrecord
  3
AutoCAD 2000
 90
    32768
280
     0
281
     0
  0
ENDSEC
  0
SECTION
  2
TABLES
  0
TABLE
  2
VPORT
  5
21B6
330
0
100
AcDbSymbolTable
 70
     2
  0
VPORT
  5
24AE
330
21B6
100
AcDbSymbolTableRecord
100
AcDbViewportTableRecord
  2
*Active
 70
     0
 10
0.0
 20
0.0
 11
1.0
 21
1.0
 12
1661.289020239849
 22
1253.754825677954
 13
0.0
 23
0.0
 14
1.0
 24
1.0
 15
0.0
 25
0.0
 16
0.0
 26
0.0
 36
1.0
 17
0.0
 27
0.0
 37
0.0
 40
1433.942209789291
 41
1.953389830508474
 42
50.0
 43
0.0
 44
0.0
 50
0.0
 51
0.0
 71
     0
 72
   100
 73
     1
 74
     3
 75
     0
 76
     0
 77
     0
 78
     0
281
     0
 65
     1
110
0.0
120
0.0
130
0.0
111
1.0
121
0.0
131
0.0
112
0.0
122
1.0
132
0.0
 79
     0
146
0.0
  0
ENDTAB
  0
TABLE
  2
LTYPE
  5
21B3
330
0
100
AcDbSymbolTable
 70
     2
  0
LTYPE
  5
21C1
330
21B3
100
AcDbSymbolTableRecord
100
AcDbLinetypeTableRecord
  2
ByBlock
 70
     0
  3

 72
    65
 73
     0
 40
0.0
  0
LTYPE
  5
21C2
330
21B3
100
AcDbSymbolTableRecord
100
AcDbLinetypeTableRecord
  2
ByLayer
 70
     0
  3

 72
    65
 73
     0
 40
0.0
  0
LTYPE
  5
21C3
330
21B3
100
AcDbSymbolTableRecord
100
AcDbLinetypeTableRecord
  2
CONTINUOUS
 70
     0
  3
Solid line
 72
    65
 73
     0
 40
0.0
  0
LTYPE
  5
2268
330
21B3
100
AcDbSymbolTableRecord
100
AcDbLinetypeTableRecord
  2
CENTER
 70
     0
  3
Center ____ _ ____ _ ____ _ ____ _ ____ _ ____
 72
    65
 73
     4
 40
2.0
 49
1.25
 74
     0
 49
-0.25
 74
     0
 49
0.25
 74
     0
 49
-0.25
 74
     0
  0
ENDTAB
  0
TABLE
  2
LAYER
  5
21B0
102
{ACAD_XDICTIONARY
360
2244
102
}
330
0
100
AcDbSymbolTable
 70
     1
  0
LAYER
  5
21BE
330
21B0
100
AcDbSymbolTableRecord
100
AcDbLayerTableRecord
  2
0
 70
     0
 62
     7
  6
CONTINUOUS
370
    -3
390
21BD
  0
ENDTAB
  0
TABLE
  2
STYLE
  5
21B1
330
0
100
AcDbSymbolTable
 70
     1
  0
STYLE
  5
21BF
330
21B1
100
AcDbSymbolTableRecord
100
AcDbTextStyleTableRecord
  2
STANDARD
 70
     0
 40
0.0
 41
1.0
 50
0.0
 71
     0
 42
0.2
  3
txt
  4
BIGFONT
  0
ENDTAB
  0
TABLE
  2
VIEW
  5
21B4
330
0
100
AcDbSymbolTable
 70
     1
  0
VIEW
  5
21DE
330
21B4
100
AcDbSymbolTableRecord
100
AcDbViewTableRecord
  2
OLE1
 70
     0
 40
3692.141019219747
 10
1914.591370701856
 20
1272.206200738182
 41
4595.022665841169
 11
0.0
 21
0.0
 31
1.0
 12
0.0
 22
0.0
 32
0.0
 42
50.0
 43
0.0
 44
0.0
 50
0.0
 71
     0
281
     0
 72
     1
110
0.0
120
0.0
130
0.0
111
1.0
121
0.0
131
0.0
112
0.0
122
1.0
132
0.0
 79
     0
146
0.0
  0
ENDTAB
  0
TABLE
  2
UCS
  5
21B5
330
0
100
AcDbSymbolTable
 70
     0
  0
ENDTAB
  0
TABLE
  2
APPID
  5
21B7
330
0
100
AcDbSymbolTable
 70
     8
  0
APPID
  5
21C0
330
21B7
100
AcDbSymbolTableRecord
100
AcDbRegAppTableRecord
  2
ACAD
 70
     0
  0
APPID
  5
21DF
330
21B7
100
AcDbSymbolTableRecord
100
AcDbRegAppTableRecord
  2
MCAD_NO_VIS
 70
     0
  0
APPID
  5
21E0
330
21B7
100
AcDbSymbolTableRecord
100
AcDbRegAppTableRecord
  2
ACAD_TEMP_GRAPHIC
 70
     0
  0
APPID
  5
21E1
330
21B7
100
AcDbSymbolTableRecord
100
AcDbRegAppTableRecord
  2
ACATTRIBSERVICES
 70
     0
  0
APPID
  5
21E2
330
21B7
100
AcDbSymbolTableRecord
100
AcDbRegAppTableRecord
  2
CONTENTBLOCKICON
 70
     0
  0
APPID
  5
2241
330
21B7
100
AcDbSymbolTableRecord
100
AcDbRegAppTableRecord
  2
ACAD_DSTYLE_DIMJAG
 70
     0
  0
APPID
  5
2242
330
21B7
100
AcDbSymbolTableRecord
100
AcDbRegAppTableRecord
  2
ACAD_DSTYLE_DIMTALN
 70
     0
  0
APPID
  5
2243
330
21B7
100
AcDbSymbolTableRecord
100
AcDbRegAppTableRecord
  2
ACAD_PSEXT
 70
     0
  0
ENDTAB
  0
TABLE
  2
DIMSTYLE
  5
21B8
330
0
100
AcDbSymbolTable
 70
     1
100
AcDbDimStyleTable
 71
     1
340
21E3
  0
DIMSTYLE
105
21E3
330
21B8
100
AcDbSymbolTableRecord
100
AcDbDimStyleTableRecord
  2
STANDARD
 70
     0
279
     2
340
21BF
  0
ENDTAB
  0
TABLE
  2
BLOCK_RECORD
  5
21AF
330
0
100
AcDbSymbolTable
 70
     0
  0
BLOCK_RECORD
  5
21CC
102
{ACAD_XDICTIONARY
360
21F8
102
}
330
21AF
100
AcDbSymbolTableRecord
100
AcDbBlockTableRecord
  2
*Model_Space
340
21CF
  0
BLOCK_RECORD
  5
21C8
102
{ACAD_XDICTIONARY
360
21FA
102
}
330
21AF
100
AcDbSymbolTableRecord
100
AcDbBlockTableRecord
  2
*Paper_Space
340
21CB
  0
ENDTAB
  0
ENDSEC
  0
SECTION
  2
BLOCKS
  0
BLOCK
  5
21CD
330
21CC
100
AcDbEntity
  8
0
100
AcDbBlockBegin
  2
*Model_Space
 70
     0
 10
0.0
 20
0.0
 30
0.0
  3
*Model_Space
  1

  0
ENDBLK
  5
21CE
330
21CC
100
AcDbEntity
  8
0
100
AcDbBlockEnd
  0
BLOCK
  5
21C9
330
21C8
100
AcDbEntity
 67
     1
  8
0
100
AcDbBlockBegin
  2
*Paper_Space
 70
     0
 10
0.0
 20
0.0
 30
0.0
  3
*Paper_Space
  1

  0
ENDBLK
  5
21CA
330
21C8
100
AcDbEntity
 67
     1
  8
0
100
AcDbBlockEnd
  0
ENDSEC
  0
SECTION
  2
ENTITIES
  0
LINE
  5
2384
330
21CC
100
AcDbEntity
  8
0
  6
CENTER
 48
10.0
100
AcDbLine
 10
1487.178867331586
 20
1578.113251227952
 30
0.0
 11
1487.178867331586
 21
1751.810605657667
 31
0.0
  0
LINE
  5
2385
330
21CC
100
AcDbEntity
  8
0
  6
CENTER
 48
10.0
100
AcDbLine
 10
2295.714607625995
 20
977.3814628198826
 30
0.0
 11
2295.714607625995
 21
1154.802738447174
 31
0.0
  0
LINE
  5
2386
330
21CC
100
AcDbEntity
  8
0
  6
CENTER
 48
10.0
100
AcDbLine
 10
2190.214607625997
 20
1026.996704627267
 30
0.0
 11
2190.214607625997
 21
635.7661557035657
 31
0.0
  0
LINE
  5
2387
330
21CC
100
AcDbEntity
  8
0
  6
CENTER
 48
10.0
100
AcDbLine
 10
2385.829882087847
 20
831.3814301654167
 30
0.0
 11
1994.599333164146
 21
831.3814301654163
 31
0.0
  0
LINE
  5
2388
330
21CC
100
AcDbEntity
  8
0
  6
CENTER
 48
10.0
100
AcDbLine
 10
1487.178867331586
 20
977.3818595483989
 30
0.0
 11
1487.178867331586
 21
1154.80313517569
 31
0.0
  0
LINE
  5
2389
330
21CC
100
AcDbEntity
  8
0
  6
CENTER
 48
10.0
100
AcDbLine
 10
1660.193498698112
 20
831.3818268939321
 30
0.0
 11
936.7850070705021
 21
831.381826893932
 31
0.0
  0
LINE
  5
238A
330
21CC
100
AcDbEntity
  8
0
  6
CENTER
 48
10.0
100
AcDbLine
 10
1400.330190116729
 20
1664.96192844281
 30
0.0
 11
1574.027544546444
 21
1664.96192844281
 31
0.0
  0
LINE
  5
238B
330
21CC
100
AcDbEntity
  8
0
  6
CENTER
 48
10.0
100
AcDbLine
 10
1660.193498698112
 20
1559.46192844281
 30
0.0
 11
936.7850070705021
 21
1559.46192844281
 31
0.0
  0
TEXT
  5
238C
330
21CC
100
AcDbEntity
  8
0
  6
Continuous
100
AcDbText
 10
1005.601197117309
 20
1918.112434520524
 30
0.0
 40
48.000002
  1
EZB2__055___ 4SX4S
 41
0.8449620000000001
100
AcDbText
  0
LINE
  5
238D
330
21CC
100
AcDbEntity
  8
0
100
AcDbLine
 10
1415.778194418988
 20
1559.461928442811
 30
0.0
 11
975.7781944189881
 21
1559.461928442811
 31
0.0
  0
LINE
  5
238E
330
21CC
100
AcDbEntity
  8
0
100
AcDbLine
 10
2355.214607625995
 20
1126.381414906627
 30
0.0
 11
2355.214607625995
 21
1123.531404392636
 31
0.0
  0
LINE
  5
238F
330
21CC
100
AcDbEntity
  8
0
100
AcDbLine
 10
2355.214607625995
 20
1123.531404392636
 30
0.0
 11
2346.514595418963
 21
1120.364858798134
 31
0.0
  0
LINE
  5
2390
330
21CC
100
AcDbEntity
  8
0
100
AcDbLine
 10
2346.514595418963
 20
1120.364858798134
 30
0.0
 11
2346.514595418963
 21
1106.381414906627
 31
0.0
  0
LINE
  5
2391
330
21CC
100
AcDbEntity
  8
0
100
AcDbLine
 10
2236.214607625996
 20
1126.381414906627
 30
0.0
 11
2236.214607625996
 21
1123.531422738039
 31
0.0
  0
LINE
  5
2392
330
21CC
100
AcDbEntity
  8
0
100
AcDbLine
 10
2236.214607625996
 20
1123.531422738039
 30
0.0
 11
2244.914619833026
 21
1120.364877143538
 31
0.0
  0
LINE
  5
2393
330
21CC
100
AcDbEntity
  8
0
100
AcDbLine
 10
2244.914619833026
 20
1120.364877143538
 30
0.0
 11
2244.914619833026
 21
1106.381414906627
 31
0.0
  0
LINE
  5
2394
330
21CC
100
AcDbEntity
  8
0
100
AcDbLine
 10
2244.914619833026
 20
1106.381414906627
 30
0.0
 11
2346.514595418963
 21
1106.381414906627
 31
0.0
  0
LINE
  5
2395
330
21CC
100
AcDbEntity
  8
0
100
AcDbLine
 10
2236.214607625996
 20
1126.381414906627
 30
0.0
 11
2355.214607625995
 21
1126.381414906627
 31
0.0
  0
LINE
  5
2396
330
21CC
100
AcDbEntity
  8
0
100
AcDbLine
 10
2244.914619833026
 20
1120.364877143538
 30
0.0
 11
2346.514595418963
 21
1120.364858798134
 31
0.0
  0
LINE
  5
2397
330
21CC
100
AcDbEntity
  8
0
100
AcDbLine
 10
2329.464613933312
 20
977.3814477651393
 30
0.0
 11
2330.464593432832
 21
976.3814682656221
 31
0.0
  0
LINE
  5
2398
330
21CC
100
AcDbEntity
  8
0
100
AcDbLine
 10
2330.464607625997
 20
976.3814301654164
 30
0.0
 11
2330.464607625997
 21
908.3875175871263
 31
0.0
  0
LINE
  5
2399
330
21CC
100
AcDbEntity
  8
0
100
AcDbLine
 10
2329.464607625996
 20
1001.381414906627
 30
0.0
 11
2346.514595418963
 21
1106.381414906627
 31
0.0
  0
LINE
  5
239A
330
21CC
100
AcDbEntity
  8
0
100
AcDbLine
 10
2244.914619833026
 20
1106.381414906627
 30
0.0
 11
2261.964607625996
 21
1001.381414906627
 31
0.0
  0
LINE
  5
239B
330
21CC
100
AcDbEntity
  8
0
100
AcDbLine
 10
2327.048813320165
 20
859.1915892531655
 30
0.0
 11
2332.511371246956
 21
863.6150812420815
 31
0.0
  0
LINE
  5
239C
330
21CC
100
AcDbEntity
  8
0
100
AcDbLine
 10
2335.793631049585
 20
879.750491424021
 30
0.0
 11
2343.21987743821
 21
880.9266932130356
 31
0.0
  0
LINE
  5
239D
330
21CC
100
AcDbEntity
  8
0
100
AcDbLine
 10
2336.204535802156
 20
871.9099632016032
 30
0.0
 11
2335.793631049585
 21
879.750491424021
 31
0.0
  0
ARC
  5
239E
330
21CC
100
AcDbEntity
  8
0
100
AcDbCircle
 10
2326.218231727978
 20
871.3865751436101
 30
0.0
 40
10.0
100
AcDbArc
 50
308.9999999923079
 51
2.999994664802933
  0
LINE
  5
239F
330
21CC
100
AcDbEntity
  8
0
100
AcDbLine
 10
2343.21987743821
 20
880.9266932130356
 30
0.0
 11
2349.686934515263
 21
850.5015829313299
 31
0.0
  0
LINE
  5
23A0
330
21CC
100
AcDbEntity
  8
0
100
AcDbLine
 10
2349.686934515263
 20
850.5015829313299
 30
0.0
 11
2344.224246369237
 21
846.0779854929606
 31
0.0
  0
ARC
  5
23A1
330
21CC
100
AcDbEntity
  8
0
100
AcDbCircle
 10
2350.517468196113
 20
838.3066236926341
 30
0.0
 40
10.0
100
AcDbArc
 50
129.000001586172
 51
182.9999996737653
  0
LINE
  5
23A2
330
21CC
100
AcDbEntity
  8
0
100
AcDbLine
 10
2333.515871540947
 20
828.7664735906338
 30
0.0
 11
2340.942095188105
 21
829.942671777756
 31
0.0
  0
LINE
  5
23A3
330
21CC
100
AcDbEntity
  8
0
100
AcDbLine
 10
2333.515871540947
 20
828.7664735906338
 30
0.0
 11
2327.048813320165
 21
859.1915892531655
 31
0.0
  0
LINE
  5
23A4
330
21CC
100
AcDbEntity
  8
0
100
AcDbLine
 10
2340.531188509179
 20
837.78323675725
 30
0.0
 11
2340.942095188105
 21
829.942671777756
 31
0.0
  0
CIRCLE
  5
23A5
330
21CC
100
AcDbEntity
  8
0
100
AcDbCircle
 10
2190.214607625997
 20
831.3814301654165
 30
0.0
 40
160.0
  0
LINE
  5
23A6
330
21CC
100
AcDbEntity
  8
0
100
AcDbLine
 10
2329.464607625996
 20
977.3814301654166
 30
0.0
 11
2261.964668661152
 21
977.3814301654166
 31
0.0
  0
LINE
  5
23A7
330
21CC
100
AcDbEntity
  8
0
100
AcDbLine
 10
2261.964702964705
 20
977.3814046067668
 30
0.0
 11
2260.964669517222
 21
976.3813711592828
 31
0.0
  0
LINE
  5
23A8
330
21CC
100
AcDbEntity
  8
0
100
AcDbLine
 10
2260.964607625996
 20
976.3813691302601
 30
0.0
 11
2260.964607625996
 21
974.889051914228
 31
0.0
  0
LINE
  5
23A9
330
21CC
100
AcDbEntity
  8
0
100
AcDbLine
 10
2329.464607625996
 20
1001.381414906627
 30
0.0
 11
2329.464607625996
 21
977.3814301654166
 31
0.0
  0
LINE
  5
23AA
330
21CC
100
AcDbEntity
  8
0
100
AcDbLine
 10
2261.964607625996
 20
1001.381414906627
 30
0.0
 11
2261.964607625996
 21
977.3813691302601
 31
0.0
  0
LINE
  5
23AB
330
21CC
100
AcDbEntity
  8
0
100
AcDbLine
 10
2261.964607625996
 20
1001.381414906627
 30
0.0
 11
2329.464607625996
 21
1001.381414906627
 31
0.0
  0
LINE
  5
23AC
330
21CC
100
AcDbEntity
  8
0
100
AcDbLine
 10
2230.576505780012
 20
976.3192609531538
 30
0.0
 11
2238.160303342086
 21
974.2871886035723
 31
0.0
  0
LINE
  5
23AD
330
21CC
100
AcDbEntity
  8
0
100
AcDbLine
 10
2236.9841049814
 20
966.8609649839011
 30
0.0
 11
2206.049669577685
 21
970.1123049173119
 31
0.0
  0
LINE
  5
23AE
330
21CC
100
AcDbEntity
  8
0
100
AcDbLine
 10
2196.783051000056
 20
982.7501081360823
 30
0.0
 11
2189.199288991316
 21
984.7821709591768
 31
0.0
  0
LINE
  5
23AF
330
21CC
100
AcDbEntity
  8
0
100
AcDbLine
 10
2190.375490953898
 20
992.2084173203124
 30
0.0
 11
2221.309920886715
 21
988.9570779619161
 31
0.0
  0
LINE
  5
23B0
330
21CC
100
AcDbEntity
  8
0
100
AcDbLine
 10
2189.199288991316
 20
984.7821709591768
 30
0.0
 11
2190.375490953898
 21
992.2084173203124
 31
0.0
  0
LINE
  5
23B1
330
21CC
100
AcDbEntity
  8
0
100
AcDbLine
 10
2221.309920886715
 20
988.9570779619161
 30
0.0
 11
2223.828948583851
 21
982.3947860194207
 31
0.0
  0
ARC
  5
23B2
330
21CC
100
AcDbEntity
  8
0
100
AcDbCircle
 10
2233.164665358414
 20
985.9785127806272
 30
0.0
 40
10.0
100
AcDbArc
 50
201.0000015861717
 51
254.9999996737654
  0
LINE
  5
23B3
330
21CC
100
AcDbEntity
  8
0
100
AcDbLine
 10
2206.049669577685
 20
970.1123049173119
 30
0.0
 11
2203.53070192898
 21
976.6744404282841
 31
0.0
  0
ARC
  5
23B4
330
21CC
100
AcDbEntity
  8
0
100
AcDbCircle
 10
2194.194884953247
 20
973.0908327680579
 30
0.0
 40
10.0
100
AcDbArc
 50
20.99999999230872
 51
74.99999466480719
  0
LINE
  5
23B5
330
21CC
100
AcDbEntity
  8
0
100
AcDbLine
 10
2236.9841049814
 20
966.8609649839011
 30
0.0
 11
2238.160303342086
 21
974.2871886035723
 31
0.0
  0
LINE
  5
23B6
330
21CC
100
AcDbEntity
  8
0
100
AcDbLine
 10
2075.818482713434
 20
917.7273440380471
 30
0.0
 11
2069.119189630688
 21
921.1408044559391
 31
0.0
  0
LINE
  5
23B7
330
21CC
100
AcDbEntity
  8
0
100
AcDbLine
 10
2281.202710785469
 20
707.8744132333995
 30
0.0
 11
2284.61618149989
 21
701.1750995555039
 31
0.0
  0
ARC
  5
23B8
330
21CC
100
AcDbEntity
  8
0
100
AcDbCircle
 10
2270.289192586932
 20
714.3965668841665
 30
0.0
 40
10.0
100
AcDbArc
 50
236.9999999923094
 51
290.9999946648055
  0
LINE
  5
23B9
330
21CC
100
AcDbEntity
  8
0
100
AcDbLine
 10
2273.872901879955
 20
705.0607631252873
 30
0.0
 11
2281.202710785469
 21
707.8744132333995
 31
0.0
  0
LINE
  5
23BA
330
21CC
100
AcDbEntity
  8
0
100
AcDbLine
 10
2072.368826657872
 20
737.8483904197577
 30
0.0
 11
2067.427827706932
 21
743.9500158477276
 31
0.0
  0
LINE
  5
23BB
330
21CC
100
AcDbEntity
  8
0
100
AcDbLine
 10
2072.744416893348
 20
749.2666049098891
 30
0.0
 11
2067.427827706932
 21
743.9500158477276
 31
0.0
  0
LINE
  5
23BC
330
21CC
100
AcDbEntity
  8
0
100
AcDbLine
 10
2232.01016200085
 20
694.2857633046115
 30
0.0
 11
2258.947735616899
 21
709.8381789622917
 31
0.0
  0
LINE
  5
23BD
330
21CC
100
AcDbEntity
  8
0
100
AcDbLine
 10
2232.01016200085
 20
694.2857633046115
 30
0.0
 11
2235.423622262167
 21
687.5864701420878
 31
0.0
  0
LINE
  5
23BE
330
21CC
100
AcDbEntity
  8
0
100
AcDbLine
 10
2242.753465530458
 20
690.4001334408357
 30
0.0
 11
2235.423622262167
 21
687.5864701420878
 31
0.0
  0
ARC
  5
23BF
330
21CC
100
AcDbEntity
  8
0
100
AcDbCircle
 10
2246.337166219745
 20
681.0643525286978
 30
0.0
 40
10.0
100
AcDbArc
 50
57.00000158617013
 51
110.9999996737631
  0
LINE
  5
23C0
330
21CC
100
AcDbEntity
  8
0
100
AcDbLine
 10
2257.678612647877
 20
685.6226866483416
 30
0.0
 11
2251.783458006556
 21
689.4510450213783
 31
0.0
  0
LINE
  5
23C1
330
21CC
100
AcDbEntity
  8
0
100
AcDbLine
 10
2095.552719059333
 20
701.3642292504656
 30
0.0
 11
2072.437328857446
 21
722.1774197484726
 31
0.0
  0
LINE
  5
23C2
330
21CC
100
AcDbEntity
  8
0
100
AcDbLine
 10
2072.437328857446
 20
722.1774197484726
 30
0.0
 11
2074.256611066199
 21
728.9670727824937
 31
0.0
  0
LINE
  5
23C3
330
21CC
100
AcDbEntity
  8
0
100
AcDbLine
 10
2095.859811183303
 20
728.4534107309698
 30
0.0
 11
2094.04057234249
 21
721.6639195482935
 31
0.0
  0
ARC
  5
23C4
330
21CC
100
AcDbEntity
  8
0
100
AcDbCircle
 10
2103.699798664914
 20
719.0756635101511
 30
0.0
 40
10.0
100
AcDbArc
 50
164.9999999923107
 51
218.9999946648055
  0
LINE
  5
23C5
330
21CC
100
AcDbEntity
  8
0
100
AcDbLine
 10
2100.869324526843
 20
706.6808345937164
 30
0.0
 11
2095.552719059333
 21
701.3642292504656
 31
0.0
  0
LINE
  5
23C6
330
21CC
100
AcDbEntity
  8
0
100
AcDbLine
 10
2095.928348739624
 20
712.7824314168715
 30
0.0
 11
2100.869324526843
 21
706.6808345937164
 31
0.0
  0
ARC
  5
23C7
330
21CC
100
AcDbEntity
  8
0
100
AcDbCircle
 10
2064.597395802422
 20
731.5551735691498
 30
0.0
 40
10.0
100
AcDbArc
 50
345.0000015861713
 51
38.99999967376216
  0
LINE
  5
23C8
330
21CC
100
AcDbEntity
  8
0
100
AcDbLine
 10
2072.744416893348
 20
749.2666049098891
 30
0.0
 11
2095.859811183303
 21
728.4534107309698
 31
0.0
  0
LINE
  5
23C9
330
21CC
100
AcDbEntity
  8
0
100
AcDbLine
 10
2284.61618149989
 20
701.1750995555039
 30
0.0
 11
2257.678612647877
 21
685.6226866483416
 31
0.0
  0
LINE
  5
23CA
330
21CC
100
AcDbEntity
  8
0
100
AcDbLine
 10
2258.947735616899
 20
709.8381789622917
 30
0.0
 11
2264.842749729873
 21
706.0099118494327
 31
0.0
  0
CIRCLE
  5
23CB
330
21CC
100
AcDbEntity
  8
0
100
AcDbCircle
 10
2190.214607625997
 20
831.3814301654165
 30
0.0
 40
59.5
  0
CIRCLE
  5
23CC
330
21CC
100
AcDbEntity
  8
0
100
AcDbCircle
 10
2190.214607625997
 20
831.3814301654165
 30
0.0
 40
102.8847113549219
  0
CIRCLE
  5
23CD
330
21CC
100
AcDbEntity
  8
0
100
AcDbCircle
 10
2190.214607625997
 20
831.3814301654165
 30
0.0
 40
50.79998779296829
  0
LINE
  5
23CE
330
21CC
100
AcDbEntity
  8
0
100
AcDbLine
 10
2037.308769178648
 20
881.2327114877662
 30
0.0
 11
2049.96024122268
 21
909.6483835370227
 31
0.0
  0
LINE
  5
23CF
330
21CC
100
AcDbEntity
  8
0
100
AcDbLine
 10
2044.008082776766
 20
877.8192406167681
 30
0.0
 11
2037.308769178648
 21
881.2327114877662
 31
0.0
  0
LINE
  5
23D0
330
21CC
100
AcDbEntity
  8
0
100
AcDbLine
 10
2048.284200708187
 20
884.403884947239
 30
0.0
 11
2044.008082776766
 21
877.8192406167681
 31
0.0
  0
LINE
  5
23D1
330
21CC
100
AcDbEntity
  8
0
100
AcDbLine
 10
2063.167008431932
 20
889.3116669633437
 30
0.0
 11
2056.14764288168
 21
888.943797758991
 31
0.0
  0
ARC
  5
23D2
330
21CC
100
AcDbEntity
  8
0
100
AcDbCircle
 10
2056.670930196907
 20
878.9575125210983
 30
0.0
 40
10.0
100
AcDbArc
 50
92.99999999230889
 51
146.999994664805
  0
LINE
  5
23D3
330
21CC
100
AcDbEntity
  8
0
100
AcDbLine
 10
2049.96024122268
 20
909.6483835370227
 30
0.0
 11
2056.979774104138
 21
910.0162615108301
 31
0.0
  0
ARC
  5
23D4
330
21CC
100
AcDbEntity
  8
0
100
AcDbCircle
 10
2056.456342553282
 20
920.0024882559747
 30
0.0
 40
10.0
100
AcDbArc
 50
273.0000015861668
 51
326.9999996737617
  0
LINE
  5
23D5
330
21CC
100
AcDbEntity
  8
0
100
AcDbLine
 10
2064.843051652454
 20
914.5561292560856
 30
0.0
 11
2069.119189630688
 21
921.1408044559391
 31
0.0
  0
LINE
  5
23D6
330
21CC
100
AcDbEntity
  8
0
100
AcDbLine
 10
2075.818482713434
 20
917.7273440380471
 30
0.0
 11
2063.167008431932
 21
889.3116669633437
 31
0.0
  0
LINE
  5
23D7
330
21CC
100
AcDbEntity
  8
0
100
AcDbLine
 10
1415.778194418988
 20
1642.461926535462
 30
0.0
 11
1432.097110695024
 21
1642.461926535462
 31
0.0
  0
CIRCLE
  5
23D8
330
21CC
100
AcDbEntity
  8
0
100
AcDbCircle
 10
1487.178867331586
 20
1664.961928442809
 30
0.0
 40
50.79998779296958
  0
CIRCLE
  5
23D9
330
21CC
100
AcDbEntity
  8
0
100
AcDbCircle
 10
1487.178867331586
 20
1664.961928442809
 30
0.0
 40
59.5
  0
LINE
  5
23DA
330
21CC
100
AcDbEntity
  8
0
100
AcDbLine
 10
1415.778194418988
 20
1476.461930350159
 30
0.0
 11
1483.378868094526
 21
1476.461930350159
 31
0.0
  0
LINE
  5
23DB
330
21CC
100
AcDbEntity
  8
0
100
AcDbLine
 10
1567.293614685798
 20
1719.961923748653
 30
0.0
 11
1571.178882087954
 21
1734.461938972966
 31
0.0
  0
LINE
  5
23DC
330
21CC
100
AcDbEntity
  8
0
100
AcDbLine
 10
1578.178882590375
 20
1734.461928442811
 30
0.0
 11
1571.178882590375
 21
1734.461928442811
 31
0.0
  0
LINE
  5
23DD
330
21CC
100
AcDbEntity
  8
0
100
AcDbLine
 10
1621.778621665082
 20
1618.96192844281
 30
0.0
 11
1618.928624284467
 21
1618.96192844281
 31
0.0
  0
LINE
  5
23DE
330
21CC
100
AcDbEntity
  8
0
100
AcDbLine
 10
1618.928624284467
 20
1618.96192844281
 30
0.0
 11
1615.762078689964
 21
1610.261916235778
 31
0.0
  0
LINE
  5
23DF
330
21CC
100
AcDbEntity
  8
0
100
AcDbLine
 10
1592.178686632264
 20
1610.261939418428
 30
0.0
 11
1590.735327376863
 21
1612.76191125856
 31
0.0
  0
LINE
  5
23E0
330
21CC
100
AcDbEntity
  8
0
100
AcDbLine
 10
1584.898490897259
 20
1612.761824683044
 30
0.0
 11
1590.735313407025
 21
1612.761824683044
 31
0.0
  0
LINE
  5
23E1
330
21CC
100
AcDbEntity
  8
0
100
AcDbLine
 10
1615.762078689964
 20
1610.261916235778
 30
0.0
 11
1592.178623190959
 21
1610.261916235778
 31
0.0
  0
LINE
  5
23E2
330
21CC
100
AcDbEntity
  8
0
100
AcDbLine
 10
1578.178882590375
 20
1684.461928442811
 30
0.0
 11
1571.178882590375
 21
1684.461928442811
 31
0.0
  0
LINE
  5
23E3
330
21CC
100
AcDbEntity
  8
0
100
AcDbLine
 10
1621.778621665082
 20
1499.96192844281
 30
0.0
 11
1618.928624284467
 21
1499.96192844281
 31
0.0
  0
LINE
  5
23E4
330
21CC
100
AcDbEntity
  8
0
100
AcDbLine
 10
1618.928624284467
 20
1499.96192844281
 30
0.0
 11
1615.762078689964
 21
1508.661940649842
 31
0.0
  0
LINE
  5
23E5
330
21CC
100
AcDbEntity
  8
0
100
AcDbLine
 10
1584.898490897259
 20
1506.162032202576
 30
0.0
 11
1590.735313407025
 21
1506.162032202576
 31
0.0
  0
LINE
  5
23E6
330
21CC
100
AcDbEntity
  8
0
100
AcDbLine
 10
1592.178686632264
 20
1508.661917467192
 30
0.0
 11
1590.735327376863
 21
1506.16194562706
 31
0.0
  0
LINE
  5
23E7
330
21CC
100
AcDbEntity
  8
0
100
AcDbLine
 10
1615.762078689964
 20
1508.661940649842
 30
0.0
 11
1592.178623190959
 21
1508.661940649842
 31
0.0
  0
LINE
  5
23E8
330
21CC
100
AcDbEntity
  8
0
100
AcDbLine
 10
1592.178700016771
 20
1610.261916235778
 30
0.0
 11
1592.178700016771
 21
1508.661940649842
 31
0.0
  0
LINE
  5
23E9
330
21CC
100
AcDbEntity
  8
0
100
AcDbLine
 10
1615.762078689964
 20
1610.261916235778
 30
0.0
 11
1615.762078689964
 21
1508.661940649842
 31
0.0
  0
LINE
  5
23EA
330
21CC
100
AcDbEntity
  8
0
100
AcDbLine
 10
1621.778621665082
 20
1618.96192844281
 30
0.0
 11
1621.778621665082
 21
1499.96192844281
 31
0.0
  0
LINE
  5
23EB
330
21CC
100
AcDbEntity
  8
0
100
AcDbLine
 10
1578.178882590375
 20
1684.461928442811
 30
0.0
 11
1578.178882590375
 21
1734.461928442811
 31
0.0
  0
LINE
  5
23EC
330
21CC
100
AcDbEntity
  8
0
100
AcDbLine
 10
1571.178867718153
 20
1684.461922358237
 30
0.0
 11
1567.29360426526
 21
1698.96192284369
 31
0.0
  0
LINE
  5
23ED
330
21CC
100
AcDbEntity
  8
0
100
AcDbLine
 10
1514.078948633225
 20
1719.461928442811
 30
0.0
 11
1550.178882590375
 21
1719.461928442811
 31
0.0
  0
LINE
  5
23EE
330
21CC
100
AcDbEntity
  8
0
100
AcDbLine
 10
1513.438978860271
 20
1718.353468432784
 30
0.0
 11
1514.078948633225
 21
1719.461928442811
 31
0.0
  0
LINE
  5
23EF
330
21CC
100
AcDbEntity
  8
0
100
AcDbLine
 10
1533.07886122807
 20
1719.461928442811
 30
0.0
 11
1533.07886122807
 21
1702.822733509564
 31
0.0
  0
LINE
  5
23F0
330
21CC
100
AcDbEntity
  8
0
100
AcDbLine
 10
1584.89846573032
 20
1612.761930282556
 30
0.0
 11
1550.178878046598
 21
1662.346639797732
 31
0.0
  0
LINE
  5
23F1
330
21CC
100
AcDbEntity
  8
0
100
AcDbLine
 10
1567.29362105473
 20
1698.961928442811
 30
0.0
 11
1550.178882590375
 21
1698.961928442811
 31
0.0
  0
LINE
  5
23F2
330
21CC
100
AcDbEntity
  8
0
100
AcDbLine
 10
1567.29362105473
 20
1719.961928442811
 30
0.0
 11
1550.178882590375
 21
1719.961928442811
 31
0.0
  0
LINE
  5
23F3
330
21CC
100
AcDbEntity
  8
0
100
AcDbLine
 10
1571.178867718153
 20
1434.461934527384
 30
0.0
 11
1567.29360426526
 21
1419.96193404193
 31
0.0
  0
LINE
  5
23F4
330
21CC
100
AcDbEntity
  8
0
100
AcDbLine
 10
1578.178882590375
 20
1434.461928442811
 30
0.0
 11
1571.178882590375
 21
1434.461928442811
 31
0.0
  0
LINE
  5
23F5
330
21CC
100
AcDbEntity
  8
0
100
AcDbLine
 10
1567.293614685798
 20
1398.961933136966
 30
0.0
 11
1571.178882087954
 21
1384.461917912655
 31
0.0
  0
LINE
  5
23F6
330
21CC
100
AcDbEntity
  8
0
100
AcDbLine
 10
1578.178882590375
 20
1384.461928442811
 30
0.0
 11
1571.178882590375
 21
1384.461928442811
 31
0.0
  0
LINE
  5
23F7
330
21CC
100
AcDbEntity
  8
0
100
AcDbLine
 10
1578.178882590375
 20
1434.461928442811
 30
0.0
 11
1578.178882590375
 21
1384.461928442811
 31
0.0
  0
ARC
  5
23F8
330
21CC
100
AcDbEntity
  8
0
100
AcDbCircle
 10
1506.178867331586
 20
1441.961928442809
 30
0.0
 40
22.79999923706055
100
AcDbArc
 50
179.999994991043
 51
260.8062821040716
  0
LINE
  5
23F9
330
21CC
100
AcDbEntity
  8
0
100
AcDbLine
 10
1514.078948633225
 20
1399.461928442811
 30
0.0
 11
1550.178882590375
 21
1399.461928442811
 31
0.0
  0
LINE
  5
23FA
330
21CC
100
AcDbEntity
  8
0
100
AcDbLine
 10
1502.536044107873
 20
1419.454822805455
 30
0.0
 11
1514.078948633225
 21
1399.461928442811
 31
0.0
  0
LINE
  5
23FB
330
21CC
100
AcDbEntity
  8
0
100
AcDbLine
 10
1567.29362105473
 20
1398.96192844281
 30
0.0
 11
1550.178882590375
 21
1398.96192844281
 31
0.0
  0
LINE
  5
23FC
330
21CC
100
AcDbEntity
  8
0
100
AcDbLine
 10
1567.29362105473
 20
1419.961928442811
 30
0.0
 11
1550.178882590375
 21
1419.961928442811
 31
0.0
  0
LINE
  5
23FD
330
21CC
100
AcDbEntity
  8
0
100
AcDbLine
 10
1550.178882590375
 20
1719.961928442811
 30
0.0
 11
1550.178882590375
 21
1398.96192844281
 31
0.0
  0
LINE
  5
23FE
330
21CC
100
AcDbEntity
  8
0
100
AcDbLine
 10
1584.89846573032
 20
1506.161926603064
 30
0.0
 11
1550.178878046598
 21
1456.577217087889
 31
0.0
  0
LINE
  5
23FF
330
21CC
100
AcDbEntity
  8
0
100
AcDbLine
 10
1483.378868094526
 20
1441.961928442809
 30
0.0
 11
1483.378868094526
 21
1605.583396920058
 31
0.0
  0
LINE
  5
2400
330
21CC
100
AcDbEntity
  8
0
100
AcDbLine
 10
1514.078948966108
 20
1400.461928442811
 30
0.0
 11
1514.078948966108
 21
1611.889943290038
 31
0.0
  0
LINE
  5
2401
330
21CC
100
AcDbEntity
  8
0
100
AcDbLine
 10
1533.07886122807
 20
1627.101123376057
 30
0.0
 11
1533.07886122807
 21
1399.461928442811
 31
0.0
  0
LINE
  5
2402
330
21CC
100
AcDbEntity
  8
0
100
AcDbLine
 10
1483.378868094526
 20
713.8818268939322
 30
0.0
 11
1483.378868094526
 21
948.8818249006925
 31
0.0
  0
LINE
  5
2403
330
21CC
100
AcDbEntity
  8
0
100
AcDbLine
 10
1415.778194418988
 20
748.3818288012806
 30
0.0
 11
1483.378868094526
 21
748.3818288012806
 31
0.0
  0
LINE
  5
2404
330
21CC
100
AcDbEntity
  8
0
100
AcDbLine
 10
1427.678867331586
 20
1123.531819466554
 30
0.0
 11
1436.378879538618
 21
1120.365273872053
 31
0.0
  0
LINE
  5
2405
330
21CC
100
AcDbEntity
  8
0
100
AcDbLine
 10
1427.678867331586
 20
1126.381811635143
 30
0.0
 11
1427.678867331586
 21
1123.531819466554
 31
0.0
  0
LINE
  5
2406
330
21CC
100
AcDbEntity
  8
0
100
AcDbLine
 10
1436.378879538618
 20
1120.365273872053
 30
0.0
 11
1436.378879538618
 21
1106.381811635143
 31
0.0
  0
LINE
  5
2407
330
21CC
100
AcDbEntity
  8
0
100
AcDbLine
 10
1453.428862692752
 20
977.3818549095667
 30
0.0
 11
1452.428888588031
 21
976.3818808048455
 31
0.0
  0
LINE
  5
2408
330
21CC
100
AcDbEntity
  8
0
100
AcDbLine
 10
1453.428867331586
 20
1001.381811635143
 30
0.0
 11
1453.428867331586
 21
977.3818574115102
 31
0.0
  0
LINE
  5
2409
330
21CC
100
AcDbEntity
  8
0
100
AcDbLine
 10
1459.078983298383
 20
906.381826893932
 30
0.0
 11
1483.378868094526
 21
906.381826893932
 31
0.0
  0
LINE
  5
240A
330
21CC
100
AcDbEntity
  8
0
100
AcDbLine
 10
1459.078911231402
 20
906.3817995350792
 30
0.0
 11
1415.778194418988
 21
908.0472117325895
 31
0.0
  0
LINE
  5
240B
330
21CC
100
AcDbEntity
  8
0
100
AcDbLine
 10
1452.428867331586
 20
976.3818116351428
 30
0.0
 11
1452.428867331586
 21
906.6375704562096
 31
0.0
  0
LINE
  5
240C
330
21CC
100
AcDbEntity
  8
0
100
AcDbLine
 10
1436.378879538618
 20
1106.381811635143
 30
0.0
 11
1453.428867331586
 21
1001.381811635143
 31
0.0
  0
LINE
  5
240D
330
21CC
100
AcDbEntity
  8
0
100
AcDbLine
 10
1546.678867331586
 20
1123.531801121151
 30
0.0
 11
1537.978855124554
 21
1120.365255526649
 31
0.0
  0
LINE
  5
240E
330
21CC
100
AcDbEntity
  8
0
100
AcDbLine
 10
1546.678867331586
 20
1126.381811635143
 30
0.0
 11
1546.678867331586
 21
1123.531801121151
 31
0.0
  0
LINE
  5
240F
330
21CC
100
AcDbEntity
  8
0
100
AcDbLine
 10
1436.378879538618
 20
1120.365273872053
 30
0.0
 11
1537.978855124554
 21
1120.365255526649
 31
0.0
  0
LINE
  5
2410
330
21CC
100
AcDbEntity
  8
0
100
AcDbLine
 10
1427.678867331586
 20
1126.381811635143
 30
0.0
 11
1546.678867331586
 21
1126.381811635143
 31
0.0
  0
LINE
  5
2411
330
21CC
100
AcDbEntity
  8
0
100
AcDbLine
 10
1436.378879538618
 20
1106.381811635143
 30
0.0
 11
1537.978855124554
 21
1106.381811635143
 31
0.0
  0
LINE
  5
2412
330
21CC
100
AcDbEntity
  8
0
100
AcDbLine
 10
1537.978855124554
 20
1120.365255526649
 30
0.0
 11
1537.978855124554
 21
1106.381811635143
 31
0.0
  0
LINE
  5
2413
330
21CC
100
AcDbEntity
  8
0
100
AcDbLine
 10
1578.178882590375
 20
956.381826893932
 30
0.0
 11
1578.178882590375
 21
1006.381826893931
 31
0.0
  0
LINE
  5
2414
330
21CC
100
AcDbEntity
  8
0
100
AcDbLine
 10
1567.293614685798
 20
991.8818221997751
 30
0.0
 11
1571.178882087954
 21
1006.381837424087
 31
0.0
  0
LINE
  5
2415
330
21CC
100
AcDbEntity
  8
0
100
AcDbLine
 10
1571.178867718153
 20
956.3818208093588
 30
0.0
 11
1567.29360426526
 21
970.8818212948127
 31
0.0
  0
LINE
  5
2416
330
21CC
100
AcDbEntity
  8
0
100
AcDbLine
 10
1578.178882590375
 20
956.381826893932
 30
0.0
 11
1571.178882590375
 21
956.381826893932
 31
0.0
  0
LINE
  5
2417
330
21CC
100
AcDbEntity
  8
0
100
AcDbLine
 10
1578.178882590375
 20
1006.381826893931
 30
0.0
 11
1571.178882590375
 21
1006.381826893931
 31
0.0
  0
LINE
  5
2418
330
21CC
100
AcDbEntity
  8
0
100
AcDbLine
 10
1621.778621665082
 20
890.8818268939322
 30
0.0
 11
1618.928624284467
 21
890.8818268939322
 31
0.0
  0
LINE
  5
2419
330
21CC
100
AcDbEntity
  8
0
100
AcDbLine
 10
1618.928624284467
 20
890.8818268939322
 30
0.0
 11
1615.762078689964
 21
882.1818146869004
 31
0.0
  0
LINE
  5
241A
330
21CC
100
AcDbEntity
  8
0
100
AcDbLine
 10
1592.178686632264
 20
882.1818378695509
 30
0.0
 11
1590.735327376863
 21
884.6818097096818
 31
0.0
  0
LINE
  5
241B
330
21CC
100
AcDbEntity
  8
0
100
AcDbLine
 10
1584.898490897259
 20
884.6817231341665
 30
0.0
 11
1590.735313407025
 21
884.6817231341665
 31
0.0
  0
LINE
  5
241C
330
21CC
100
AcDbEntity
  8
0
100
AcDbLine
 10
1615.762078689964
 20
882.1818146869004
 30
0.0
 11
1592.178623190959
 21
882.1818146869004
 31
0.0
  0
LINE
  5
241D
330
21CC
100
AcDbEntity
  8
0
100
AcDbLine
 10
1621.778621665082
 20
771.8818268939322
 30
0.0
 11
1618.928624284467
 21
771.8818268939322
 31
0.0
  0
LINE
  5
241E
330
21CC
100
AcDbEntity
  8
0
100
AcDbLine
 10
1618.928624284467
 20
771.8818268939322
 30
0.0
 11
1615.762078689964
 21
780.5818391009636
 31
0.0
  0
LINE
  5
241F
330
21CC
100
AcDbEntity
  8
0
100
AcDbLine
 10
1584.898490897259
 20
778.0819306536978
 30
0.0
 11
1590.735313407025
 21
778.0819306536978
 31
0.0
  0
LINE
  5
2420
330
21CC
100
AcDbEntity
  8
0
100
AcDbLine
 10
1592.178686632264
 20
780.5818159183136
 30
0.0
 11
1590.735327376863
 21
778.081844078182
 31
0.0
  0
LINE
  5
2421
330
21CC
100
AcDbEntity
  8
0
100
AcDbLine
 10
1615.762078689964
 20
780.5818391009636
 30
0.0
 11
1592.178623190959
 21
780.5818391009636
 31
0.0
  0
LINE
  5
2422
330
21CC
100
AcDbEntity
  8
0
100
AcDbLine
 10
1571.178867718153
 20
706.3818329785052
 30
0.0
 11
1567.29360426526
 21
691.8818324930517
 31
0.0
  0
LINE
  5
2423
330
21CC
100
AcDbEntity
  8
0
100
AcDbLine
 10
1567.293614685798
 20
670.881831588089
 30
0.0
 11
1571.178882087954
 21
656.381816363777
 31
0.0
  0
LINE
  5
2424
330
21CC
100
AcDbEntity
  8
0
100
AcDbLine
 10
1578.178882590375
 20
706.381826893932
 30
0.0
 11
1571.178882590375
 21
706.381826893932
 31
0.0
  0
LINE
  5
2425
330
21CC
100
AcDbEntity
  8
0
100
AcDbLine
 10
1578.178882590375
 20
656.381826893932
 30
0.0
 11
1571.178882590375
 21
656.381826893932
 31
0.0
  0
LINE
  5
2426
330
21CC
100
AcDbEntity
  8
0
100
AcDbLine
 10
1578.178882590375
 20
706.381826893932
 30
0.0
 11
1578.178882590375
 21
656.381826893932
 31
0.0
  0
LINE
  5
2427
330
21CC
100
AcDbEntity
  8
0
100
AcDbLine
 10
1592.178700016771
 20
882.1818146869004
 30
0.0
 11
1592.178700016771
 21
780.5818391009636
 31
0.0
  0
LINE
  5
2428
330
21CC
100
AcDbEntity
  8
0
100
AcDbLine
 10
1615.762078689964
 20
882.1818146869004
 30
0.0
 11
1615.762078689964
 21
780.5818391009636
 31
0.0
  0
LINE
  5
2429
330
21CC
100
AcDbEntity
  8
0
100
AcDbLine
 10
1621.778621665082
 20
890.8818268939322
 30
0.0
 11
1621.778621665082
 21
771.8818268939322
 31
0.0
  0
LINE
  5
242A
330
21CC
100
AcDbEntity
  8
0
100
AcDbLine
 10
1514.078948633225
 20
991.3818268939321
 30
0.0
 11
1550.178882590375
 21
991.3818268939321
 31
0.0
  0
ARC
  5
242B
330
21CC
100
AcDbEntity
  8
0
100
AcDbCircle
 10
1506.178867331586
 20
948.881826893932
 30
0.0
 40
22.79999923706055
100
AcDbArc
 50
99.1937178959283
 51
180.0000050089569
  0
LINE
  5
242C
330
21CC
100
AcDbEntity
  8
0
100
AcDbLine
 10
1502.536044107873
 20
971.3889325312877
 30
0.0
 11
1514.078948633225
 21
991.3818268939321
 31
0.0
  0
LINE
  5
242D
330
21CC
100
AcDbEntity
  8
0
100
AcDbLine
 10
1520.928867331585
 20
1001.381811635143
 30
0.0
 11
1520.928867331585
 21
991.3818268939321
 31
0.0
  0
LINE
  5
242E
330
21CC
100
AcDbEntity
  8
0
100
AcDbLine
 10
1453.428867331586
 20
977.3818595483989
 30
0.0
 11
1505.996062609005
 21
977.3818595483989
 31
0.0
  0
LINE
  5
242F
330
21CC
100
AcDbEntity
  8
0
100
AcDbLine
 10
1520.928867331585
 20
1001.381811635143
 30
0.0
 11
1453.428867331586
 21
1001.381811635143
 31
0.0
  0
LINE
  5
2430
330
21CC
100
AcDbEntity
  8
0
100
AcDbLine
 10
1514.078948633225
 20
671.381826893932
 30
0.0
 11
1550.178882590375
 21
671.381826893932
 31
0.0
  0
ARC
  5
2431
330
21CC
100
AcDbEntity
  8
0
100
AcDbCircle
 10
1506.178867331586
 20
713.8818268939322
 30
0.0
 40
22.79999923706055
100
AcDbArc
 50
179.999994991043
 51
260.8062821040716
  0
LINE
  5
2432
330
21CC
100
AcDbEntity
  8
0
100
AcDbLine
 10
1502.536044107873
 20
691.3747212565766
 30
0.0
 11
1514.078948633225
 21
671.381826893932
 31
0.0
  0
LINE
  5
2433
330
21CC
100
AcDbEntity
  8
0
100
AcDbLine
 10
1533.07886122807
 20
991.3818268939321
 30
0.0
 11
1533.07886122807
 21
671.381826893932
 31
0.0
  0
LINE
  5
2434
330
21CC
100
AcDbEntity
  8
0
100
AcDbLine
 10
1514.078948966108
 20
672.381826893932
 30
0.0
 11
1514.078948966108
 21
991.3818268939321
 31
0.0
  0
LINE
  5
2435
330
21CC
100
AcDbEntity
  8
0
100
AcDbLine
 10
1550.178882590375
 20
991.881826893932
 30
0.0
 11
1550.178882590375
 21
670.881826893932
 31
0.0
  0
LINE
  5
2436
330
21CC
100
AcDbEntity
  8
0
100
AcDbLine
 10
1584.89846573032
 20
778.0818250541856
 30
0.0
 11
1550.178878046598
 21
728.4971155390103
 31
0.0
  0
LINE
  5
2437
330
21CC
100
AcDbEntity
  8
0
100
AcDbLine
 10
1567.29362105473
 20
670.881826893932
 30
0.0
 11
1550.178882590375
 21
670.881826893932
 31
0.0
  0
LINE
  5
2438
330
21CC
100
AcDbEntity
  8
0
100
AcDbLine
 10
1567.29362105473
 20
691.881826893932
 30
0.0
 11
1550.178882590375
 21
691.881826893932
 31
0.0
  0
LINE
  5
2439
330
21CC
100
AcDbEntity
  8
0
100
AcDbLine
 10
1584.89846573032
 20
884.6818287336784
 30
0.0
 11
1550.178878046598
 21
934.266538248854
 31
0.0
  0
LINE
  5
243A
330
21CC
100
AcDbEntity
  8
0
100
AcDbLine
 10
1567.29362105473
 20
970.8818268939321
 30
0.0
 11
1550.178882590375
 21
970.8818268939321
 31
0.0
  0
LINE
  5
243B
330
21CC
100
AcDbEntity
  8
0
100
AcDbLine
 10
1567.29362105473
 20
991.881826893932
 30
0.0
 11
1550.178882590375
 21
991.881826893932
 31
0.0
  0
LINE
  5
243C
330
21CC
100
AcDbEntity
  8
0
100
AcDbLine
 10
1520.928867331585
 20
1001.381811635143
 30
0.0
 11
1537.978855124554
 21
1106.381811635143
 31
0.0
  0
LINE
  5
243D
330
21CC
100
AcDbEntity
  8
0
100
AcDbLine
 10
2330.464607625997
 20
954.8017211519091
 30
0.0
 11
2347.214989091306
 21
950.3134699277484
 31
0.0
  0
LINE
  5
243E
330
21CC
100
AcDbEntity
  8
0
100
AcDbLine
 10
2347.214973836933
 20
950.3134980365102
 30
0.0
 11
2347.214973836933
 21
862.2177949115103
 31
0.0
  0
LINE
  5
243F
330
21CC
100
AcDbEntity
  8
0
100
AcDbLine
 10
2033.215034872088
 20
950.3134980365102
 30
0.0
 11
2033.215034872088
 21
862.221893117373
 31
0.0
  0
LINE
  5
2440
330
21CC
100
AcDbEntity
  8
0
100
AcDbLine
 10
1926.215034872088
 20
944.3814301654166
 30
0.0
 11
2033.215034872088
 21
944.3814301654166
 31
0.0
  0
LINE
  5
2441
330
21CC
100
AcDbEntity
  8
0
100
AcDbLine
 10
2033.214948863772
 20
950.3134489500055
 30
0.0
 11
2113.624845177374
 21
971.8592159112912
 31
0.0
  0
LINE
  5
2442
330
21CC
100
AcDbEntity
  8
0
100
AcDbLine
 10
1266.778194418988
 20
1295.461951333203
 30
0.0
 11
1266.778194418988
 21
1402.461951333203
 31
0.0
  0
LINE
  5
2443
330
21CC
100
AcDbEntity
  8
0
100
AcDbLine
 10
1415.778194418988
 20
1402.461951333203
 30
0.0
 11
1415.778194418988
 21
1716.461905552419
 31
0.0
  0
LINE
  5
2444
330
21CC
100
AcDbEntity
  8
0
100
AcDbLine
 10
1086.778194418988
 20
1295.461951333203
 30
0.0
 11
1086.778194418988
 21
1402.461951333203
 31
0.0
  0
LINE
  5
2445
330
21CC
100
AcDbEntity
  8
0
100
AcDbLine
 10
975.7781944189881
 20
1402.461951333203
 30
0.0
 11
975.7781944189881
 21
1716.461905552419
 31
0.0
  0
LINE
  5
2446
330
21CC
100
AcDbEntity
  8
0
100
AcDbLine
 10
1415.778194418988
 20
1402.461951333203
 30
0.0
 11
975.7781944189881
 21
1402.461951333203
 31
0.0
  0
LINE
  5
2447
330
21CC
100
AcDbEntity
  8
0
100
AcDbLine
 10
975.7781944189881
 20
993.3814301654164
 30
0.0
 11
1415.778194418988
 21
993.3814301654164
 31
0.0
  0
LINE
  5
244A
330
21CC
100
AcDbEntity
  8
0
100
AcDbLine
 10
1415.778194418988
 20
1716.461905552419
 30
0.0
 11
975.7781944189881
 21
1716.461905552419
 31
0.0
  0
TEXT
  5
244B
330
21CC
100
AcDbEntity
  8
0
  6
Continuous
100
AcDbText
 10
1005.601197117309
 20
1841.960408670121
 30
0.0
 40
48.000002
  1
EZB2__075___ 4SX4S
 41
0.8449620000000001
100
AcDbText
  0
LINE
  5
244C
330
21CC
100
AcDbEntity
  8
0
100
AcDbLine
 10
2348.214607625996
 20
659.3814301654165
 30
0.0
 11
2348.214607625996
 21
603.7115693255728
 31
0.0
  0
LINE
  5
244D
330
21CC
100
AcDbEntity
  8
0
100
AcDbLine
 10
2308.214607625995
 20
644.3814301654165
 30
0.0
 11
2308.214607625995
 21
603.7115693255728
 31
0.0
  0
LINE
  5
244E
330
21CC
100
AcDbEntity
  8
0
100
AcDbLine
 10
2345.714607625996
 20
594.3814301654165
 30
0.0
 11
2310.714607625997
 21
594.3814301654165
 31
0.0
  0
LINE
  5
244F
330
21CC
100
AcDbEntity
  8
0
100
AcDbLine
 10
2310.71460686577
 20
594.3814205943358
 30
0.0
 11
2308.214611385968
 21
603.7115306654541
 31
0.0
  0
LINE
  5
2450
330
21CC
100
AcDbEntity
  8
0
100
AcDbLine
 10
2345.714641373086
 20
594.3814205004408
 30
0.0
 11
2348.214642776786
 21
603.7115526798465
 31
0.0
  0
ARC
  5
2451
330
21CC
100
AcDbEntity
  8
0
100
AcDbCircle
 10
2293.214607625996
 20
644.3814301654165
 30
0.0
 40
15.0
100
AcDbArc
 50
359.999994991043
 51
89.99999749551827
  0
LINE
  5
2452
330
21CC
100
AcDbEntity
  8
0
100
AcDbLine
 10
2347.214180379901
 20
659.3814912005727
 30
0.0
 11
2348.214607625996
 21
659.3814912005727
 31
0.0
  0
LINE
  5
2453
330
21CC
100
AcDbEntity
  8
0
100
AcDbLine
 10
2300.714607625996
 20
541.3814301654165
 30
0.0
 11
2355.714607625996
 21
541.3814301654165
 31
0.0
  0
LINE
  5
2454
330
21CC
100
AcDbEntity
  8
0
100
AcDbLine
 10
2300.714607625996
 20
547.3814301654165
 30
0.0
 11
2355.714607625993
 21
547.3814301654165
 31
0.0
  0
LINE
  5
2455
330
21CC
100
AcDbEntity
  8
0
100
AcDbLine
 10
2340.714607625995
 20
569.3814301654165
 30
0.0
 11
2315.714607625996
 21
569.3814301654165
 31
0.0
  0
LINE
  5
2456
330
21CC
100
AcDbEntity
  8
0
100
AcDbLine
 10
2322.214607625995
 20
569.3814301654165
 30
0.0
 11
2322.214607625995
 21
547.3814301654165
 31
0.0
  0
LINE
  5
2457
330
21CC
100
AcDbEntity
  8
0
100
AcDbLine
 10
2334.214607625996
 20
569.3814301654165
 30
0.0
 11
2334.214607625996
 21
547.3814301654165
 31
0.0
  0
LINE
  5
2458
330
21CC
100
AcDbEntity
  8
0
100
AcDbLine
 10
2300.714607625996
 20
547.3814301654165
 30
0.0
 11
2300.714607625996
 21
541.3814301654165
 31
0.0
  0
LINE
  5
2459
330
21CC
100
AcDbEntity
  8
0
100
AcDbLine
 10
2355.714607625993
 20
547.3814301654165
 30
0.0
 11
2355.714607625996
 21
541.3814301654165
 31
0.0
  0
LINE
  5
245A
330
21CC
100
AcDbEntity
  8
0
100
AcDbLine
 10
2315.714607625996
 20
594.3814301654165
 30
0.0
 11
2315.714607625996
 21
569.3814301654165
 31
0.0
  0
LINE
  5
245B
330
21CC
100
AcDbEntity
  8
0
100
AcDbLine
 10
2340.714607625995
 20
594.3814301654165
 30
0.0
 11
2340.714607625995
 21
569.3814301654165
 31
0.0
  0
LINE
  5
245C
330
21CC
100
AcDbEntity
  8
0
100
AcDbLine
 10
2347.214180379901
 20
800.5409672134605
 30
0.0
 11
2347.214180379901
 21
659.3814912005727
 31
0.0
  0
LINE
  5
245D
330
21CC
100
AcDbEntity
  8
0
100
AcDbLine
 10
1926.214988034201
 20
755.3814948544976
 30
0.0
 11
2033.215034872088
 21
726.7109184738918
 31
0.0
  0
LINE
  5
245E
330
21CC
100
AcDbEntity
  8
0
100
AcDbLine
 10
2033.215034872088
 20
800.5409672134598
 30
0.0
 11
2033.215034872088
 21
730.1942580046919
 31
0.0
  0
LINE
  5
245F
330
21CC
100
AcDbEntity
  8
0
100
AcDbLine
 10
2099.793371182334
 20
699.3814301654165
 30
0.0
 11
2033.215034872088
 21
699.3814301654165
 31
0.0
  0
LINE
  5
2460
330
21CC
100
AcDbEntity
  8
0
100
AcDbLine
 10
2032.214607625996
 20
659.3814301654165
 30
0.0
 11
2032.214607625996
 21
603.7115693255728
 31
0.0
  0
LINE
  5
2461
330
21CC
100
AcDbEntity
  8
0
100
AcDbLine
 10
2072.214607625995
 20
644.3814301654165
 30
0.0
 11
2072.214607625995
 21
603.7115693255728
 31
0.0
  0
LINE
  5
2462
330
21CC
100
AcDbEntity
  8
0
100
AcDbLine
 10
2034.714607625996
 20
594.3814301654165
 30
0.0
 11
2069.714607625996
 21
594.3814301654165
 31
0.0
  0
LINE
  5
2463
330
21CC
100
AcDbEntity
  8
0
100
AcDbLine
 10
2034.714573878904
 20
594.3814205004408
 30
0.0
 11
2032.214572475202
 21
603.7115526798465
 31
0.0
  0
LINE
  5
2464
330
21CC
100
AcDbEntity
  8
0
100
AcDbLine
 10
2069.714608386218
 20
594.3814205943358
 30
0.0
 11
2072.214603866023
 21
603.7115306654541
 31
0.0
  0
LINE
  5
2465
330
21CC
100
AcDbEntity
  8
0
100
AcDbLine
 10
2033.215034872088
 20
659.3814912005727
 30
0.0
 11
2032.214607625996
 21
659.3814912005727
 31
0.0
  0
ARC
  5
2466
330
21CC
100
AcDbEntity
  8
0
100
AcDbCircle
 10
2087.214607625996
 20
644.3814301654165
 30
0.0
 40
15.0
100
AcDbArc
 50
90.00000250448172
 51
180.0000050089569
  0
LINE
  5
2467
330
21CC
100
AcDbEntity
  8
0
100
AcDbLine
 10
2079.714607625996
 20
547.3814301654165
 30
0.0
 11
2024.714607625996
 21
547.3814301654165
 31
0.0
  0
LINE
  5
2468
330
21CC
100
AcDbEntity
  8
0
100
AcDbLine
 10
2079.714607625996
 20
541.3814301654165
 30
0.0
 11
2024.714607625996
 21
541.3814301654165
 31
0.0
  0
LINE
  5
2469
330
21CC
100
AcDbEntity
  8
0
100
AcDbLine
 10
2039.714607625996
 20
569.3814301654165
 30
0.0
 11
2064.714607625996
 21
569.3814301654165
 31
0.0
  0
LINE
  5
246A
330
21CC
100
AcDbEntity
  8
0
100
AcDbLine
 10
2046.214607625996
 20
569.3814301654165
 30
0.0
 11
2046.214607625996
 21
547.3814301654165
 31
0.0
  0
LINE
  5
246B
330
21CC
100
AcDbEntity
  8
0
100
AcDbLine
 10
2024.714607625996
 20
547.3814301654165
 30
0.0
 11
2024.714607625996
 21
541.3814301654165
 31
0.0
  0
LINE
  5
246C
330
21CC
100
AcDbEntity
  8
0
100
AcDbLine
 10
2058.214607625996
 20
569.3814301654165
 30
0.0
 11
2058.214607625996
 21
547.3814301654165
 31
0.0
  0
LINE
  5
246D
330
21CC
100
AcDbEntity
  8
0
100
AcDbLine
 10
2079.714607625996
 20
547.3814301654165
 30
0.0
 11
2079.714607625996
 21
541.3814301654165
 31
0.0
  0
LINE
  5
246E
330
21CC
100
AcDbEntity
  8
0
100
AcDbLine
 10
2039.714607625996
 20
594.3814301654165
 30
0.0
 11
2039.714607625996
 21
569.3814301654165
 31
0.0
  0
LINE
  5
246F
330
21CC
100
AcDbEntity
  8
0
100
AcDbLine
 10
2064.714607625996
 20
594.3814301654165
 30
0.0
 11
2064.714607625996
 21
569.3814301654165
 31
0.0
  0
LINE
  5
2470
330
21CC
100
AcDbEntity
  8
0
100
AcDbLine
 10
2087.214607625996
 20
659.3814301654165
 30
0.0
 11
2107.214607625996
 21
659.3814301654165
 31
0.0
  0
LINE
  5
2471
330
21CC
100
AcDbEntity
  8
0
100
AcDbLine
 10
2033.215034872088
 20
742.7813935443228
 30
0.0
 11
2033.215034872088
 21
659.3814912005727
 31
0.0
  0
LINE
  5
2472
330
21CC
100
AcDbEntity
  8
0
100
AcDbLine
 10
2107.214607625996
 20
694.5932727832804
 30
0.0
 11
2107.214607625996
 21
659.3814301654165
 31
0.0
  0
LINE
  5
2473
330
21CC
100
AcDbEntity
  8
0
100
AcDbLine
 10
2273.214607625995
 20
694.5932727832804
 30
0.0
 11
2273.214607625995
 21
659.3814301654165
 31
0.0
  0
LINE
  5
2474
330
21CC
100
AcDbEntity
  8
0
100
AcDbLine
 10
2280.635844069653
 20
699.3814301654165
 30
0.0
 11
2347.214180379901
 21
699.3814301654165
 31
0.0
  0
LINE
  5
2475
330
21CC
100
AcDbEntity
  8
0
100
AcDbLine
 10
2293.214607625996
 20
659.3814301654165
 30
0.0
 11
2273.214607625995
 21
659.3814301654165
 31
0.0
  0
LINE
  5
2476
330
21CC
100
AcDbEntity
  8
0
100
AcDbLine
 10
1413.278438559613
 20
660.3814301654165
 30
0.0
 11
1413.278438559613
 21
603.7115693255728
 31
0.0
  0
LINE
  5
2477
330
21CC
100
AcDbEntity
  8
0
100
AcDbLine
 10
1373.278408042036
 20
660.3814301654165
 30
0.0
 11
1373.278408042036
 21
603.7115388079945
 31
0.0
  0
LINE
  5
2478
330
21CC
100
AcDbEntity
  8
0
100
AcDbLine
 10
1375.778408042036
 20
594.3814301654165
 30
0.0
 11
1410.778408042036
 21
594.3814301654165
 31
0.0
  0
LINE
  5
2479
330
21CC
100
AcDbEntity
  8
0
100
AcDbLine
 10
1375.778455806216
 20
594.3814469023208
 30
0.0
 11
1373.278465493948
 21
603.7115425610148
 31
0.0
  0
LINE
  5
247A
330
21CC
100
AcDbEntity
  8
0
100
AcDbLine
 10
1410.77851135148
 20
594.3814266529762
 30
0.0
 11
1413.278505613012
 21
603.7115370505294
 31
0.0
  0
LINE
  5
247B
330
21CC
100
AcDbEntity
  8
0
100
AcDbLine
 10
1365.778621665082
 20
547.3814301654165
 30
0.0
 11
1420.778621665082
 21
547.3814301654165
 31
0.0
  0
LINE
  5
247C
330
21CC
100
AcDbEntity
  8
0
100
AcDbLine
 10
1365.778621665082
 20
541.3814301654165
 30
0.0
 11
1420.778621665082
 21
541.3814301654165
 31
0.0
  0
LINE
  5
247D
330
21CC
100
AcDbEntity
  8
0
100
AcDbLine
 10
1365.778621665082
 20
547.3814301654165
 30
0.0
 11
1365.778621665082
 21
541.3814301654165
 31
0.0
  0
LINE
  5
247E
330
21CC
100
AcDbEntity
  8
0
100
AcDbLine
 10
1387.278621665082
 20
569.3814301654165
 30
0.0
 11
1387.278621665082
 21
547.3814301654165
 31
0.0
  0
LINE
  5
247F
330
21CC
100
AcDbEntity
  8
0
100
AcDbLine
 10
1399.278621665082
 20
569.381430165416
 30
0.0
 11
1399.278621665082
 21
547.3814301654165
 31
0.0
  0
LINE
  5
2480
330
21CC
100
AcDbEntity
  8
0
100
AcDbLine
 10
1380.778621665082
 20
569.3814301654165
 30
0.0
 11
1405.778621665082
 21
569.381430165416
 31
0.0
  0
LINE
  5
2481
330
21CC
100
AcDbEntity
  8
0
100
AcDbLine
 10
1420.778621665082
 20
547.3814301654165
 30
0.0
 11
1420.778621665082
 21
541.3814301654165
 31
0.0
  0
LINE
  5
2482
330
21CC
100
AcDbEntity
  8
0
100
AcDbLine
 10
1405.778621665082
 20
594.3814266529762
 30
0.0
 11
1405.778621665082
 21
569.3814301654165
 31
0.0
  0
LINE
  5
2483
330
21CC
100
AcDbEntity
  8
0
100
AcDbLine
 10
1380.778621665082
 20
594.3814469023208
 30
0.0
 11
1380.778621665082
 21
569.3814301654165
 31
0.0
  0
LINE
  5
2484
330
21CC
100
AcDbEntity
  8
0
100
AcDbLine
 10
1153.278408042034
 20
660.3814211167563
 30
0.0
 11
1153.278408042034
 21
603.7115388079945
 31
0.0
  0
LINE
  5
2485
330
21CC
100
AcDbEntity
  8
0
100
AcDbLine
 10
1150.7784394907
 20
594.3814264737816
 30
0.0
 11
1153.27843375223
 21
603.7115368713346
 31
0.0
  0
LINE
  5
2486
330
21CC
100
AcDbEntity
  8
0
100
AcDbLine
 10
1160.778194418988
 20
547.3814301654165
 30
0.0
 11
1160.778194418988
 21
541.3814301654165
 31
0.0
  0
LINE
  5
2487
330
21CC
100
AcDbEntity
  8
0
100
AcDbLine
 10
1139.278194418988
 20
569.3814301654165
 30
0.0
 11
1139.278194418988
 21
547.3814301654165
 31
0.0
  0
LINE
  5
2488
330
21CC
100
AcDbEntity
  8
0
100
AcDbLine
 10
1145.778194418988
 20
594.3814301654165
 30
0.0
 11
1145.778194418988
 21
569.3814301654165
 31
0.0
  0
LINE
  5
2489
330
21CC
100
AcDbEntity
  8
0
100
AcDbLine
 10
1113.278408042034
 20
660.3814301654165
 30
0.0
 11
1113.278408042034
 21
603.7115693255728
 31
0.0
  0
LINE
  5
248A
330
21CC
100
AcDbEntity
  8
0
100
AcDbLine
 10
1115.778428162012
 20
594.3814589293061
 30
0.0
 11
1113.278433900481
 21
603.7115693268587
 31
0.0
  0
LINE
  5
248B
330
21CC
100
AcDbEntity
  8
0
100
AcDbLine
 10
1105.778194418988
 20
547.3814301654165
 30
0.0
 11
1105.778194418988
 21
541.3814301654165
 31
0.0
  0
LINE
  5
248C
330
21CC
100
AcDbEntity
  8
0
100
AcDbLine
 10
1127.278194418988
 20
547.3814301654165
 30
0.0
 11
1127.278194418988
 21
569.3814301654165
 31
0.0
  0
LINE
  5
248D
330
21CC
100
AcDbEntity
  8
0
100
AcDbLine
 10
1120.778194418988
 20
594.3814301654165
 30
0.0
 11
1120.778194418988
 21
569.3814301654165
 31
0.0
  0
LINE
  5
248E
330
21CC
100
AcDbEntity
  8
0
100
AcDbLine
 10
975.7781527717433
 20
695.3814837745539
 30
0.0
 11
1071.940031160138
 21
660.3814211167563
 31
0.0
  0
LINE
  5
248F
330
21CC
100
AcDbEntity
  8
0
100
AcDbLine
 10
1071.940029135784
 20
660.3814301654165
 30
0.0
 11
1415.778194418988
 21
660.3814301654165
 31
0.0
  0
LINE
  5
2490
330
21CC
100
AcDbEntity
  8
0
100
AcDbLine
 10
1150.778408042034
 20
594.3814301654165
 30
0.0
 11
1115.778408042034
 21
594.3814301654165
 31
0.0
  0
LINE
  5
2491
330
21CC
100
AcDbEntity
  8
0
100
AcDbLine
 10
1120.778194418988
 20
569.3814301654165
 30
0.0
 11
1145.778194418988
 21
569.3814301654165
 31
0.0
  0
LINE
  5
2492
330
21CC
100
AcDbEntity
  8
0
100
AcDbLine
 10
1160.778194418988
 20
547.3814301654165
 30
0.0
 11
1105.778194418988
 21
547.3814301654165
 31
0.0
  0
LINE
  5
2493
330
21CC
100
AcDbEntity
  8
0
100
AcDbLine
 10
1160.778194418988
 20
541.3814301654165
 30
0.0
 11
1105.778194418988
 21
541.3814301654165
 31
0.0
  0
LINE
  5
2496
330
21CC
100
AcDbEntity
  8
0
100
AcDbLine
 10
975.7781944189881
 20
993.3814301654164
 30
0.0
 11
975.7781944189881
 21
695.3814606829945
 31
0.0
  0
LINE
  5
2497
330
21CC
100
AcDbEntity
  8
0
100
AcDbLine
 10
1086.778194418988
 20
944.3814301654166
 30
0.0
 11
1086.778194418988
 21
660.3814301654165
 31
0.0
  0
LINE
  5
2498
330
21CC
100
AcDbEntity
  8
0
100
AcDbLine
 10
1266.778194418988
 20
944.3814301654166
 30
0.0
 11
1266.778194418988
 21
660.3814301654165
 31
0.0
  0
LINE
  5
2499
330
21CC
100
AcDbEntity
  8
0
100
AcDbLine
 10
1415.778194418988
 20
993.3814301654164
 30
0.0
 11
1415.778194418988
 21
660.3814301654165
 31
0.0
  0
LINE
  5
249A
330
21CC
100
AcDbEntity
  8
0
100
AcDbLine
 10
1926.215034872088
 20
944.3814301654166
 30
0.0
 11
1926.215034872088
 21
755.3814606829945
 31
0.0
  0
LINE
  5
24A0
330
21CC
100
AcDbEntity
  8
0
  6
Continuous
100
AcDbLine
 10
1266.778194418988
 20
944.3814301654166
 30
0.0
 11
1086.778194418988
 21
944.3814301654166
 31
0.0
  0
LINE
  5
24A1
330
21CC
100
AcDbEntity
  8
0
  6
Continuous
100
AcDbLine
 10
1266.778194418988
 20
755.3814948544976
 30
0.0
 11
1086.778194418988
 21
755.3814948544976
 31
0.0
  0
LINE
  5
24A2
330
21CC
100
AcDbEntity
  8
0
  6
Continuous
100
AcDbLine
 10
1266.778194418988
 20
726.7109184738918
 30
0.0
 11
1086.778194418988
 21
726.7109184738918
 31
0.0
  0
LINE
  5
24A8
330
21CC
100
AcDbEntity
  8
0
100
AcDbLine
 10
1266.778194418988
 20
1295.461951333203
 30
0.0
 11
1086.778194418988
 21
1295.461951333203
 31
0.0
  0
ENDSEC
  0
SECTION
  2
OBJECTS
  0
DICTIONARY
  5
21BA
330
0
100
AcDbDictionary
281
     1
  3
ACAD_GROUP
350
21BB
  3
ACAD_LAYOUT
350
21C7
  3
ACAD_MLINESTYLE
350
21C4
  3
ACAD_PLOTSETTINGS
350
21C6
  3
ACAD_PLOTSTYLENAME
350
21BC
  3
AcDbVariableDictionary
350
2238
  0
DICTIONARY
  5
2244
330
21B0
100
AcDbDictionary
280
     1
281
     1
  3
ACAD_LAYERSTATES
360
2245
  0
DICTIONARY
  5
21F8
330
21CC
100
AcDbDictionary
280
     1
281
     1
  3
ACAD_LAYOUTSELFREF
360
2227
  0
DICTIONARY
  5
21FA
330
21C8
100
AcDbDictionary
280
     1
281
     1
  3
ACAD_LAYOUTSELFREF
360
2226
  0
DICTIONARY
  5
21BB
102
{ACAD_REACTORS
330
21BA
102
}
330
21BA
100
AcDbDictionary
281
     1
  0
DICTIONARY
  5
21C7
102
{ACAD_REACTORS
330
21BA
102
}
330
21BA
100
AcDbDictionary
281
     1
  3
Model
350
21CF
  3
ﾚｲｱｳﾄ1
350
21CB
  0
DICTIONARY
  5
21C4
102
{ACAD_REACTORS
330
21BA
102
}
330
21BA
100
AcDbDictionary
281
     1
  3
Standard
350
21C5
  0
DICTIONARY
  5
21C6
102
{ACAD_REACTORS
330
21BA
102
}
330
21BA
100
AcDbDictionary
281
     1
  0
ACDBDICTIONARYWDFLT
  5
21BC
102
{ACAD_REACTORS
330
21BA
102
}
330
21BA
100
AcDbDictionary
281
     1
  3
Normal
350
21BD
100
AcDbDictionaryWithDefault
340
21BD
  0
DICTIONARY
  5
2238
102
{ACAD_REACTORS
330
21BA
102
}
330
21BA
100
AcDbDictionary
281
     1
  3
DIMASSOC
350
2239
  0
DICTIONARY
  5
2245
102
{ACAD_REACTORS
330
2244
102
}
330
2244
100
AcDbDictionary
281
     1
  0
XRECORD
  5
2227
102
{ACAD_REACTORS
330
21F8
102
}
330
21F8
100
AcDbXrecord
280
     1
340
21CC
  0
XRECORD
  5
2226
102
{ACAD_REACTORS
330
21FA
102
}
330
21FA
100
AcDbXrecord
280
     1
340
21C8
  0
LAYOUT
  5
21CF
102
{ACAD_REACTORS
330
21C7
102
}
330
21C7
100
AcDbPlotSettings
  1

  2
SII LP-2150 (D-SCAN C2)
  4

  6

 40
0.0
 41
0.0
 42
0.0
 43
0.0
 44
0.0
 45
0.0
 46
0.0
 47
0.0
 48
0.0
 49
0.0
140
0.0
141
0.0
142
1.0
143
1.0
 70
  1712
 72
     0
 73
     0
 74
     0
  7

 75
     0
147
1.0
148
0.0
149
0.0
100
AcDbLayout
  1
Model
 70
     1
 71
     0
 10
0.0
 20
0.0
 11
12.0
 21
9.0
 12
0.0
 22
0.0
 32
0.0
 14
0.0
 24
0.0
 34
0.0
 15
0.0
 25
0.0
 35
0.0
146
0.0
 13
0.0
 23
0.0
 33
0.0
 16
1.0
 26
0.0
 36
0.0
 17
0.0
 27
1.0
 37
0.0
 76
     0
330
21CC
  0
LAYOUT
  5
21CB
102
{ACAD_REACTORS
330
21C7
102
}
330
21C7
100
AcDbPlotSettings
  1

  2
SII LP-2150 (D-SCAN C2)
  4

  6

 40
0.0
 41
0.0
 42
0.0
 43
0.0
 44
0.0
 45
0.0
 46
0.0
 47
0.0
 48
0.0
 49
0.0
140
0.0
141
0.0
142
1.0
143
1.0
 70
   688
 72
     0
 73
     0
 74
     5
  7

 75
    16
147
1.0
148
0.0
149
0.0
100
AcDbLayout
  1
ﾚｲｱｳﾄ1
 70
     1
 71
     1
 10
0.0
 20
0.0
 11
12.0
 21
9.0
 12
0.0
 22
0.0
 32
0.0
 14
1.000000000000000E+20
 24
1.000000000000000E+20
 34
1.000000000000000E+20
 15
-1.000000000000000E+20
 25
-1.000000000000000E+20
 35
-1.000000000000000E+20
146
0.0
 13
0.0
 23
0.0
 33
0.0
 16
1.0
 26
0.0
 36
0.0
 17
0.0
 27
1.0
 37
0.0
 76
     0
330
21C8
  0
MLINESTYLE
  5
21C5
102
{ACAD_REACTORS
330
21C4
102
}
330
21C4
100
AcDbMlineStyle
  2
STANDARD
 70
     0
  3

 62
   256
 51
90.0
 52
90.0
 71
     2
 49
0.5
 62
   256
  6
BYLAYER
 49
-0.5
 62
   256
  6
BYLAYER
  0
ACDBPLACEHOLDER
  5
21BD
102
{ACAD_REACTORS
330
21BC
102
}
330
21BC
  0
DICTIONARYVAR
  5
2239
102
{ACAD_REACTORS
330
2238
102
}
330
2238
100
DictionaryVariables
280
     0
  1
1
  0
ENDSEC
  0
EOF
