  0
SECTION
  2
HEADER
  9
$ACADVER
  1
AC1015
  9
$ACADMAINTVER
 70
    14
  9
$DWGCODEPAGE
  3
ANSI_932
  9
$INSBASE
 10
0.0
 20
0.0
 30
0.0
  9
$EXTMIN
 10
900.3328880863419
 20
382.6968817707206
 30
-0.0000000000000058
  9
$EXTMAX
 10
2349.620377078365
 20
1835.029849771995
 30
0.0000000000000104
  9
$LIMMIN
 10
0.0
 20
0.0
  9
$LIMMAX
 10
12.0
 20
9.0
  9
$ORTHOMODE
 70
     0
  9
$REGENMODE
 70
     1
  9
$FILLMODE
 70
     1
  9
$QTEXTMODE
 70
     0
  9
$MIRRTEXT
 70
     1
  9
$LTSCALE
 40
1.0
  9
$ATTMODE
 70
     1
  9
$TEXTSIZE
 40
0.2
  9
$TRACEWID
 40
0.05
  9
$TEXTSTYLE
  7
STANDARD
  9
$CLAYER
  8
0
  9
$CELTYPE
  6
CONTINUOUS
  9
$CECOLOR
 62
   256
  9
$CELTSCALE
 40
1.0
  9
$DISPSILH
 70
     0
  9
$DIMSCALE
 40
1.0
  9
$DIMASZ
 40
0.18
  9
$DIMEXO
 40
0.0625
  9
$DIMDLI
 40
0.38
  9
$DIMRND
 40
0.0
  9
$DIMDLE
 40
0.0
  9
$DIMEXE
 40
0.18
  9
$DIMTP
 40
0.0
  9
$DIMTM
 40
0.0
  9
$DIMTXT
 40
0.18
  9
$DIMCEN
 40
0.09
  9
$DIMTSZ
 40
0.0
  9
$DIMTOL
 70
     0
  9
$DIMLIM
 70
     0
  9
$DIMTIH
 70
     1
  9
$DIMTOH
 70
     1
  9
$DIMSE1
 70
     0
  9
$DIMSE2
 70
     0
  9
$DIMTAD
 70
     0
  9
$DIMZIN
 70
     0
  9
$DIMBLK
  1

  9
$DIMASO
 70
     1
  9
$DIMSHO
 70
     0
  9
$DIMPOST
  1

  9
$DIMAPOST
  1

  9
$DIMALT
 70
     0
  9
$DIMALTD
 70
     2
  9
$DIMALTF
 40
25.4
  9
$DIMLFAC
 40
1.0
  9
$DIMTOFL
 70
     0
  9
$DIMTVP
 40
0.0
  9
$DIMTIX
 70
     0
  9
$DIMSOXD
 70
     0
  9
$DIMSAH
 70
     0
  9
$DIMBLK1
  1

  9
$DIMBLK2
  1

  9
$DIMSTYLE
  2
STANDARD
  9
$DIMCLRD
 70
     0
  9
$DIMCLRE
 70
     0
  9
$DIMCLRT
 70
     0
  9
$DIMTFAC
 40
1.0
  9
$DIMGAP
 40
0.09
  9
$DIMJUST
 70
     0
  9
$DIMSD1
 70
     0
  9
$DIMSD2
 70
     0
  9
$DIMTOLJ
 70
     1
  9
$DIMTZIN
 70
     0
  9
$DIMALTZ
 70
     0
  9
$DIMALTTZ
 70
     0
  9
$DIMUPT
 70
     0
  9
$DIMDEC
 70
     4
  9
$DIMTDEC
 70
     4
  9
$DIMALTU
 70
     2
  9
$DIMALTTD
 70
     2
  9
$DIMTXSTY
  7
STANDARD
  9
$DIMAUNIT
 70
     0
  9
$DIMADEC
 70
     0
  9
$DIMALTRND
 40
0.0
  9
$DIMAZIN
 70
     0
  9
$DIMDSEP
 70
    46
  9
$DIMATFIT
 70
     3
  9
$DIMFRAC
 70
     0
  9
$DIMLDRBLK
  1

  9
$DIMLUNIT
 70
     2
  9
$DIMLWD
 70
    -2
  9
$DIMLWE
 70
    -2
  9
$DIMTMOVE
 70
     2
  9
$LUNITS
 70
     2
  9
$LUPREC
 70
     4
  9
$SKETCHINC
 40
0.1
  9
$FILLETRAD
 40
0.0
  9
$AUNITS
 70
     0
  9
$AUPREC
 70
     0
  9
$MENU
  1
.
  9
$ELEVATION
 40
0.0
  9
$PELEVATION
 40
0.0
  9
$THICKNESS
 40
0.0
  9
$LIMCHECK
 70
     0
  9
$CHAMFERA
 40
0.0
  9
$CHAMFERB
 40
0.0
  9
$CHAMFERC
 40
0.0
  9
$CHAMFERD
 40
0.0
  9
$SKPOLY
 70
     0
  9
$TDCREATE
 40
2452488.423138738
  9
$TDUCREATE
 40
2452488.048138738
  9
$TDUPDATE
 40
2456906.718980683
  9
$TDUUPDATE
 40
2456906.343980683
  9
$TDINDWG
 40
0.2876925000
  9
$TDUSRTIMER
 40
0.2876923148
  9
$USRTIMER
 70
     1
  9
$ANGBASE
 50
0.0
  9
$ANGDIR
 70
     0
  9
$PDMODE
 70
     3
  9
$PDSIZE
 40
0.0
  9
$PLINEWID
 40
0.0
  9
$SPLFRAME
 70
     0
  9
$SPLINETYPE
 70
     6
  9
$SPLINESEGS
 70
     8
  9
$HANDSEED
  5
2498
  9
$SURFTAB1
 70
     6
  9
$SURFTAB2
 70
     6
  9
$SURFTYPE
 70
     6
  9
$SURFU
 70
     6
  9
$SURFV
 70
     6
  9
$UCSBASE
  2

  9
$UCSNAME
  2

  9
$UCSORG
 10
0.0
 20
0.0
 30
0.0
  9
$UCSXDIR
 10
1.0
 20
0.0
 30
0.0
  9
$UCSYDIR
 10
0.0
 20
1.0
 30
0.0
  9
$UCSORTHOREF
  2

  9
$UCSORTHOVIEW
 70
     0
  9
$UCSORGTOP
 10
0.0
 20
0.0
 30
0.0
  9
$UCSORGBOTTOM
 10
0.0
 20
0.0
 30
0.0
  9
$UCSORGLEFT
 10
0.0
 20
0.0
 30
0.0
  9
$UCSORGRIGHT
 10
0.0
 20
0.0
 30
0.0
  9
$UCSORGFRONT
 10
0.0
 20
0.0
 30
0.0
  9
$UCSORGBACK
 10
0.0
 20
0.0
 30
0.0
  9
$PUCSBASE
  2

  9
$PUCSNAME
  2

  9
$PUCSORG
 10
0.0
 20
0.0
 30
0.0
  9
$PUCSXDIR
 10
1.0
 20
0.0
 30
0.0
  9
$PUCSYDIR
 10
0.0
 20
1.0
 30
0.0
  9
$PUCSORTHOREF
  2

  9
$PUCSORTHOVIEW
 70
     0
  9
$PUCSORGTOP
 10
0.0
 20
0.0
 30
0.0
  9
$PUCSORGBOTTOM
 10
0.0
 20
0.0
 30
0.0
  9
$PUCSORGLEFT
 10
0.0
 20
0.0
 30
0.0
  9
$PUCSORGRIGHT
 10
0.0
 20
0.0
 30
0.0
  9
$PUCSORGFRONT
 10
0.0
 20
0.0
 30
0.0
  9
$PUCSORGBACK
 10
0.0
 20
0.0
 30
0.0
  9
$USERI1
 70
     0
  9
$USERI2
 70
     0
  9
$USERI3
 70
     0
  9
$USERI4
 70
     0
  9
$USERI5
 70
     0
  9
$USERR1
 40
0.0
  9
$USERR2
 40
0.0
  9
$USERR3
 40
0.0
  9
$USERR4
 40
0.0
  9
$USERR5
 40
0.0
  9
$WORLDVIEW
 70
     1
  9
$SHADEDGE
 70
     3
  9
$SHADEDIF
 70
    70
  9
$TILEMODE
 70
     1
  9
$MAXACTVP
 70
    48
  9
$PINSBASE
 10
0.0
 20
0.0
 30
0.0
  9
$PLIMCHECK
 70
     0
  9
$PEXTMIN
 10
1.000000000000000E+20
 20
1.000000000000000E+20
 30
1.000000000000000E+20
  9
$PEXTMAX
 10
-1.000000000000000E+20
 20
-1.000000000000000E+20
 30
-1.000000000000000E+20
  9
$PLIMMIN
 10
0.0
 20
0.0
  9
$PLIMMAX
 10
12.0
 20
9.0
  9
$UNITMODE
 70
     0
  9
$VISRETAIN
 70
     1
  9
$PLINEGEN
 70
     0
  9
$PSLTSCALE
 70
     1
  9
$TREEDEPTH
 70
  3020
  9
$CMLSTYLE
  2
Standard
  9
$CMLJUST
 70
     0
  9
$CMLSCALE
 40
1.0
  9
$PROXYGRAPHICS
 70
     1
  9
$MEASUREMENT
 70
     0
  9
$CELWEIGHT
370
    -1
  9
$ENDCAPS
280
     0
  9
$JOINSTYLE
280
     0
  9
$LWDISPLAY
290
     0
  9
$INSUNITS
 70
     0
  9
$HYPERLINKBASE
  1

  9
$STYLESHEET
  1

  9
$XEDIT
290
     1
  9
$CEPSNTYPE
380
     0
  9
$PSTYLEMODE
290
     1
  9
$FINGERPRINTGUID
  2
{FFE95C04-33D2-4560-80D0-1E2918E4EC86}
  9
$VERSIONGUID
  2
{91614A89-D3D9-4D21-B51B-EB3F690D6886}
  9
$EXTNAMES
290
     1
  9
$PSVPSCALE
 40
0.0
  9
$OLESTARTUP
290
     0
  0
ENDSEC
  0
SECTION
  2
CLASSES
  0
CLASS
  1
ACDBDICTIONARYWDFLT
  2
AcDbDictionaryWithDefault
  3
AutoCAD 2000
 90
        0
280
     0
281
     0
  0
CLASS
  1
ACDBPLACEHOLDER
  2
AcDbPlaceHolder
  3
AutoCAD 2000
 90
        0
280
     0
281
     0
  0
CLASS
  1
LAYOUT
  2
AcDbLayout
  3
AutoCAD 2000
 90
        0
280
     0
281
     0
  0
CLASS
  1
DICTIONARYVAR
  2
AcDbDictionaryVar
  3
AutoCAD 2000
 90
        0
280
     0
281
     0
  0
CLASS
  1
LONG_TRANSACTION
  2
AcDbLongTransaction
  3
AutoCAD 2000
 90
    32768
280
     0
281
     0
  0
CLASS
  1
LWPOLYLINE
  2
AcDbPolyline
  3
AutoCAD 2000
 90
    32768
280
     0
281
     1
  0
CLASS
  1
HATCH
  2
AcDbHatch
  3
AutoCAD 2000
 90
    32768
280
     0
281
     1
  0
CLASS
  1
XRECORD
  2
AcDbXrecord
  3
AutoCAD 2000
 90
    32768
280
     0
281
     0
  0
ENDSEC
  0
SECTION
  2
TABLES
  0
TABLE
  2
VPORT
  5
21B6
330
0
100
AcDbSymbolTable
 70
     2
  0
VPORT
  5
2497
330
21B6
100
AcDbSymbolTableRecord
100
AcDbViewportTableRecord
  2
*Active
 70
     0
 10
0.0
 20
0.0
 11
1.0
 21
1.0
 12
1624.976632582353
 22
1108.863365771358
 13
0.0
 23
0.0
 14
1.0
 24
1.0
 15
0.0
 25
0.0
 16
0.0
 26
0.0
 36
1.0
 17
0.0
 27
0.0
 37
0.0
 40
1461.55412970287
 41
1.953389830508474
 42
50.0
 43
0.0
 44
0.0
 50
0.0
 51
0.0
 71
     0
 72
   100
 73
     1
 74
     3
 75
     0
 76
     0
 77
     0
 78
     0
281
     0
 65
     1
110
0.0
120
0.0
130
0.0
111
1.0
121
0.0
131
0.0
112
0.0
122
1.0
132
0.0
 79
     0
146
0.0
  0
ENDTAB
  0
TABLE
  2
LTYPE
  5
21B3
330
0
100
AcDbSymbolTable
 70
     2
  0
LTYPE
  5
21C1
330
21B3
100
AcDbSymbolTableRecord
100
AcDbLinetypeTableRecord
  2
ByBlock
 70
     0
  3

 72
    65
 73
     0
 40
0.0
  0
LTYPE
  5
21C2
330
21B3
100
AcDbSymbolTableRecord
100
AcDbLinetypeTableRecord
  2
ByLayer
 70
     0
  3

 72
    65
 73
     0
 40
0.0
  0
LTYPE
  5
21C3
330
21B3
100
AcDbSymbolTableRecord
100
AcDbLinetypeTableRecord
  2
CONTINUOUS
 70
     0
  3
Solid line
 72
    65
 73
     0
 40
0.0
  0
LTYPE
  5
2268
330
21B3
100
AcDbSymbolTableRecord
100
AcDbLinetypeTableRecord
  2
CENTER
 70
     0
  3
Center ____ _ ____ _ ____ _ ____ _ ____ _ ____
 72
    65
 73
     4
 40
2.0
 49
1.25
 74
     0
 49
-0.25
 74
     0
 49
0.25
 74
     0
 49
-0.25
 74
     0
  0
ENDTAB
  0
TABLE
  2
LAYER
  5
21B0
102
{ACAD_XDICTIONARY
360
2244
102
}
330
0
100
AcDbSymbolTable
 70
     1
  0
LAYER
  5
21BE
330
21B0
100
AcDbSymbolTableRecord
100
AcDbLayerTableRecord
  2
0
 70
     0
 62
     7
  6
CONTINUOUS
370
    -3
390
21BD
  0
ENDTAB
  0
TABLE
  2
STYLE
  5
21B1
330
0
100
AcDbSymbolTable
 70
     1
  0
STYLE
  5
21BF
330
21B1
100
AcDbSymbolTableRecord
100
AcDbTextStyleTableRecord
  2
STANDARD
 70
     0
 40
0.0
 41
1.0
 50
0.0
 71
     0
 42
0.2
  3
txt
  4
BIGFONT
  0
ENDTAB
  0
TABLE
  2
VIEW
  5
21B4
330
0
100
AcDbSymbolTable
 70
     1
  0
VIEW
  5
21DE
330
21B4
100
AcDbSymbolTableRecord
100
AcDbViewTableRecord
  2
OLE1
 70
     0
 40
3692.141019219747
 10
1914.591370701856
 20
1272.206200738182
 41
4595.022665841169
 11
0.0
 21
0.0
 31
1.0
 12
0.0
 22
0.0
 32
0.0
 42
50.0
 43
0.0
 44
0.0
 50
0.0
 71
     0
281
     0
 72
     1
110
0.0
120
0.0
130
0.0
111
1.0
121
0.0
131
0.0
112
0.0
122
1.0
132
0.0
 79
     0
146
0.0
  0
ENDTAB
  0
TABLE
  2
UCS
  5
21B5
330
0
100
AcDbSymbolTable
 70
     0
  0
ENDTAB
  0
TABLE
  2
APPID
  5
21B7
330
0
100
AcDbSymbolTable
 70
     8
  0
APPID
  5
21C0
330
21B7
100
AcDbSymbolTableRecord
100
AcDbRegAppTableRecord
  2
ACAD
 70
     0
  0
APPID
  5
21DF
330
21B7
100
AcDbSymbolTableRecord
100
AcDbRegAppTableRecord
  2
MCAD_NO_VIS
 70
     0
  0
APPID
  5
21E0
330
21B7
100
AcDbSymbolTableRecord
100
AcDbRegAppTableRecord
  2
ACAD_TEMP_GRAPHIC
 70
     0
  0
APPID
  5
21E1
330
21B7
100
AcDbSymbolTableRecord
100
AcDbRegAppTableRecord
  2
ACATTRIBSERVICES
 70
     0
  0
APPID
  5
21E2
330
21B7
100
AcDbSymbolTableRecord
100
AcDbRegAppTableRecord
  2
CONTENTBLOCKICON
 70
     0
  0
APPID
  5
2241
330
21B7
100
AcDbSymbolTableRecord
100
AcDbRegAppTableRecord
  2
ACAD_DSTYLE_DIMJAG
 70
     0
  0
APPID
  5
2242
330
21B7
100
AcDbSymbolTableRecord
100
AcDbRegAppTableRecord
  2
ACAD_DSTYLE_DIMTALN
 70
     0
  0
APPID
  5
2243
330
21B7
100
AcDbSymbolTableRecord
100
AcDbRegAppTableRecord
  2
ACAD_PSEXT
 70
     0
  0
ENDTAB
  0
TABLE
  2
DIMSTYLE
  5
21B8
330
0
100
AcDbSymbolTable
 70
     1
100
AcDbDimStyleTable
 71
     1
340
21E3
  0
DIMSTYLE
105
21E3
330
21B8
100
AcDbSymbolTableRecord
100
AcDbDimStyleTableRecord
  2
STANDARD
 70
     0
279
     2
340
21BF
  0
ENDTAB
  0
TABLE
  2
BLOCK_RECORD
  5
21AF
330
0
100
AcDbSymbolTable
 70
     0
  0
BLOCK_RECORD
  5
21CC
102
{ACAD_XDICTIONARY
360
21F8
102
}
330
21AF
100
AcDbSymbolTableRecord
100
AcDbBlockTableRecord
  2
*Model_Space
340
21CF
  0
BLOCK_RECORD
  5
21C8
102
{ACAD_XDICTIONARY
360
21FA
102
}
330
21AF
100
AcDbSymbolTableRecord
100
AcDbBlockTableRecord
  2
*Paper_Space
340
21CB
  0
ENDTAB
  0
ENDSEC
  0
SECTION
  2
BLOCKS
  0
BLOCK
  5
21CD
330
21CC
100
AcDbEntity
  8
0
100
AcDbBlockBegin
  2
*Model_Space
 70
     0
 10
0.0
 20
0.0
 30
0.0
  3
*Model_Space
  1

  0
ENDBLK
  5
21CE
330
21CC
100
AcDbEntity
  8
0
100
AcDbBlockEnd
  0
BLOCK
  5
21C9
330
21C8
100
AcDbEntity
 67
     1
  8
0
100
AcDbBlockBegin
  2
*Paper_Space
 70
     0
 10
0.0
 20
0.0
 30
0.0
  3
*Paper_Space
  1

  0
ENDBLK
  5
21CA
330
21C8
100
AcDbEntity
 67
     1
  8
0
100
AcDbBlockEnd
  0
ENDSEC
  0
SECTION
  2
ENTITIES
  0
LINE
  5
2378
330
21CC
100
AcDbEntity
  8
0
  6
CENTER
 48
10.0
100
AcDbLine
 10
1623.876422927744
 20
1400.881339143946
 30
0.0
 11
900.4679313001334
 21
1400.881339143945
 31
0.0
  0
LINE
  5
2379
330
21CC
100
AcDbEntity
  8
0
  6
CENTER
 48
10.0
100
AcDbLine
 10
1396.368231136983
 20
1506.381339143946
 30
0.0
 11
1505.355351985453
 21
1506.381339143946
 31
0.0
  0
LINE
  5
237A
330
21CC
100
AcDbEntity
  8
0
  6
CENTER
 48
10.0
100
AcDbLine
 10
1450.861791561218
 20
1451.887778719711
 30
0.0
 11
1450.861791561218
 21
1560.874899568181
 31
0.0
  0
LINE
  5
237B
330
21CC
100
AcDbEntity
  8
0
  6
CENTER
 48
10.0
100
AcDbLine
 10
1450.861791561218
 20
748.1513178720725
 30
0.0
 11
1450.861791561218
 21
879.0547674394712
 31
0.0
  0
LINE
  5
237C
330
21CC
100
AcDbEntity
  8
0
  6
CENTER
 48
10.0
100
AcDbLine
 10
1623.876422927744
 20
672.8012375950675
 30
0.0
 11
900.4679313001334
 21
672.8012375950673
 31
0.0
  0
LINE
  5
237D
330
21CC
100
AcDbEntity
  8
0
  6
CENTER
 48
10.0
100
AcDbLine
 10
2153.897531855628
 20
868.4161153284026
 30
0.0
 11
2153.897531855628
 21
477.1855664047011
 31
0.0
  0
LINE
  5
237E
330
21CC
100
AcDbEntity
  8
0
  6
CENTER
 48
10.0
100
AcDbLine
 10
2259.397531855628
 20
748.1509364023459
 30
0.0
 11
2259.397531855628
 21
879.0543859697445
 31
0.0
  0
LINE
  5
237F
330
21CC
100
AcDbEntity
  8
0
  6
CENTER
 48
10.0
100
AcDbLine
 10
2349.512806317478
 20
672.800840866552
 30
0.0
 11
1958.282257393777
 21
672.8008408665517
 31
0.0
  0
TEXT
  5
2380
330
21CC
100
AcDbEntity
  8
0
  6
Continuous
100
AcDbText
 10
969.2841213469424
 20
1786.945836091166
 30
0.0
 40
48.000002
  1
EZB2__055___ 4SX2.5S
 41
0.8449620000000001
100
AcDbText
  0
LINE
  5
2381
330
21CC
100
AcDbEntity
  8
0
100
AcDbLine
 10
1379.46111864862
 20
1400.881339143946
 30
0.0
 11
939.4611186486207
 21
1400.881339143946
 31
0.0
  0
CIRCLE
  5
2382
330
21CC
100
AcDbEntity
  8
0
100
AcDbCircle
 10
2153.897531855628
 20
672.8008408665519
 30
0.0
 40
160.0
  0
LINE
  5
2383
330
21CC
100
AcDbEntity
  8
0
100
AcDbLine
 10
2293.147531855628
 20
858.1310066592719
 30
0.0
 11
2293.147531855628
 21
818.800840866552
 31
0.0
  0
LINE
  5
2384
330
21CC
100
AcDbEntity
  8
0
100
AcDbLine
 10
2293.147538162946
 20
818.8008584662746
 30
0.0
 11
2294.147517662464
 21
817.8008789667575
 31
0.0
  0
LINE
  5
2385
330
21CC
100
AcDbEntity
  8
0
100
AcDbLine
 10
2298.147531855628
 20
859.950857895769
 30
0.0
 11
2293.147531855628
 21
858.1310066592719
 31
0.0
  0
LINE
  5
2386
330
21CC
100
AcDbEntity
  8
0
100
AcDbLine
 10
2298.147531855628
 20
862.8008408665516
 30
0.0
 11
2298.147531855628
 21
859.950857895769
 31
0.0
  0
LINE
  5
2387
330
21CC
100
AcDbEntity
  8
0
100
AcDbLine
 10
2299.476555279217
 20
721.1699021251566
 30
0.0
 11
2306.902801667844
 21
722.3461039141709
 31
0.0
  0
LINE
  5
2388
330
21CC
100
AcDbEntity
  8
0
100
AcDbLine
 10
2290.731737549795
 20
700.6109999543009
 30
0.0
 11
2296.194295476591
 21
705.0344919432167
 31
0.0
  0
ARC
  5
2389
330
21CC
100
AcDbEntity
  8
0
100
AcDbCircle
 10
2289.90115595761
 20
712.8059858447453
 30
0.0
 40
10.0
100
AcDbArc
 50
308.9999999923079
 51
2.999994664806186
  0
LINE
  5
238A
330
21CC
100
AcDbEntity
  8
0
100
AcDbLine
 10
2299.887460031787
 20
713.3293739027384
 30
0.0
 11
2299.476555279217
 21
721.1699021251566
 31
0.0
  0
ARC
  5
238B
330
21CC
100
AcDbEntity
  8
0
100
AcDbCircle
 10
2314.200392425747
 20
679.7260343937696
 30
0.0
 40
10.0
100
AcDbArc
 50
129.0000015861741
 51
182.9999996737621
  0
LINE
  5
238C
330
21CC
100
AcDbEntity
  8
0
100
AcDbLine
 10
2313.369858744895
 20
691.9209936324651
 30
0.0
 11
2307.907170598869
 21
687.4973961940959
 31
0.0
  0
LINE
  5
238D
330
21CC
100
AcDbEntity
  8
0
100
AcDbLine
 10
2306.902801667844
 20
722.3461039141709
 30
0.0
 11
2313.369858744895
 21
691.9209936324651
 31
0.0
  0
LINE
  5
238E
330
21CC
100
AcDbEntity
  8
0
100
AcDbLine
 10
2294.147531855628
 20
817.8008408665519
 30
0.0
 11
2294.147531855628
 21
749.8069282882616
 31
0.0
  0
LINE
  5
238F
330
21CC
100
AcDbEntity
  8
0
100
AcDbLine
 10
2297.198795770579
 20
670.1858842917695
 30
0.0
 11
2304.625019417741
 21
671.3620824788913
 31
0.0
  0
LINE
  5
2390
330
21CC
100
AcDbEntity
  8
0
100
AcDbLine
 10
2297.198795770579
 20
670.1858842917695
 30
0.0
 11
2290.731737549795
 21
700.6109999543009
 31
0.0
  0
LINE
  5
2391
330
21CC
100
AcDbEntity
  8
0
100
AcDbLine
 10
2304.214112738811
 20
679.2026474583853
 30
0.0
 11
2304.625019417741
 21
671.3620824788913
 31
0.0
  0
LINE
  5
2392
330
21CC
100
AcDbEntity
  8
0
100
AcDbLine
 10
2225.647531855629
 20
858.1309540940933
 30
0.0
 11
2225.647531855629
 21
818.8007798313956
 31
0.0
  0
LINE
  5
2393
330
21CC
100
AcDbEntity
  8
0
100
AcDbLine
 10
2154.058415183531
 20
833.6278280214479
 30
0.0
 11
2184.992845116346
 21
830.3764886630514
 31
0.0
  0
LINE
  5
2394
330
21CC
100
AcDbEntity
  8
0
100
AcDbLine
 10
2200.667029211032
 20
808.2803756850367
 30
0.0
 11
2169.732593807315
 21
811.5317156184474
 31
0.0
  0
ARC
  5
2395
330
21CC
100
AcDbEntity
  8
0
100
AcDbCircle
 10
2157.877809182881
 20
814.5102434691935
 30
0.0
 40
10.0
100
AcDbArc
 50
20.99999999230872
 51
74.99999466480635
  0
LINE
  5
2396
330
21CC
100
AcDbEntity
  8
0
100
AcDbLine
 10
2169.732593807315
 20
811.5317156184474
 30
0.0
 11
2167.213626158614
 21
818.0938511294192
 31
0.0
  0
ARC
  5
2397
330
21CC
100
AcDbEntity
  8
0
100
AcDbCircle
 10
2196.847589588049
 20
827.3979234817625
 30
0.0
 40
10.0
100
AcDbArc
 50
201.0000015861687
 51
254.9999996737654
  0
LINE
  5
2398
330
21CC
100
AcDbEntity
  8
0
100
AcDbLine
 10
2194.259430009644
 20
817.7386716542892
 30
0.0
 11
2201.843227571719
 21
815.7065993047075
 31
0.0
  0
LINE
  5
2399
330
21CC
100
AcDbEntity
  8
0
100
AcDbLine
 10
2200.667029211032
 20
808.2803756850367
 30
0.0
 11
2201.843227571719
 21
815.7065993047075
 31
0.0
  0
LINE
  5
239A
330
21CC
100
AcDbEntity
  8
0
100
AcDbLine
 10
2184.992845116346
 20
830.3764886630514
 30
0.0
 11
2187.511872813483
 21
823.8141967205558
 31
0.0
  0
LINE
  5
239B
330
21CC
100
AcDbEntity
  8
0
100
AcDbLine
 10
2224.647531855628
 20
817.8007798313954
 30
0.0
 11
2224.647531855628
 21
816.3084626153635
 31
0.0
  0
LINE
  5
239C
330
21CC
100
AcDbEntity
  8
0
100
AcDbLine
 10
2225.647627194337
 20
818.8008153079021
 30
0.0
 11
2224.647593746854
 21
817.800781860418
 31
0.0
  0
LINE
  5
239D
330
21CC
100
AcDbEntity
  8
0
100
AcDbLine
 10
2220.647531855628
 20
859.9508053305918
 30
0.0
 11
2225.647531855629
 21
858.1309540940933
 31
0.0
  0
LINE
  5
239E
330
21CC
100
AcDbEntity
  8
0
100
AcDbLine
 10
2220.647531855628
 20
862.8008408665516
 30
0.0
 11
2220.647531855628
 21
859.9508053305918
 31
0.0
  0
LINE
  5
239F
330
21CC
100
AcDbEntity
  8
0
100
AcDbLine
 10
2160.465975229689
 20
824.1695188372178
 30
0.0
 11
2152.882213220951
 21
826.2015816603121
 31
0.0
  0
LINE
  5
23A0
330
21CC
100
AcDbEntity
  8
0
100
AcDbLine
 10
2152.882213220951
 20
826.2015816603121
 30
0.0
 11
2154.058415183531
 21
833.6278280214479
 31
0.0
  0
LINE
  5
23A1
330
21CC
100
AcDbEntity
  8
0
100
AcDbLine
 10
2011.967124937819
 20
725.8232956483741
 30
0.0
 11
2007.691007006399
 21
719.2386513179034
 31
0.0
  0
LINE
  5
23A2
330
21CC
100
AcDbEntity
  8
0
100
AcDbLine
 10
2000.991693408281
 20
722.6521221889015
 30
0.0
 11
2013.643165452314
 21
751.0677942381581
 31
0.0
  0
LINE
  5
23A3
330
21CC
100
AcDbEntity
  8
0
100
AcDbLine
 10
2007.691007006399
 20
719.2386513179034
 30
0.0
 11
2000.991693408281
 21
722.6521221889015
 31
0.0
  0
LINE
  5
23A4
330
21CC
100
AcDbEntity
  8
0
100
AcDbLine
 10
2039.501406943066
 20
759.1467547391824
 30
0.0
 11
2026.849932661562
 21
730.731077664479
 31
0.0
  0
LINE
  5
23A5
330
21CC
100
AcDbEntity
  8
0
100
AcDbLine
 10
2028.525975882089
 20
755.975539957221
 30
0.0
 11
2032.802113860321
 21
762.5602151570746
 31
0.0
  0
ARC
  5
23A6
330
21CC
100
AcDbEntity
  8
0
100
AcDbCircle
 10
2020.139266782916
 20
761.4218989571104
 30
0.0
 40
10.0
100
AcDbArc
 50
273.0000015861668
 51
326.9999996737617
  0
LINE
  5
23A7
330
21CC
100
AcDbEntity
  8
0
100
AcDbLine
 10
2013.643165452314
 20
751.0677942381581
 30
0.0
 11
2020.66269833377
 21
751.4356722119655
 31
0.0
  0
ARC
  5
23A8
330
21CC
100
AcDbEntity
  8
0
100
AcDbCircle
 10
2020.353854426541
 20
720.3769232222339
 30
0.0
 40
10.0
100
AcDbArc
 50
92.99999999230873
 51
146.999994664805
  0
LINE
  5
23A9
330
21CC
100
AcDbEntity
  8
0
100
AcDbLine
 10
2026.849932661562
 20
730.731077664479
 30
0.0
 11
2019.830567111311
 21
730.3632084601262
 31
0.0
  0
LINE
  5
23AA
330
21CC
100
AcDbEntity
  8
0
100
AcDbLine
 10
2039.501406943066
 20
759.1467547391824
 30
0.0
 11
2032.802113860321
 21
762.5602151570746
 31
0.0
  0
LINE
  5
23AB
330
21CC
100
AcDbEntity
  8
0
100
AcDbLine
 10
2195.693086230483
 20
535.7051740057467
 30
0.0
 11
2222.630659846532
 21
551.2575896634269
 31
0.0
  0
LINE
  5
23AC
330
21CC
100
AcDbEntity
  8
0
100
AcDbLine
 10
2206.436389760093
 20
531.8195441419711
 30
0.0
 11
2199.106546491801
 21
529.0058808432231
 31
0.0
  0
LINE
  5
23AD
330
21CC
100
AcDbEntity
  8
0
100
AcDbLine
 10
2195.693086230483
 20
535.7051740057467
 30
0.0
 11
2199.106546491801
 21
529.0058808432231
 31
0.0
  0
LINE
  5
23AE
330
21CC
100
AcDbEntity
  8
0
100
AcDbLine
 10
2222.630659846532
 20
551.2575896634269
 30
0.0
 11
2228.525673959508
 21
547.429322550568
 31
0.0
  0
LINE
  5
23AF
330
21CC
100
AcDbEntity
  8
0
100
AcDbLine
 10
2244.8856350151
 20
549.2938239345348
 30
0.0
 11
2248.299105729523
 21
542.5945102566393
 31
0.0
  0
LINE
  5
23B0
330
21CC
100
AcDbEntity
  8
0
100
AcDbLine
 10
2237.555826109587
 20
546.4801738264227
 30
0.0
 11
2244.8856350151
 21
549.2938239345348
 31
0.0
  0
ARC
  5
23B1
330
21CC
100
AcDbEntity
  8
0
100
AcDbCircle
 10
2233.972116816565
 20
555.8159775853018
 30
0.0
 40
10.0
100
AcDbArc
 50
236.9999999923094
 51
290.9999946648055
  0
LINE
  5
23B2
330
21CC
100
AcDbEntity
  8
0
100
AcDbLine
 10
2221.361536877509
 20
527.0420973494768
 30
0.0
 11
2215.466382236189
 21
530.8704557225135
 31
0.0
  0
ARC
  5
23B3
330
21CC
100
AcDbEntity
  8
0
100
AcDbCircle
 10
2210.020090449378
 20
522.4837632298329
 30
0.0
 40
10.0
100
AcDbArc
 50
57.00000158617013
 51
110.9999996737642
  0
LINE
  5
23B4
330
21CC
100
AcDbEntity
  8
0
100
AcDbLine
 10
2248.299105729523
 20
542.5945102566393
 30
0.0
 11
2221.361536877509
 21
527.0420973494768
 31
0.0
  0
LINE
  5
23B5
330
21CC
100
AcDbEntity
  8
0
100
AcDbLine
 10
2064.552248756474
 20
548.1002452948517
 30
0.0
 11
2059.235643288964
 21
542.7836399516007
 31
0.0
  0
LINE
  5
23B6
330
21CC
100
AcDbEntity
  8
0
100
AcDbLine
 10
2059.611272969258
 20
554.2018421180069
 30
0.0
 11
2064.552248756474
 21
548.1002452948517
 31
0.0
  0
LINE
  5
23B7
330
21CC
100
AcDbEntity
  8
0
100
AcDbLine
 10
2036.427341122981
 20
590.6860156110241
 30
0.0
 11
2031.110751936564
 21
585.369426548863
 31
0.0
  0
LINE
  5
23B8
330
21CC
100
AcDbEntity
  8
0
100
AcDbLine
 10
2036.051750887505
 20
579.2678011208931
 30
0.0
 11
2031.110751936564
 21
585.369426548863
 31
0.0
  0
LINE
  5
23B9
330
21CC
100
AcDbEntity
  8
0
100
AcDbLine
 10
2036.120253087079
 20
563.5968304496081
 30
0.0
 11
2037.939535295833
 21
570.386483483629
 31
0.0
  0
ARC
  5
23BA
330
21CC
100
AcDbEntity
  8
0
100
AcDbCircle
 10
2028.280320032055
 20
572.974584270285
 30
0.0
 40
10.0
100
AcDbArc
 50
345.0000015861713
 51
38.99999967376216
  0
LINE
  5
23BB
330
21CC
100
AcDbEntity
  8
0
100
AcDbLine
 10
2036.427341122981
 20
590.6860156110241
 30
0.0
 11
2059.542735412935
 21
569.8728214321055
 31
0.0
  0
ARC
  5
23BC
330
21CC
100
AcDbEntity
  8
0
100
AcDbCircle
 10
2067.382722894548
 20
560.4950742112865
 30
0.0
 40
10.0
100
AcDbArc
 50
164.9999999923075
 51
218.9999946648055
  0
LINE
  5
23BD
330
21CC
100
AcDbEntity
  8
0
100
AcDbLine
 10
2059.542735412935
 20
569.8728214321055
 30
0.0
 11
2057.72349657212
 21
563.0833302494288
 31
0.0
  0
LINE
  5
23BE
330
21CC
100
AcDbEntity
  8
0
100
AcDbLine
 10
2059.235643288964
 20
542.7836399516007
 30
0.0
 11
2036.120253087079
 21
563.5968304496081
 31
0.0
  0
CIRCLE
  5
23BF
330
21CC
100
AcDbEntity
  8
0
100
AcDbCircle
 10
2153.897531855628
 20
672.8008408665519
 30
0.0
 40
50.79998779296829
  0
CIRCLE
  5
23C0
330
21CC
100
AcDbEntity
  8
0
100
AcDbCircle
 10
2153.897531855628
 20
672.8008408665519
 30
0.0
 40
59.5
  0
CIRCLE
  5
23C1
330
21CC
100
AcDbEntity
  8
0
100
AcDbCircle
 10
2153.897531855628
 20
672.8008408665519
 30
0.0
 40
102.8847113549219
  0
LINE
  5
23C2
330
21CC
100
AcDbEntity
  8
0
100
AcDbLine
 10
2293.147531855628
 20
818.800840866552
 30
0.0
 11
2225.647592890784
 21
818.800840866552
 31
0.0
  0
LINE
  5
23C3
330
21CC
100
AcDbEntity
  8
0
100
AcDbLine
 10
2298.147531855628
 20
862.8008408665516
 30
0.0
 11
2220.647531855628
 21
862.8008408665516
 31
0.0
  0
LINE
  5
23C4
330
21CC
100
AcDbEntity
  8
0
100
AcDbLine
 10
2225.647531855629
 20
858.1309540940933
 30
0.0
 11
2293.147531855628
 21
858.1310066592719
 31
0.0
  0
LINE
  5
23C5
330
21CC
100
AcDbEntity
  8
0
100
AcDbLine
 10
1477.761872862856
 20
1560.881339143946
 30
0.0
 11
1513.861806820008
 21
1560.881339143946
 31
0.0
  0
LINE
  5
23C6
330
21CC
100
AcDbEntity
  8
0
100
AcDbLine
 10
1466.711537776573
 20
1541.741599959004
 30
0.0
 11
1477.761872862856
 21
1560.881339143946
 31
0.0
  0
LINE
  5
23C7
330
21CC
100
AcDbEntity
  8
0
100
AcDbLine
 10
1477.761873195739
 20
1534.273060282235
 30
0.0
 11
1477.761873195739
 21
1560.881339143946
 31
0.0
  0
LINE
  5
23C8
330
21CC
100
AcDbEntity
  8
0
100
AcDbLine
 10
1530.976545284363
 20
1540.381339143945
 30
0.0
 11
1513.861806820008
 21
1540.381339143945
 31
0.0
  0
LINE
  5
23C9
330
21CC
100
AcDbEntity
  8
0
100
AcDbLine
 10
1541.861806820008
 20
1575.881339143946
 30
0.0
 11
1534.861806820008
 21
1575.881339143946
 31
0.0
  0
LINE
  5
23CA
330
21CC
100
AcDbEntity
  8
0
100
AcDbLine
 10
1530.976545284363
 20
1561.381339143946
 30
0.0
 11
1513.861806820008
 21
1561.381339143946
 31
0.0
  0
LINE
  5
23CB
330
21CC
100
AcDbEntity
  8
0
100
AcDbLine
 10
1530.97653891543
 20
1561.381334449788
 30
0.0
 11
1534.861806317589
 21
1575.881349674101
 31
0.0
  0
LINE
  5
23CC
330
21CC
100
AcDbEntity
  8
0
100
AcDbLine
 10
1579.445002919598
 20
1451.681326936914
 30
0.0
 11
1555.861547420592
 21
1451.681326936914
 31
0.0
  0
LINE
  5
23CD
330
21CC
100
AcDbEntity
  8
0
100
AcDbLine
 10
1548.581415126892
 20
1454.181235384179
 30
0.0
 11
1554.418237636657
 21
1454.181235384179
 31
0.0
  0
LINE
  5
23CE
330
21CC
100
AcDbEntity
  8
0
100
AcDbLine
 10
1555.861610861895
 20
1451.681350119564
 30
0.0
 11
1554.418251606495
 21
1454.181321959696
 31
0.0
  0
LINE
  5
23CF
330
21CC
100
AcDbEntity
  8
0
100
AcDbLine
 10
1585.461545894715
 20
1460.381339143945
 30
0.0
 11
1582.611548514101
 21
1460.381339143945
 31
0.0
  0
LINE
  5
23D0
330
21CC
100
AcDbEntity
  8
0
100
AcDbLine
 10
1582.611548514101
 20
1460.381339143945
 30
0.0
 11
1579.445002919598
 21
1451.681326936914
 31
0.0
  0
LINE
  5
23D1
330
21CC
100
AcDbEntity
  8
0
100
AcDbLine
 10
1579.445002919598
 20
1350.081351350977
 30
0.0
 11
1555.861547420592
 21
1350.081351350977
 31
0.0
  0
LINE
  5
23D2
330
21CC
100
AcDbEntity
  8
0
100
AcDbLine
 10
1555.861610861895
 20
1350.081328168327
 30
0.0
 11
1554.418251606495
 21
1347.581356328195
 31
0.0
  0
LINE
  5
23D3
330
21CC
100
AcDbEntity
  8
0
100
AcDbLine
 10
1548.581415126892
 20
1347.58144290371
 30
0.0
 11
1554.418237636657
 21
1347.58144290371
 31
0.0
  0
LINE
  5
23D4
330
21CC
100
AcDbEntity
  8
0
100
AcDbLine
 10
1582.611548514101
 20
1341.381339143945
 30
0.0
 11
1579.445002919598
 21
1350.081351350977
 31
0.0
  0
LINE
  5
23D5
330
21CC
100
AcDbEntity
  8
0
100
AcDbLine
 10
1585.461545894715
 20
1341.381339143945
 30
0.0
 11
1582.611548514101
 21
1341.381339143945
 31
0.0
  0
LINE
  5
23D6
330
21CC
100
AcDbEntity
  8
0
100
AcDbLine
 10
1579.445002919598
 20
1451.681326936914
 30
0.0
 11
1579.445002919598
 21
1350.081351350977
 31
0.0
  0
LINE
  5
23D7
330
21CC
100
AcDbEntity
  8
0
100
AcDbLine
 10
1555.861624246404
 20
1451.681326936914
 30
0.0
 11
1555.861624246404
 21
1350.081351350977
 31
0.0
  0
LINE
  5
23D8
330
21CC
100
AcDbEntity
  8
0
100
AcDbLine
 10
1585.461545894715
 20
1460.381339143945
 30
0.0
 11
1585.461545894715
 21
1341.381339143945
 31
0.0
  0
LINE
  5
23D9
330
21CC
100
AcDbEntity
  8
0
100
AcDbLine
 10
1541.861806820008
 20
1525.881339143946
 30
0.0
 11
1534.861806820008
 21
1525.881339143946
 31
0.0
  0
LINE
  5
23DA
330
21CC
100
AcDbEntity
  8
0
100
AcDbLine
 10
1379.46111864862
 20
1483.881337236596
 30
0.0
 11
1419.313219261202
 21
1483.881337236596
 31
0.0
  0
LINE
  5
23DB
330
21CC
100
AcDbEntity
  8
0
100
AcDbLine
 10
1548.581389959953
 20
1454.181340983693
 30
0.0
 11
1513.86180227623
 21
1503.766050498868
 31
0.0
  0
CIRCLE
  5
23DC
330
21CC
100
AcDbEntity
  8
0
100
AcDbCircle
 10
1450.861791561218
 20
1506.381339143946
 30
0.0
 40
33.75000000000007
  0
CIRCLE
  5
23DD
330
21CC
100
AcDbEntity
  8
0
100
AcDbCircle
 10
1450.861791561218
 20
1506.381339143946
 30
0.0
 40
38.75
  0
LINE
  5
23DE
330
21CC
100
AcDbEntity
  8
0
100
AcDbLine
 10
1541.861806820008
 20
1525.881339143946
 30
0.0
 11
1541.861806820008
 21
1575.881339143946
 31
0.0
  0
LINE
  5
23DF
330
21CC
100
AcDbEntity
  8
0
100
AcDbLine
 10
1534.861791947787
 20
1525.881333059373
 30
0.0
 11
1530.976528494893
 21
1540.381333544826
 31
0.0
  0
LINE
  5
23E0
330
21CC
100
AcDbEntity
  8
0
100
AcDbLine
 10
1541.861806820008
 20
1275.881339143946
 30
0.0
 11
1534.861806820008
 21
1275.881339143946
 31
0.0
  0
LINE
  5
23E1
330
21CC
100
AcDbEntity
  8
0
100
AcDbLine
 10
1530.976545284363
 20
1261.381339143946
 30
0.0
 11
1513.861806820008
 21
1261.381339143946
 31
0.0
  0
LINE
  5
23E2
330
21CC
100
AcDbEntity
  8
0
100
AcDbLine
 10
1534.861791947787
 20
1275.881345228519
 30
0.0
 11
1530.976528494893
 21
1261.381344743066
 31
0.0
  0
LINE
  5
23E3
330
21CC
100
AcDbEntity
  8
0
100
AcDbLine
 10
1379.46111864862
 20
1317.881341051293
 30
0.0
 11
1447.061792324157
 21
1317.881341051293
 31
0.0
  0
ARC
  5
23E4
330
21CC
100
AcDbEntity
  8
0
100
AcDbCircle
 10
1469.861791561219
 20
1283.381339143946
 30
0.0
 40
22.79999923706055
100
AcDbArc
 50
179.999994991043
 51
260.8062821040711
  0
LINE
  5
23E5
330
21CC
100
AcDbEntity
  8
0
100
AcDbLine
 10
1477.761872862856
 20
1240.881339143946
 30
0.0
 11
1513.861806820008
 21
1240.881339143946
 31
0.0
  0
LINE
  5
23E6
330
21CC
100
AcDbEntity
  8
0
100
AcDbLine
 10
1541.861806820008
 20
1225.881339143946
 30
0.0
 11
1534.861806820008
 21
1225.881339143946
 31
0.0
  0
LINE
  5
23E7
330
21CC
100
AcDbEntity
  8
0
100
AcDbLine
 10
1530.97653891543
 20
1240.381343838103
 30
0.0
 11
1534.861806317589
 21
1225.881328613791
 31
0.0
  0
LINE
  5
23E8
330
21CC
100
AcDbEntity
  8
0
100
AcDbLine
 10
1530.976545284363
 20
1240.381339143945
 30
0.0
 11
1513.861806820008
 21
1240.381339143945
 31
0.0
  0
LINE
  5
23E9
330
21CC
100
AcDbEntity
  8
0
100
AcDbLine
 10
1466.218968337506
 20
1260.874233506591
 30
0.0
 11
1477.761872862856
 21
1240.881339143946
 31
0.0
  0
LINE
  5
23EA
330
21CC
100
AcDbEntity
  8
0
100
AcDbLine
 10
1541.861806820008
 20
1275.881339143946
 30
0.0
 11
1541.861806820008
 21
1225.881339143946
 31
0.0
  0
LINE
  5
23EB
330
21CC
100
AcDbEntity
  8
0
100
AcDbLine
 10
1513.861806820008
 20
1561.381339143946
 30
0.0
 11
1513.861806820008
 21
1240.381339143945
 31
0.0
  0
LINE
  5
23EC
330
21CC
100
AcDbEntity
  8
0
100
AcDbLine
 10
1496.761785457701
 20
1560.881339143946
 30
0.0
 11
1496.761785457701
 21
1240.881339143946
 31
0.0
  0
LINE
  5
23ED
330
21CC
100
AcDbEntity
  8
0
100
AcDbLine
 10
1447.061792324157
 20
1283.381339143946
 30
0.0
 11
1447.061792324157
 21
1467.818111766062
 31
0.0
  0
LINE
  5
23EE
330
21CC
100
AcDbEntity
  8
0
100
AcDbLine
 10
1477.761873195739
 20
1241.881339143946
 30
0.0
 11
1477.761873195739
 21
1478.489618005656
 31
0.0
  0
LINE
  5
23EF
330
21CC
100
AcDbEntity
  8
0
100
AcDbLine
 10
1548.581389959953
 20
1347.581337304199
 30
0.0
 11
1513.86180227623
 21
1297.996627789024
 31
0.0
  0
LINE
  5
23F0
330
21CC
100
AcDbEntity
  8
0
100
AcDbLine
 10
1422.761835461034
 20
747.8012102362145
 30
0.0
 11
1379.46111864862
 21
749.4666224337246
 31
0.0
  0
LINE
  5
23F1
330
21CC
100
AcDbEntity
  8
0
100
AcDbLine
 10
1379.46111864862
 20
589.8012395024161
 30
0.0
 11
1447.061792324157
 21
589.8012395024161
 31
0.0
  0
LINE
  5
23F2
330
21CC
100
AcDbEntity
  8
0
100
AcDbLine
 10
1579.445002919598
 20
723.6012253880357
 30
0.0
 11
1555.861547420592
 21
723.6012253880357
 31
0.0
  0
LINE
  5
23F3
330
21CC
100
AcDbEntity
  8
0
100
AcDbLine
 10
1548.581415126892
 20
726.1011338353017
 30
0.0
 11
1554.418237636657
 21
726.1011338353017
 31
0.0
  0
LINE
  5
23F4
330
21CC
100
AcDbEntity
  8
0
100
AcDbLine
 10
1555.861610861895
 20
723.6012485706861
 30
0.0
 11
1554.418251606495
 21
726.1012204108175
 31
0.0
  0
LINE
  5
23F5
330
21CC
100
AcDbEntity
  8
0
100
AcDbLine
 10
1585.461545894715
 20
732.3012375950674
 30
0.0
 11
1582.611548514101
 21
732.3012375950674
 31
0.0
  0
LINE
  5
23F6
330
21CC
100
AcDbEntity
  8
0
100
AcDbLine
 10
1582.611548514101
 20
732.3012375950674
 30
0.0
 11
1579.445002919598
 21
723.6012253880357
 31
0.0
  0
LINE
  5
23F7
330
21CC
100
AcDbEntity
  8
0
100
AcDbLine
 10
1484.611791561219
 20
858.131358836585
 30
0.0
 11
1484.611791561219
 21
832.8012375950674
 31
0.0
  0
LINE
  5
23F8
330
21CC
100
AcDbEntity
  8
0
100
AcDbLine
 10
1530.97653891543
 20
833.3012329009108
 30
0.0
 11
1534.861806317589
 21
847.8012481252227
 31
0.0
  0
LINE
  5
23F9
330
21CC
100
AcDbEntity
  8
0
100
AcDbLine
 10
1541.861806820008
 20
797.8012375950673
 30
0.0
 11
1541.861806820008
 21
847.8012375950674
 31
0.0
  0
LINE
  5
23FA
330
21CC
100
AcDbEntity
  8
0
100
AcDbLine
 10
1477.761872862856
 20
832.8012375950674
 30
0.0
 11
1513.861806820008
 21
832.8012375950674
 31
0.0
  0
LINE
  5
23FB
330
21CC
100
AcDbEntity
  8
0
100
AcDbLine
 10
1466.218968337506
 20
812.8083432324228
 30
0.0
 11
1477.761872862856
 21
832.8012375950674
 31
0.0
  0
LINE
  5
23FC
330
21CC
100
AcDbEntity
  8
0
100
AcDbLine
 10
1541.861806820008
 20
797.8012375950673
 30
0.0
 11
1534.861806820008
 21
797.8012375950673
 31
0.0
  0
LINE
  5
23FD
330
21CC
100
AcDbEntity
  8
0
100
AcDbLine
 10
1530.976545284363
 20
833.3012375950673
 30
0.0
 11
1513.861806820008
 21
833.3012375950673
 31
0.0
  0
LINE
  5
23FE
330
21CC
100
AcDbEntity
  8
0
100
AcDbLine
 10
1530.976545284363
 20
812.3012375950674
 30
0.0
 11
1513.861806820008
 21
812.3012375950674
 31
0.0
  0
LINE
  5
23FF
330
21CC
100
AcDbEntity
  8
0
100
AcDbLine
 10
1534.861791947787
 20
797.801231510494
 30
0.0
 11
1530.976528494893
 21
812.301231995948
 31
0.0
  0
LINE
  5
2400
330
21CC
100
AcDbEntity
  8
0
100
AcDbLine
 10
1489.611791561219
 20
859.9512100730818
 30
0.0
 11
1484.611791561219
 21
858.131358836585
 31
0.0
  0
LINE
  5
2401
330
21CC
100
AcDbEntity
  8
0
100
AcDbLine
 10
1489.611791561219
 20
862.8012223362784
 30
0.0
 11
1489.611791561219
 21
859.9512100730818
 31
0.0
  0
LINE
  5
2402
330
21CC
100
AcDbEntity
  8
0
100
AcDbLine
 10
1541.861806820008
 20
847.8012375950674
 30
0.0
 11
1534.861806820008
 21
847.8012375950674
 31
0.0
  0
LINE
  5
2403
330
21CC
100
AcDbEntity
  8
0
100
AcDbLine
 10
1417.111791561216
 20
858.1313631970347
 30
0.0
 11
1417.111791561216
 21
818.8012681126457
 31
0.0
  0
LINE
  5
2404
330
21CC
100
AcDbEntity
  8
0
100
AcDbLine
 10
1417.111786922384
 20
818.8012656107021
 30
0.0
 11
1416.111812817664
 21
817.8012915059811
 31
0.0
  0
LINE
  5
2405
330
21CC
100
AcDbEntity
  8
0
100
AcDbLine
 10
1412.111791561219
 20
859.9512144335319
 30
0.0
 11
1417.111791561216
 21
858.1313631970347
 31
0.0
  0
LINE
  5
2406
330
21CC
100
AcDbEntity
  8
0
100
AcDbLine
 10
1412.111791561219
 20
862.8012223362784
 30
0.0
 11
1412.111791561219
 21
859.9512144335319
 31
0.0
  0
ARC
  5
2407
330
21CC
100
AcDbEntity
  8
0
100
AcDbCircle
 10
1469.861791561219
 20
790.3012375950674
 30
0.0
 40
22.79999923706055
100
AcDbArc
 50
99.19371789592881
 51
180.0000050089569
  0
LINE
  5
2408
330
21CC
100
AcDbEntity
  8
0
100
AcDbLine
 10
1417.111791561216
 20
858.1313631970347
 30
0.0
 11
1484.611791561219
 21
858.131358836585
 31
0.0
  0
LINE
  5
2409
330
21CC
100
AcDbEntity
  8
0
100
AcDbLine
 10
1489.611791561219
 20
862.8012223362784
 30
0.0
 11
1412.111791561219
 21
862.8012223362784
 31
0.0
  0
LINE
  5
240A
330
21CC
100
AcDbEntity
  8
0
100
AcDbLine
 10
1417.111791561216
 20
818.8012702495347
 30
0.0
 11
1469.678986838637
 21
818.8012702495347
 31
0.0
  0
LINE
  5
240B
330
21CC
100
AcDbEntity
  8
0
100
AcDbLine
 10
1422.761907528014
 20
747.8012375950673
 30
0.0
 11
1447.061792324157
 21
747.8012375950673
 31
0.0
  0
LINE
  5
240C
330
21CC
100
AcDbEntity
  8
0
100
AcDbLine
 10
1416.111791561219
 20
817.8012223362783
 30
0.0
 11
1416.111791561219
 21
748.0569811573449
 31
0.0
  0
LINE
  5
240D
330
21CC
100
AcDbEntity
  8
0
100
AcDbLine
 10
1548.581389959953
 20
726.1012394348141
 30
0.0
 11
1513.86180227623
 21
775.6859489499893
 31
0.0
  0
LINE
  5
240E
330
21CC
100
AcDbEntity
  8
0
100
AcDbLine
 10
1579.445002919598
 20
622.0012498020992
 30
0.0
 11
1555.861547420592
 21
622.0012498020992
 31
0.0
  0
LINE
  5
240F
330
21CC
100
AcDbEntity
  8
0
100
AcDbLine
 10
1555.861610861895
 20
622.001226619449
 30
0.0
 11
1554.418251606495
 21
619.5012547793176
 31
0.0
  0
LINE
  5
2410
330
21CC
100
AcDbEntity
  8
0
100
AcDbLine
 10
1548.581415126892
 20
619.5013413548331
 30
0.0
 11
1554.418237636657
 21
619.5013413548331
 31
0.0
  0
LINE
  5
2411
330
21CC
100
AcDbEntity
  8
0
100
AcDbLine
 10
1582.611548514101
 20
613.3012375950674
 30
0.0
 11
1579.445002919598
 21
622.0012498020992
 31
0.0
  0
LINE
  5
2412
330
21CC
100
AcDbEntity
  8
0
100
AcDbLine
 10
1585.461545894715
 20
613.3012375950674
 30
0.0
 11
1582.611548514101
 21
613.3012375950674
 31
0.0
  0
LINE
  5
2413
330
21CC
100
AcDbEntity
  8
0
100
AcDbLine
 10
1477.761872862856
 20
512.8012375950675
 30
0.0
 11
1513.861806820008
 21
512.8012375950675
 31
0.0
  0
LINE
  5
2414
330
21CC
100
AcDbEntity
  8
0
100
AcDbLine
 10
1466.218968337506
 20
532.7941319577121
 30
0.0
 11
1477.761872862856
 21
512.8012375950675
 31
0.0
  0
LINE
  5
2415
330
21CC
100
AcDbEntity
  8
0
100
AcDbLine
 10
1541.861806820008
 20
497.8012375950675
 30
0.0
 11
1534.861806820008
 21
497.8012375950675
 31
0.0
  0
LINE
  5
2416
330
21CC
100
AcDbEntity
  8
0
100
AcDbLine
 10
1541.861806820008
 20
547.8012375950675
 30
0.0
 11
1534.861806820008
 21
547.8012375950675
 31
0.0
  0
LINE
  5
2417
330
21CC
100
AcDbEntity
  8
0
100
AcDbLine
 10
1530.97653891543
 20
512.3012422892243
 30
0.0
 11
1534.861806317589
 21
497.8012270649123
 31
0.0
  0
LINE
  5
2418
330
21CC
100
AcDbEntity
  8
0
100
AcDbLine
 10
1530.976545284363
 20
533.3012375950675
 30
0.0
 11
1513.861806820008
 21
533.3012375950675
 31
0.0
  0
LINE
  5
2419
330
21CC
100
AcDbEntity
  8
0
100
AcDbLine
 10
1530.976545284363
 20
512.3012375950675
 30
0.0
 11
1513.861806820008
 21
512.3012375950675
 31
0.0
  0
LINE
  5
241A
330
21CC
100
AcDbEntity
  8
0
100
AcDbLine
 10
1534.861791947787
 20
547.8012436796407
 30
0.0
 11
1530.976528494893
 21
533.3012431941869
 31
0.0
  0
LINE
  5
241B
330
21CC
100
AcDbEntity
  8
0
100
AcDbLine
 10
1541.861806820008
 20
547.8012375950675
 30
0.0
 11
1541.861806820008
 21
497.8012375950675
 31
0.0
  0
ARC
  5
241C
330
21CC
100
AcDbEntity
  8
0
100
AcDbCircle
 10
1469.861791561219
 20
555.3012375950673
 30
0.0
 40
22.79999923706055
100
AcDbArc
 50
179.999994991043
 51
260.8062821040711
  0
LINE
  5
241D
330
21CC
100
AcDbEntity
  8
0
100
AcDbLine
 10
1548.581389959953
 20
619.501235755321
 30
0.0
 11
1513.86180227623
 21
569.9165262401456
 31
0.0
  0
LINE
  5
241E
330
21CC
100
AcDbEntity
  8
0
100
AcDbLine
 10
1447.061792324157
 20
555.3012375950673
 30
0.0
 11
1447.061792324157
 21
790.301235601828
 31
0.0
  0
LINE
  5
241F
330
21CC
100
AcDbEntity
  8
0
100
AcDbLine
 10
1579.445002919598
 20
723.6012253880357
 30
0.0
 11
1579.445002919598
 21
622.0012498020992
 31
0.0
  0
LINE
  5
2420
330
21CC
100
AcDbEntity
  8
0
100
AcDbLine
 10
1555.861624246404
 20
723.6012253880357
 30
0.0
 11
1555.861624246404
 21
622.0012498020992
 31
0.0
  0
LINE
  5
2421
330
21CC
100
AcDbEntity
  8
0
100
AcDbLine
 10
1585.461545894715
 20
732.3012375950674
 30
0.0
 11
1585.461545894715
 21
613.3012375950674
 31
0.0
  0
LINE
  5
2422
330
21CC
100
AcDbEntity
  8
0
100
AcDbLine
 10
1513.861806820008
 20
833.3012375950673
 30
0.0
 11
1513.861806820008
 21
512.3012375950675
 31
0.0
  0
LINE
  5
2423
330
21CC
100
AcDbEntity
  8
0
100
AcDbLine
 10
1477.761873195739
 20
513.8012375950673
 30
0.0
 11
1477.761873195739
 21
832.8012375950674
 31
0.0
  0
LINE
  5
2424
330
21CC
100
AcDbEntity
  8
0
100
AcDbLine
 10
1496.761785457701
 20
832.8012375950674
 30
0.0
 11
1496.761785457701
 21
512.8012375950675
 31
0.0
  0
LINE
  5
2425
330
21CC
100
AcDbEntity
  8
0
100
AcDbLine
 10
1230.46111864862
 20
1136.881362034336
 30
0.0
 11
1230.46111864862
 21
1243.881362034338
 31
0.0
  0
LINE
  5
2426
330
21CC
100
AcDbEntity
  8
0
100
AcDbLine
 10
1050.461118648619
 20
1136.881362034336
 30
0.0
 11
1050.461118648619
 21
1243.881362034338
 31
0.0
  0
LINE
  5
2427
330
21CC
100
AcDbEntity
  8
0
100
AcDbLine
 10
1230.46111864862
 20
596.80087138413
 30
0.0
 11
1050.461118648619
 21
596.80087138413
 31
0.0
  0
LINE
  5
2429
330
21CC
100
AcDbEntity
  8
0
100
AcDbLine
 10
1379.46111864862
 20
1243.881362034338
 30
0.0
 11
1379.46111864862
 21
1557.881316253554
 31
0.0
  0
LINE
  5
242A
330
21CC
100
AcDbEntity
  8
0
100
AcDbLine
 10
1379.46111864862
 20
1243.881362034338
 30
0.0
 11
939.4611186486207
 21
1243.881362034338
 31
0.0
  0
LINE
  5
242B
330
21CC
100
AcDbEntity
  8
0
100
AcDbLine
 10
1379.46111864862
 20
1557.881316253554
 30
0.0
 11
939.4611186486207
 21
1557.881316253554
 31
0.0
  0
LINE
  5
242C
330
21CC
100
AcDbEntity
  8
0
100
AcDbLine
 10
939.4611186486207
 20
1243.881362034338
 30
0.0
 11
939.4611186486207
 21
1557.881316253554
 31
0.0
  0
LINE
  5
242D
330
21CC
100
AcDbEntity
  8
0
100
AcDbLine
 10
2244.318768299285
 20
540.8008408665518
 30
0.0
 11
2310.897104609535
 21
540.8008408665518
 31
0.0
  0
LINE
  5
242E
330
21CC
100
AcDbEntity
  8
0
100
AcDbLine
 10
2256.897531855629
 20
500.8008408665518
 30
0.0
 11
2236.897531855625
 21
500.8008408665518
 31
0.0
  0
LINE
  5
242F
330
21CC
100
AcDbEntity
  8
0
100
AcDbLine
 10
2236.897531855625
 20
536.0126834844159
 30
0.0
 11
2236.897531855625
 21
500.8008408665518
 31
0.0
  0
LINE
  5
2430
330
21CC
100
AcDbEntity
  8
0
100
AcDbLine
 10
2310.897104609535
 20
500.800901901708
 30
0.0
 11
2311.897531855628
 21
500.800901901708
 31
0.0
  0
ARC
  5
2431
330
21CC
100
AcDbEntity
  8
0
100
AcDbCircle
 10
2256.897531855629
 20
485.8008408665519
 30
0.0
 40
15.0
100
AcDbArc
 50
359.999994991043
 51
89.99999749551827
  0
LINE
  5
2432
330
21CC
100
AcDbEntity
  8
0
100
AcDbLine
 10
2310.897104609533
 20
641.960377914596
 30
0.0
 11
2310.897104609535
 21
500.800901901708
 31
0.0
  0
LINE
  5
2433
330
21CC
100
AcDbEntity
  8
0
100
AcDbLine
 10
2274.397531095404
 20
435.8008312954711
 30
0.0
 11
2271.897535615601
 21
445.1309413665894
 31
0.0
  0
LINE
  5
2434
330
21CC
100
AcDbEntity
  8
0
100
AcDbLine
 10
2309.397565602718
 20
435.8008312015762
 30
0.0
 11
2311.897567006421
 21
445.1309633809818
 31
0.0
  0
LINE
  5
2435
330
21CC
100
AcDbEntity
  8
0
100
AcDbLine
 10
2309.397531855629
 20
435.8008408665519
 30
0.0
 11
2274.397531855629
 21
435.8008408665519
 31
0.0
  0
LINE
  5
2436
330
21CC
100
AcDbEntity
  8
0
100
AcDbLine
 10
2264.397531855628
 20
388.8008408665518
 30
0.0
 11
2264.397531855628
 21
382.8008408665518
 31
0.0
  0
LINE
  5
2437
330
21CC
100
AcDbEntity
  8
0
100
AcDbLine
 10
2285.897531855628
 20
410.8008408665519
 30
0.0
 11
2285.897531855628
 21
388.8008408665518
 31
0.0
  0
LINE
  5
2438
330
21CC
100
AcDbEntity
  8
0
100
AcDbLine
 10
2319.397531855627
 20
388.8008408665518
 30
0.0
 11
2319.397531855629
 21
382.8008408665518
 31
0.0
  0
LINE
  5
2439
330
21CC
100
AcDbEntity
  8
0
100
AcDbLine
 10
2297.897531855628
 20
410.8008408665519
 30
0.0
 11
2297.897531855628
 21
388.8008408665518
 31
0.0
  0
LINE
  5
243A
330
21CC
100
AcDbEntity
  8
0
100
AcDbLine
 10
2264.397531855628
 20
382.8008408665518
 30
0.0
 11
2319.397531855629
 21
382.8008408665518
 31
0.0
  0
LINE
  5
243B
330
21CC
100
AcDbEntity
  8
0
100
AcDbLine
 10
2304.397531855628
 20
410.8008408665519
 30
0.0
 11
2279.397531855628
 21
410.8008408665519
 31
0.0
  0
LINE
  5
243C
330
21CC
100
AcDbEntity
  8
0
100
AcDbLine
 10
2264.397531855628
 20
388.8008408665518
 30
0.0
 11
2319.397531855627
 21
388.8008408665518
 31
0.0
  0
LINE
  5
243D
330
21CC
100
AcDbEntity
  8
0
100
AcDbLine
 10
2279.397531855628
 20
435.8008408665519
 30
0.0
 11
2279.397531855628
 21
410.8008408665519
 31
0.0
  0
LINE
  5
243E
330
21CC
100
AcDbEntity
  8
0
100
AcDbLine
 10
2304.397531855628
 20
435.8008408665519
 30
0.0
 11
2304.397531855628
 21
410.8008408665519
 31
0.0
  0
LINE
  5
243F
330
21CC
100
AcDbEntity
  8
0
100
AcDbLine
 10
2311.897531855628
 20
500.8008408665518
 30
0.0
 11
2311.897531855628
 21
445.1309800267081
 31
0.0
  0
LINE
  5
2440
330
21CC
100
AcDbEntity
  8
0
100
AcDbLine
 10
2271.897531855628
 20
485.8008408665519
 30
0.0
 11
2271.897531855628
 21
445.1309800267081
 31
0.0
  0
LINE
  5
2441
330
21CC
100
AcDbEntity
  8
0
100
AcDbLine
 10
1996.897959101722
 20
641.9603779145955
 30
0.0
 11
1996.897959101722
 21
571.6136687058273
 31
0.0
  0
LINE
  5
2442
330
21CC
100
AcDbEntity
  8
0
100
AcDbLine
 10
2294.147531855628
 20
796.2211318530444
 30
0.0
 11
2310.897913320939
 21
791.7328806288836
 31
0.0
  0
LINE
  5
2443
330
21CC
100
AcDbEntity
  8
0
100
AcDbLine
 10
2070.897531855627
 20
536.0126834844159
 30
0.0
 11
2070.897531855627
 21
500.8008408665518
 31
0.0
  0
LINE
  5
2444
330
21CC
100
AcDbEntity
  8
0
100
AcDbLine
 10
2050.897531855628
 20
500.8008408665518
 30
0.0
 11
2070.897531855627
 21
500.8008408665518
 31
0.0
  0
LINE
  5
2445
330
21CC
100
AcDbEntity
  8
0
100
AcDbLine
 10
2033.397532615852
 20
435.8008312954711
 30
0.0
 11
2035.897528095654
 21
445.1309413665894
 31
0.0
  0
LINE
  5
2446
330
21CC
100
AcDbEntity
  8
0
100
AcDbLine
 10
2028.397531855628
 20
435.8008408665519
 30
0.0
 11
2028.397531855628
 21
410.8008408665519
 31
0.0
  0
LINE
  5
2447
330
21CC
100
AcDbEntity
  8
0
100
AcDbLine
 10
2035.897531855628
 20
485.8008408665519
 30
0.0
 11
2035.897531855628
 21
445.1309800267081
 31
0.0
  0
ARC
  5
2448
330
21CC
100
AcDbEntity
  8
0
100
AcDbCircle
 10
2050.897531855628
 20
485.8008408665519
 30
0.0
 40
15.0
100
AcDbArc
 50
90.00000250448172
 51
180.0000050089569
  0
LINE
  5
2449
330
21CC
100
AcDbEntity
  8
0
100
AcDbLine
 10
2063.476295411968
 20
540.8008408665518
 30
0.0
 11
1996.897959101722
 21
540.8008408665518
 31
0.0
  0
LINE
  5
244A
330
21CC
100
AcDbEntity
  8
0
100
AcDbLine
 10
2310.897898066567
 20
791.7329087376455
 30
0.0
 11
2310.897898066567
 21
703.6372056126455
 31
0.0
  0
LINE
  5
244B
330
21CC
100
AcDbEntity
  8
0
100
AcDbLine
 10
1996.897959101722
 20
791.7329087376455
 30
0.0
 11
1996.897959101722
 21
703.6413038185083
 31
0.0
  0
LINE
  5
244C
330
21CC
100
AcDbEntity
  8
0
100
AcDbLine
 10
1889.897959101721
 20
785.8008408665519
 30
0.0
 11
1996.897959101722
 21
785.8008408665519
 31
0.0
  0
LINE
  5
244D
330
21CC
100
AcDbEntity
  8
0
100
AcDbLine
 10
1379.46111864862
 20
834.8008408665519
 30
0.0
 11
1379.46111864862
 21
501.800840866552
 31
0.0
  0
LINE
  5
244E
330
21CC
100
AcDbEntity
  8
0
100
AcDbLine
 10
1996.897959101722
 20
500.800901901708
 30
0.0
 11
1995.897531855628
 21
500.800901901708
 31
0.0
  0
LINE
  5
244F
330
21CC
100
AcDbEntity
  8
0
100
AcDbLine
 10
1996.897959101722
 20
584.2008042454581
 30
0.0
 11
1996.897959101722
 21
500.800901901708
 31
0.0
  0
LINE
  5
2450
330
21CC
100
AcDbEntity
  8
0
100
AcDbLine
 10
1998.397498108536
 20
435.8008312015762
 30
0.0
 11
1995.897496704836
 21
445.1309633809818
 31
0.0
  0
LINE
  5
2451
330
21CC
100
AcDbEntity
  8
0
100
AcDbLine
 10
2003.397531855628
 20
410.8008408665519
 30
0.0
 11
2028.397531855628
 21
410.8008408665519
 31
0.0
  0
LINE
  5
2452
330
21CC
100
AcDbEntity
  8
0
100
AcDbLine
 10
2003.397531855628
 20
435.8008408665519
 30
0.0
 11
2003.397531855628
 21
410.8008408665519
 31
0.0
  0
LINE
  5
2453
330
21CC
100
AcDbEntity
  8
0
100
AcDbLine
 10
1995.897531855628
 20
500.8008408665518
 30
0.0
 11
1995.897531855628
 21
445.1309800267081
 31
0.0
  0
LINE
  5
2454
330
21CC
100
AcDbEntity
  8
0
100
AcDbLine
 10
1889.897912263833
 20
596.8009055556331
 30
0.0
 11
1996.897959101722
 21
568.1303291750272
 31
0.0
  0
LINE
  5
2455
330
21CC
100
AcDbEntity
  8
0
100
AcDbLine
 10
1344.461545894715
 20
410.8008408665519
 30
0.0
 11
1369.461545894713
 21
410.8008408665513
 31
0.0
  0
LINE
  5
2456
330
21CC
100
AcDbEntity
  8
0
100
AcDbLine
 10
1344.461545894715
 20
435.8008576034563
 30
0.0
 11
1344.461545894715
 21
410.8008408665519
 31
0.0
  0
LINE
  5
2457
330
21CC
100
AcDbEntity
  8
0
100
AcDbLine
 10
1369.461545894713
 20
435.8008373541114
 30
0.0
 11
1369.461545894713
 21
410.8008408665519
 31
0.0
  0
LINE
  5
2458
330
21CC
100
AcDbEntity
  8
0
100
AcDbLine
 10
1374.461435581112
 20
435.8008373541114
 30
0.0
 11
1376.961429842645
 21
445.1309477516647
 31
0.0
  0
LINE
  5
2459
330
21CC
100
AcDbEntity
  8
0
100
AcDbLine
 10
1339.461380035851
 20
435.8008576034563
 30
0.0
 11
1336.961389723582
 21
445.1309532621503
 31
0.0
  0
LINE
  5
245A
330
21CC
100
AcDbEntity
  8
0
100
AcDbLine
 10
1336.961332271668
 20
501.800840866552
 30
0.0
 11
1336.961332271668
 21
445.13094950913
 31
0.0
  0
LINE
  5
245B
330
21CC
100
AcDbEntity
  8
0
100
AcDbLine
 10
1339.461332271667
 20
435.8008408665519
 30
0.0
 11
1374.461332271668
 21
435.8008408665519
 31
0.0
  0
LINE
  5
245C
330
21CC
100
AcDbEntity
  8
0
100
AcDbLine
 10
1376.961362789246
 20
501.800840866552
 30
0.0
 11
1376.961362789246
 21
445.1309800267081
 31
0.0
  0
LINE
  5
245D
330
21CC
100
AcDbEntity
  8
0
100
AcDbLine
 10
1889.897959101721
 20
785.8008408665519
 30
0.0
 11
1889.897959101721
 21
596.80087138413
 31
0.0
  0
LINE
  5
245E
330
21CC
100
AcDbEntity
  8
0
100
AcDbLine
 10
1998.397531855628
 20
435.8008408665519
 30
0.0
 11
2033.397531855628
 21
435.8008408665519
 31
0.0
  0
LINE
  5
245F
330
21CC
100
AcDbEntity
  8
0
100
AcDbLine
 10
1996.897873093405
 20
791.7328596511406
 30
0.0
 11
2077.307769407008
 21
813.2786266124266
 31
0.0
  0
LINE
  5
2460
330
21CC
100
AcDbEntity
  8
0
100
AcDbLine
 10
2043.397531855628
 20
388.8008408665518
 30
0.0
 11
2043.397531855628
 21
382.8008408665518
 31
0.0
  0
LINE
  5
2461
330
21CC
100
AcDbEntity
  8
0
100
AcDbLine
 10
1988.397531855628
 20
388.8008408665518
 30
0.0
 11
1988.397531855628
 21
382.8008408665518
 31
0.0
  0
LINE
  5
2462
330
21CC
100
AcDbEntity
  8
0
100
AcDbLine
 10
1384.461545894715
 20
388.8008408665518
 30
0.0
 11
1384.461545894715
 21
382.8008408665518
 31
0.0
  0
LINE
  5
2463
330
21CC
100
AcDbEntity
  8
0
100
AcDbLine
 10
1329.461545894715
 20
388.8008408665518
 30
0.0
 11
1329.461545894715
 21
382.8008408665518
 31
0.0
  0
LINE
  5
2464
330
21CC
100
AcDbEntity
  8
0
100
AcDbLine
 10
1329.461545894715
 20
382.8008408665518
 30
0.0
 11
1384.461545894715
 21
382.8008408665518
 31
0.0
  0
LINE
  5
2465
330
21CC
100
AcDbEntity
  8
0
100
AcDbLine
 10
1329.461545894715
 20
388.8008408665518
 30
0.0
 11
1384.461545894715
 21
388.8008408665518
 31
0.0
  0
LINE
  5
2466
330
21CC
100
AcDbEntity
  8
0
100
AcDbLine
 10
2043.397531855628
 20
388.8008408665518
 30
0.0
 11
1988.397531855628
 21
388.8008408665518
 31
0.0
  0
LINE
  5
2467
330
21CC
100
AcDbEntity
  8
0
100
AcDbLine
 10
2043.397531855628
 20
382.8008408665518
 30
0.0
 11
1988.397531855628
 21
382.8008408665518
 31
0.0
  0
LINE
  5
2468
330
21CC
100
AcDbEntity
  8
0
100
AcDbLine
 10
1362.961545894715
 20
410.8008408665513
 30
0.0
 11
1362.961545894715
 21
388.8008408665518
 31
0.0
  0
LINE
  5
2469
330
21CC
100
AcDbEntity
  8
0
100
AcDbLine
 10
1350.961545894715
 20
410.8008408665519
 30
0.0
 11
1350.961545894715
 21
388.8008408665518
 31
0.0
  0
LINE
  5
246A
330
21CC
100
AcDbEntity
  8
0
100
AcDbLine
 10
2009.897531855628
 20
410.8008408665519
 30
0.0
 11
2009.897531855628
 21
388.8008408665518
 31
0.0
  0
LINE
  5
246B
330
21CC
100
AcDbEntity
  8
0
100
AcDbLine
 10
2021.897531855628
 20
410.8008408665519
 30
0.0
 11
2021.897531855628
 21
388.8008408665518
 31
0.0
  0
LINE
  5
246C
330
21CC
100
AcDbEntity
  8
0
100
AcDbLine
 10
1050.461118648619
 20
786.8008408665517
 30
0.0
 11
1230.46111864862
 21
786.8008408665517
 31
0.0
  0
LINE
  5
246E
330
21CC
100
AcDbEntity
  8
0
100
AcDbLine
 10
1035.622953365417
 20
501.800840866552
 30
0.0
 11
1379.46111864862
 21
501.800840866552
 31
0.0
  0
LINE
  5
246F
330
21CC
100
AcDbEntity
  8
0
100
AcDbLine
 10
1114.461363720331
 20
435.8008371749169
 30
0.0
 11
1116.961357981864
 21
445.1309475724701
 31
0.0
  0
LINE
  5
2470
330
21CC
100
AcDbEntity
  8
0
100
AcDbLine
 10
1084.461118648619
 20
410.8008408665519
 30
0.0
 11
1109.46111864862
 21
410.8008408665519
 31
0.0
  0
LINE
  5
2471
330
21CC
100
AcDbEntity
  8
0
100
AcDbLine
 10
1109.46111864862
 20
435.8008408665519
 30
0.0
 11
1109.46111864862
 21
410.8008408665519
 31
0.0
  0
LINE
  5
2472
330
21CC
100
AcDbEntity
  8
0
100
AcDbLine
 10
1116.961332271668
 20
501.8008318178917
 30
0.0
 11
1116.961332271668
 21
445.13094950913
 31
0.0
  0
LINE
  5
2473
330
21CC
100
AcDbEntity
  8
0
100
AcDbLine
 10
1079.461352391646
 20
435.8008696304414
 30
0.0
 11
1076.961358130114
 21
445.1309800279942
 31
0.0
  0
LINE
  5
2474
330
21CC
100
AcDbEntity
  8
0
100
AcDbLine
 10
1084.461118648619
 20
435.8008408665519
 30
0.0
 11
1084.461118648619
 21
410.8008408665519
 31
0.0
  0
LINE
  5
2475
330
21CC
100
AcDbEntity
  8
0
100
AcDbLine
 10
1114.461332271668
 20
435.8008408665519
 30
0.0
 11
1079.461332271667
 21
435.8008408665519
 31
0.0
  0
LINE
  5
2476
330
21CC
100
AcDbEntity
  8
0
100
AcDbLine
 10
1076.961332271668
 20
501.800840866552
 30
0.0
 11
1076.961332271668
 21
445.1309800267081
 31
0.0
  0
LINE
  5
2477
330
21CC
100
AcDbEntity
  8
0
100
AcDbLine
 10
1050.461118648619
 20
786.8008408665517
 30
0.0
 11
1050.461118648619
 21
501.800840866552
 31
0.0
  0
LINE
  5
2478
330
21CC
100
AcDbEntity
  8
0
100
AcDbLine
 10
939.4610770013759
 20
536.8008944756893
 30
0.0
 11
1035.622955389772
 21
501.8008318178917
 31
0.0
  0
LINE
  5
2479
330
21CC
100
AcDbEntity
  8
0
100
AcDbLine
 10
939.4611186486207
 20
834.8008408665519
 30
0.0
 11
939.4611186486207
 21
536.80087138413
 31
0.0
  0
LINE
  5
247A
330
21CC
100
AcDbEntity
  8
0
100
AcDbLine
 10
1230.46111864862
 20
786.8008408665517
 30
0.0
 11
1230.46111864862
 21
501.800840866552
 31
0.0
  0
LINE
  5
247B
330
21CC
100
AcDbEntity
  8
0
100
AcDbLine
 10
1124.461118648619
 20
388.8008408665518
 30
0.0
 11
1124.461118648619
 21
382.8008408665518
 31
0.0
  0
LINE
  5
247C
330
21CC
100
AcDbEntity
  8
0
100
AcDbLine
 10
1069.46111864862
 20
388.8008408665518
 30
0.0
 11
1069.46111864862
 21
382.8008408665518
 31
0.0
  0
LINE
  5
247D
330
21CC
100
AcDbEntity
  8
0
100
AcDbLine
 10
1124.461118648619
 20
382.8008408665518
 30
0.0
 11
1069.46111864862
 21
382.8008408665518
 31
0.0
  0
LINE
  5
247E
330
21CC
100
AcDbEntity
  8
0
100
AcDbLine
 10
1124.461118648619
 20
388.8008408665518
 30
0.0
 11
1069.46111864862
 21
388.8008408665518
 31
0.0
  0
LINE
  5
247F
330
21CC
100
AcDbEntity
  8
0
100
AcDbLine
 10
1090.96111864862
 20
388.8008408665518
 30
0.0
 11
1090.96111864862
 21
410.8008408665519
 31
0.0
  0
LINE
  5
2480
330
21CC
100
AcDbEntity
  8
0
100
AcDbLine
 10
1102.961118648621
 20
410.8008408665519
 30
0.0
 11
1102.961118648621
 21
388.8008408665518
 31
0.0
  0
LINE
  5
2481
330
21CC
100
AcDbEntity
  8
0
100
AcDbLine
 10
939.4611186486207
 20
834.8008408665519
 30
0.0
 11
1379.46111864862
 21
834.8008408665519
 31
0.0
  0
TEXT
  5
2482
330
21CC
100
AcDbEntity
  8
0
  6
Continuous
100
AcDbText
 10
969.2841213469424
 20
1683.379819371256
 30
0.0
 40
48.000002
  1
EZB2__075___ 4SX2.5S
 41
0.8449620000000001
100
AcDbText
  0
LINE
  5
2489
330
21CC
100
AcDbEntity
  8
0
  6
Continuous
100
AcDbLine
 10
1379.46111864862
 20
791.7329087376455
 30
0.0
 11
939.4611186486207
 21
791.7329087376455
 31
0.0
  0
LINE
  5
248A
330
21CC
100
AcDbEntity
  8
0
  6
Continuous
100
AcDbLine
 10
1230.46111864862
 20
568.1303291750272
 30
0.0
 11
1050.461118648619
 21
568.1303291750272
 31
0.0
  0
LINE
  5
2491
330
21CC
100
AcDbEntity
  8
0
100
AcDbLine
 10
1230.46111864862
 20
1136.881362034336
 30
0.0
 11
1050.461118648619
 21
1136.881362034336
 31
0.0
  0
ENDSEC
  0
SECTION
  2
OBJECTS
  0
DICTIONARY
  5
21BA
330
0
100
AcDbDictionary
281
     1
  3
ACAD_GROUP
350
21BB
  3
ACAD_LAYOUT
350
21C7
  3
ACAD_MLINESTYLE
350
21C4
  3
ACAD_PLOTSETTINGS
350
21C6
  3
ACAD_PLOTSTYLENAME
350
21BC
  3
AcDbVariableDictionary
350
2238
  0
DICTIONARY
  5
2244
330
21B0
100
AcDbDictionary
280
     1
281
     1
  3
ACAD_LAYERSTATES
360
2245
  0
DICTIONARY
  5
21F8
330
21CC
100
AcDbDictionary
280
     1
281
     1
  3
ACAD_LAYOUTSELFREF
360
2227
  0
DICTIONARY
  5
21FA
330
21C8
100
AcDbDictionary
280
     1
281
     1
  3
ACAD_LAYOUTSELFREF
360
2226
  0
DICTIONARY
  5
21BB
102
{ACAD_REACTORS
330
21BA
102
}
330
21BA
100
AcDbDictionary
281
     1
  0
DICTIONARY
  5
21C7
102
{ACAD_REACTORS
330
21BA
102
}
330
21BA
100
AcDbDictionary
281
     1
  3
Model
350
21CF
  3
ﾚｲｱｳﾄ1
350
21CB
  0
DICTIONARY
  5
21C4
102
{ACAD_REACTORS
330
21BA
102
}
330
21BA
100
AcDbDictionary
281
     1
  3
Standard
350
21C5
  0
DICTIONARY
  5
21C6
102
{ACAD_REACTORS
330
21BA
102
}
330
21BA
100
AcDbDictionary
281
     1
  0
ACDBDICTIONARYWDFLT
  5
21BC
102
{ACAD_REACTORS
330
21BA
102
}
330
21BA
100
AcDbDictionary
281
     1
  3
Normal
350
21BD
100
AcDbDictionaryWithDefault
340
21BD
  0
DICTIONARY
  5
2238
102
{ACAD_REACTORS
330
21BA
102
}
330
21BA
100
AcDbDictionary
281
     1
  3
DIMASSOC
350
2239
  0
DICTIONARY
  5
2245
102
{ACAD_REACTORS
330
2244
102
}
330
2244
100
AcDbDictionary
281
     1
  0
XRECORD
  5
2227
102
{ACAD_REACTORS
330
21F8
102
}
330
21F8
100
AcDbXrecord
280
     1
340
21CC
  0
XRECORD
  5
2226
102
{ACAD_REACTORS
330
21FA
102
}
330
21FA
100
AcDbXrecord
280
     1
340
21C8
  0
LAYOUT
  5
21CF
102
{ACAD_REACTORS
330
21C7
102
}
330
21C7
100
AcDbPlotSettings
  1

  2
SII LP-2150 (D-SCAN C2)
  4

  6

 40
0.0
 41
0.0
 42
0.0
 43
0.0
 44
0.0
 45
0.0
 46
0.0
 47
0.0
 48
0.0
 49
0.0
140
0.0
141
0.0
142
1.0
143
1.0
 70
  1712
 72
     0
 73
     0
 74
     0
  7

 75
     0
147
1.0
148
0.0
149
0.0
100
AcDbLayout
  1
Model
 70
     1
 71
     0
 10
0.0
 20
0.0
 11
12.0
 21
9.0
 12
0.0
 22
0.0
 32
0.0
 14
0.0
 24
0.0
 34
0.0
 15
0.0
 25
0.0
 35
0.0
146
0.0
 13
0.0
 23
0.0
 33
0.0
 16
1.0
 26
0.0
 36
0.0
 17
0.0
 27
1.0
 37
0.0
 76
     0
330
21CC
  0
LAYOUT
  5
21CB
102
{ACAD_REACTORS
330
21C7
102
}
330
21C7
100
AcDbPlotSettings
  1

  2
SII LP-2150 (D-SCAN C2)
  4

  6

 40
0.0
 41
0.0
 42
0.0
 43
0.0
 44
0.0
 45
0.0
 46
0.0
 47
0.0
 48
0.0
 49
0.0
140
0.0
141
0.0
142
1.0
143
1.0
 70
   688
 72
     0
 73
     0
 74
     5
  7

 75
    16
147
1.0
148
0.0
149
0.0
100
AcDbLayout
  1
ﾚｲｱｳﾄ1
 70
     1
 71
     1
 10
0.0
 20
0.0
 11
12.0
 21
9.0
 12
0.0
 22
0.0
 32
0.0
 14
1.000000000000000E+20
 24
1.000000000000000E+20
 34
1.000000000000000E+20
 15
-1.000000000000000E+20
 25
-1.000000000000000E+20
 35
-1.000000000000000E+20
146
0.0
 13
0.0
 23
0.0
 33
0.0
 16
1.0
 26
0.0
 36
0.0
 17
0.0
 27
1.0
 37
0.0
 76
     0
330
21C8
  0
MLINESTYLE
  5
21C5
102
{ACAD_REACTORS
330
21C4
102
}
330
21C4
100
AcDbMlineStyle
  2
STANDARD
 70
     0
  3

 62
   256
 51
90.0
 52
90.0
 71
     2
 49
0.5
 62
   256
  6
BYLAYER
 49
-0.5
 62
   256
  6
BYLAYER
  0
ACDBPLACEHOLDER
  5
21BD
102
{ACAD_REACTORS
330
21BC
102
}
330
21BC
  0
DICTIONARYVAR
  5
2239
102
{ACAD_REACTORS
330
2238
102
}
330
2238
100
DictionaryVariables
280
     0
  1
1
  0
ENDSEC
  0
EOF
