  0
SECTION
  2
HEADER
  9
$ACADVER
  1
AC1015
  9
$ACADMAINTVER
 70
    14
  9
$DWGCODEPAGE
  3
ANSI_932
  9
$INSBASE
 10
0.0
 20
0.0
 30
0.0
  9
$EXTMIN
 10
-103.444496813438
 20
-108.1429056395733
 30
-0.0000000000112498
  9
$EXTMAX
 10
929.4300518484002
 20
198.0161334818639
 30
0.0000000000002956
  9
$LIMMIN
 10
0.0
 20
0.0
  9
$LIMMAX
 10
12.0
 20
9.0
  9
$ORTHOMODE
 70
     0
  9
$REGENMODE
 70
     1
  9
$FILLMODE
 70
     1
  9
$QTEXTMODE
 70
     0
  9
$MIRRTEXT
 70
     1
  9
$LTSCALE
 40
1.0
  9
$ATTMODE
 70
     1
  9
$TEXTSIZE
 40
0.2
  9
$TRACEWID
 40
0.05
  9
$TEXTSTYLE
  7
STANDARD
  9
$CLAYER
  8
0
  9
$CELTYPE
  6
CONTINUOUS
  9
$CECOLOR
 62
   256
  9
$CELTSCALE
 40
1.0
  9
$DISPSILH
 70
     0
  9
$DIMSCALE
 40
1.0
  9
$DIMASZ
 40
1.0
  9
$DIMEXO
 40
2.54
  9
$DIMDLI
 40
0.38
  9
$DIMRND
 40
0.0
  9
$DIMDLE
 40
0.0
  9
$DIMEXE
 40
2.54
  9
$DIMTP
 40
0.0
  9
$DIMTM
 40
0.0
  9
$DIMTXT
 40
3.2
  9
$DIMCEN
 40
0.09
  9
$DIMTSZ
 40
0.0
  9
$DIMTOL
 70
     0
  9
$DIMLIM
 70
     0
  9
$DIMTIH
 70
     0
  9
$DIMTOH
 70
     0
  9
$DIMSE1
 70
     0
  9
$DIMSE2
 70
     0
  9
$DIMTAD
 70
     1
  9
$DIMZIN
 70
     0
  9
$DIMBLK
  1

  9
$DIMASO
 70
     1
  9
$DIMSHO
 70
     0
  9
$DIMPOST
  1

  9
$DIMAPOST
  1

  9
$DIMALT
 70
     0
  9
$DIMALTD
 70
     2
  9
$DIMALTF
 40
25.4
  9
$DIMLFAC
 40
1.0
  9
$DIMTOFL
 70
     0
  9
$DIMTVP
 40
1.0
  9
$DIMTIX
 70
     0
  9
$DIMSOXD
 70
     0
  9
$DIMSAH
 70
     1
  9
$DIMBLK1
  1

  9
$DIMBLK2
  1

  9
$DIMSTYLE
  2
STANDARD
  9
$DIMCLRD
 70
     0
  9
$DIMCLRE
 70
     0
  9
$DIMCLRT
 70
     0
  9
$DIMTFAC
 40
1.0
  9
$DIMGAP
 40
1.6
  9
$DIMJUST
 70
     0
  9
$DIMSD1
 70
     0
  9
$DIMSD2
 70
     0
  9
$DIMTOLJ
 70
     1
  9
$DIMTZIN
 70
     0
  9
$DIMALTZ
 70
     0
  9
$DIMALTTZ
 70
     0
  9
$DIMUPT
 70
     0
  9
$DIMDEC
 70
     4
  9
$DIMTDEC
 70
     4
  9
$DIMALTU
 70
     2
  9
$DIMALTTD
 70
     2
  9
$DIMTXSTY
  7
STANDARD
  9
$DIMAUNIT
 70
     0
  9
$DIMADEC
 70
     0
  9
$DIMALTRND
 40
0.0
  9
$DIMAZIN
 70
     0
  9
$DIMDSEP
 70
    46
  9
$DIMATFIT
 70
     3
  9
$DIMFRAC
 70
     0
  9
$DIMLDRBLK
  1

  9
$DIMLUNIT
 70
     2
  9
$DIMLWD
 70
    -2
  9
$DIMLWE
 70
    -2
  9
$DIMTMOVE
 70
     0
  9
$LUNITS
 70
     2
  9
$LUPREC
 70
     4
  9
$SKETCHINC
 40
0.1
  9
$FILLETRAD
 40
0.0
  9
$AUNITS
 70
     0
  9
$AUPREC
 70
     0
  9
$MENU
  1
.
  9
$ELEVATION
 40
0.0
  9
$PELEVATION
 40
0.0
  9
$THICKNESS
 40
0.0
  9
$LIMCHECK
 70
     0
  9
$CHAMFERA
 40
0.0
  9
$CHAMFERB
 40
0.0
  9
$CHAMFERC
 40
0.0
  9
$CHAMFERD
 40
0.0
  9
$SKPOLY
 70
     0
  9
$TDCREATE
 40
2452488.423138738
  9
$TDUCREATE
 40
2452488.048138738
  9
$TDUPDATE
 40
2456906.721212233
  9
$TDUUPDATE
 40
2456906.346212234
  9
$TDINDWG
 40
0.2848656713
  9
$TDUSRTIMER
 40
0.2848654861
  9
$USRTIMER
 70
     1
  9
$ANGBASE
 50
0.0
  9
$ANGDIR
 70
     0
  9
$PDMODE
 70
     3
  9
$PDSIZE
 40
0.0
  9
$PLINEWID
 40
0.0
  9
$SPLFRAME
 70
     0
  9
$SPLINETYPE
 70
     6
  9
$SPLINESEGS
 70
     8
  9
$HANDSEED
  5
3E6A
  9
$SURFTAB1
 70
     6
  9
$SURFTAB2
 70
     6
  9
$SURFTYPE
 70
     6
  9
$SURFU
 70
     6
  9
$SURFV
 70
     6
  9
$UCSBASE
  2

  9
$UCSNAME
  2

  9
$UCSORG
 10
0.0
 20
0.0
 30
0.0
  9
$UCSXDIR
 10
1.0
 20
0.0
 30
0.0
  9
$UCSYDIR
 10
0.0
 20
1.0
 30
0.0
  9
$UCSORTHOREF
  2

  9
$UCSORTHOVIEW
 70
     0
  9
$UCSORGTOP
 10
0.0
 20
0.0
 30
0.0
  9
$UCSORGBOTTOM
 10
0.0
 20
0.0
 30
0.0
  9
$UCSORGLEFT
 10
0.0
 20
0.0
 30
0.0
  9
$UCSORGRIGHT
 10
0.0
 20
0.0
 30
0.0
  9
$UCSORGFRONT
 10
0.0
 20
0.0
 30
0.0
  9
$UCSORGBACK
 10
0.0
 20
0.0
 30
0.0
  9
$PUCSBASE
  2

  9
$PUCSNAME
  2

  9
$PUCSORG
 10
0.0
 20
0.0
 30
0.0
  9
$PUCSXDIR
 10
1.0
 20
0.0
 30
0.0
  9
$PUCSYDIR
 10
0.0
 20
1.0
 30
0.0
  9
$PUCSORTHOREF
  2

  9
$PUCSORTHOVIEW
 70
     0
  9
$PUCSORGTOP
 10
0.0
 20
0.0
 30
0.0
  9
$PUCSORGBOTTOM
 10
0.0
 20
0.0
 30
0.0
  9
$PUCSORGLEFT
 10
0.0
 20
0.0
 30
0.0
  9
$PUCSORGRIGHT
 10
0.0
 20
0.0
 30
0.0
  9
$PUCSORGFRONT
 10
0.0
 20
0.0
 30
0.0
  9
$PUCSORGBACK
 10
0.0
 20
0.0
 30
0.0
  9
$USERI1
 70
     0
  9
$USERI2
 70
     0
  9
$USERI3
 70
     0
  9
$USERI4
 70
     0
  9
$USERI5
 70
     0
  9
$USERR1
 40
0.0
  9
$USERR2
 40
0.0
  9
$USERR3
 40
0.0
  9
$USERR4
 40
0.0
  9
$USERR5
 40
0.0
  9
$WORLDVIEW
 70
     1
  9
$SHADEDGE
 70
     3
  9
$SHADEDIF
 70
    70
  9
$TILEMODE
 70
     1
  9
$MAXACTVP
 70
    48
  9
$PINSBASE
 10
0.0
 20
0.0
 30
0.0
  9
$PLIMCHECK
 70
     0
  9
$PEXTMIN
 10
1.000000000000000E+20
 20
1.000000000000000E+20
 30
1.000000000000000E+20
  9
$PEXTMAX
 10
-1.000000000000000E+20
 20
-1.000000000000000E+20
 30
-1.000000000000000E+20
  9
$PLIMMIN
 10
0.0
 20
0.0
  9
$PLIMMAX
 10
12.0
 20
9.0
  9
$UNITMODE
 70
     0
  9
$VISRETAIN
 70
     1
  9
$PLINEGEN
 70
     0
  9
$PSLTSCALE
 70
     1
  9
$TREEDEPTH
 70
  3020
  9
$CMLSTYLE
  2
Standard
  9
$CMLJUST
 70
     0
  9
$CMLSCALE
 40
1.0
  9
$PROXYGRAPHICS
 70
     1
  9
$MEASUREMENT
 70
     0
  9
$CELWEIGHT
370
    -1
  9
$ENDCAPS
280
     0
  9
$JOINSTYLE
280
     0
  9
$LWDISPLAY
290
     0
  9
$INSUNITS
 70
     0
  9
$HYPERLINKBASE
  1

  9
$STYLESHEET
  1

  9
$XEDIT
290
     1
  9
$CEPSNTYPE
380
     0
  9
$PSTYLEMODE
290
     1
  9
$FINGERPRINTGUID
  2
{FFE95C04-33D2-4560-80D0-1E2918E4EC86}
  9
$VERSIONGUID
  2
{73B06093-25F6-493F-98BF-18959AD7672A}
  9
$EXTNAMES
290
     1
  9
$PSVPSCALE
 40
0.0
  9
$OLESTARTUP
290
     0
  0
ENDSEC
  0
SECTION
  2
CLASSES
  0
CLASS
  1
ACDBDICTIONARYWDFLT
  2
AcDbDictionaryWithDefault
  3
AutoCAD 2000
 90
        0
280
     0
281
     0
  0
CLASS
  1
ACDBPLACEHOLDER
  2
AcDbPlaceHolder
  3
AutoCAD 2000
 90
        0
280
     0
281
     0
  0
CLASS
  1
LAYOUT
  2
AcDbLayout
  3
AutoCAD 2000
 90
        0
280
     0
281
     0
  0
CLASS
  1
DICTIONARYVAR
  2
AcDbDictionaryVar
  3
AutoCAD 2000
 90
        0
280
     0
281
     0
  0
CLASS
  1
LONG_TRANSACTION
  2
AcDbLongTransaction
  3
AutoCAD 2000
 90
    32768
280
     0
281
     0
  0
CLASS
  1
LWPOLYLINE
  2
AcDbPolyline
  3
AutoCAD 2000
 90
    32768
280
     0
281
     1
  0
CLASS
  1
HATCH
  2
AcDbHatch
  3
AutoCAD 2000
 90
    32768
280
     0
281
     1
  0
CLASS
  1
XRECORD
  2
AcDbXrecord
  3
AutoCAD 2000
 90
    32768
280
     0
281
     0
  0
ENDSEC
  0
SECTION
  2
TABLES
  0
TABLE
  2
VPORT
  5
21B6
330
0
100
AcDbSymbolTable
 70
     2
  0
VPORT
  5
3E69
330
21B6
100
AcDbSymbolTableRecord
100
AcDbViewportTableRecord
  2
*Active
 70
     0
 10
0.0
 20
0.0
 11
1.0
 21
1.0
 12
412.992777517481
 22
44.93661392114529
 13
0.0
 23
0.0
 14
1.0
 24
1.0
 15
0.0
 25
0.0
 16
0.0
 26
0.0
 36
1.0
 17
0.0
 27
0.0
 37
0.0
 40
530.4787294825205
 41
1.953389830508474
 42
50.0
 43
0.0
 44
0.0
 50
0.0
 51
0.0
 71
     0
 72
   100
 73
     1
 74
     3
 75
     0
 76
     0
 77
     0
 78
     0
281
     0
 65
     1
110
0.0
120
0.0
130
0.0
111
1.0
121
0.0
131
0.0
112
0.0
122
1.0
132
0.0
 79
     0
146
0.0
  0
ENDTAB
  0
TABLE
  2
LTYPE
  5
21B3
330
0
100
AcDbSymbolTable
 70
     2
  0
LTYPE
  5
21C1
330
21B3
100
AcDbSymbolTableRecord
100
AcDbLinetypeTableRecord
  2
ByBlock
 70
     0
  3

 72
    65
 73
     0
 40
0.0
  0
LTYPE
  5
21C2
330
21B3
100
AcDbSymbolTableRecord
100
AcDbLinetypeTableRecord
  2
ByLayer
 70
     0
  3

 72
    65
 73
     0
 40
0.0
  0
LTYPE
  5
21C3
330
21B3
100
AcDbSymbolTableRecord
100
AcDbLinetypeTableRecord
  2
CONTINUOUS
 70
     0
  3
Solid line
 72
    65
 73
     0
 40
0.0
  0
LTYPE
  5
21D1
330
21B3
100
AcDbSymbolTableRecord
100
AcDbLinetypeTableRecord
  2
CENTER
 70
     0
  3
__ . __
 72
    65
 73
     4
 40
7.0
 49
4.0
 74
     0
 49
-1.0
 74
     0
 49
1.0
 74
     0
 49
-1.0
 74
     0
  0
ENDTAB
  0
TABLE
  2
LAYER
  5
21B0
102
{ACAD_XDICTIONARY
360
2244
102
}
330
0
100
AcDbSymbolTable
 70
     1
  0
LAYER
  5
21BE
330
21B0
100
AcDbSymbolTableRecord
100
AcDbLayerTableRecord
  2
0
 70
     0
 62
     7
  6
CONTINUOUS
370
    -3
390
21BD
  0
ENDTAB
  0
TABLE
  2
STYLE
  5
21B1
330
0
100
AcDbSymbolTable
 70
     1
  0
STYLE
  5
21BF
330
21B1
100
AcDbSymbolTableRecord
100
AcDbTextStyleTableRecord
  2
STANDARD
 70
     0
 40
0.0
 41
1.0
 50
0.0
 71
     0
 42
0.2
  3
txt
  4
BIGFONT
  0
ENDTAB
  0
TABLE
  2
VIEW
  5
21B4
330
0
100
AcDbSymbolTable
 70
     1
  0
VIEW
  5
21DE
330
21B4
100
AcDbSymbolTableRecord
100
AcDbViewTableRecord
  2
OLE1
 70
     0
 40
3692.141019219747
 10
1914.591370701856
 20
1272.206200738182
 41
4595.022665841169
 11
0.0
 21
0.0
 31
1.0
 12
0.0
 22
0.0
 32
0.0
 42
50.0
 43
0.0
 44
0.0
 50
0.0
 71
     0
281
     0
 72
     1
110
0.0
120
0.0
130
0.0
111
1.0
121
0.0
131
0.0
112
0.0
122
1.0
132
0.0
 79
     0
146
0.0
  0
ENDTAB
  0
TABLE
  2
UCS
  5
21B5
330
0
100
AcDbSymbolTable
 70
     0
  0
ENDTAB
  0
TABLE
  2
APPID
  5
21B7
330
0
100
AcDbSymbolTable
 70
     8
  0
APPID
  5
21C0
330
21B7
100
AcDbSymbolTableRecord
100
AcDbRegAppTableRecord
  2
ACAD
 70
     0
  0
APPID
  5
21DF
330
21B7
100
AcDbSymbolTableRecord
100
AcDbRegAppTableRecord
  2
MCAD_NO_VIS
 70
     0
  0
APPID
  5
21E0
330
21B7
100
AcDbSymbolTableRecord
100
AcDbRegAppTableRecord
  2
ACAD_TEMP_GRAPHIC
 70
     0
  0
APPID
  5
21E1
330
21B7
100
AcDbSymbolTableRecord
100
AcDbRegAppTableRecord
  2
ACATTRIBSERVICES
 70
     0
  0
APPID
  5
21E2
330
21B7
100
AcDbSymbolTableRecord
100
AcDbRegAppTableRecord
  2
CONTENTBLOCKICON
 70
     0
  0
APPID
  5
2241
330
21B7
100
AcDbSymbolTableRecord
100
AcDbRegAppTableRecord
  2
ACAD_DSTYLE_DIMJAG
 70
     0
  0
APPID
  5
2242
330
21B7
100
AcDbSymbolTableRecord
100
AcDbRegAppTableRecord
  2
ACAD_DSTYLE_DIMTALN
 70
     0
  0
APPID
  5
2243
330
21B7
100
AcDbSymbolTableRecord
100
AcDbRegAppTableRecord
  2
ACAD_PSEXT
 70
     0
  0
ENDTAB
  0
TABLE
  2
DIMSTYLE
  5
21B8
330
0
100
AcDbSymbolTable
 70
     1
100
AcDbDimStyleTable
 71
     0
  0
DIMSTYLE
105
21E3
330
21B8
100
AcDbSymbolTableRecord
100
AcDbDimStyleTableRecord
  2
STANDARD
 70
     0
279
     2
340
21BF
  0
ENDTAB
  0
TABLE
  2
BLOCK_RECORD
  5
21AF
330
0
100
AcDbSymbolTable
 70
     0
  0
BLOCK_RECORD
  5
21CC
102
{ACAD_XDICTIONARY
360
21F8
102
}
330
21AF
100
AcDbSymbolTableRecord
100
AcDbBlockTableRecord
  2
*Model_Space
340
21CF
  0
BLOCK_RECORD
  5
21C8
102
{ACAD_XDICTIONARY
360
21FA
102
}
330
21AF
100
AcDbSymbolTableRecord
100
AcDbBlockTableRecord
  2
*Paper_Space
340
21CB
  0
ENDTAB
  0
ENDSEC
  0
SECTION
  2
BLOCKS
  0
BLOCK
  5
21CD
330
21CC
100
AcDbEntity
  8
0
100
AcDbBlockBegin
  2
*Model_Space
 70
     0
 10
0.0
 20
0.0
 30
0.0
  3
*Model_Space
  1

  0
ENDBLK
  5
21CE
330
21CC
100
AcDbEntity
  8
0
100
AcDbBlockEnd
  0
BLOCK
  5
21C9
330
21C8
100
AcDbEntity
 67
     1
  8
0
100
AcDbBlockBegin
  2
*Paper_Space
 70
     0
 10
0.0
 20
0.0
 30
0.0
  3
*Paper_Space
  1

  0
ENDBLK
  5
21CA
330
21C8
100
AcDbEntity
 67
     1
  8
0
100
AcDbBlockEnd
  0
ENDSEC
  0
SECTION
  2
ENTITIES
  0
TEXT
  5
F6E
330
21CC
100
AcDbEntity
  8
0
  6
Continuous
100
AcDbText
 10
0.0
 20
150.0
 30
0.0
 40
48.000002
  1
STS 4S
 41
1.32095
100
AcDbText
  0
LINE
  5
398E
330
21CC
100
AcDbEntity
  8
0
100
AcDbLine
 10
907.8709340696903
 20
-59.50001525878906
 30
0.0
 11
910.160768116736
 21
-59.50001525878952
 31
0.0
  0
LINE
  5
398F
330
21CC
100
AcDbEntity
  8
0
100
AcDbLine
 10
904.6231971767072
 20
-52.11597777920224
 30
0.0
 11
907.1191800086861
 21
-58.97363147132728
 31
0.0
  0
LINE
  5
3990
330
21CC
100
AcDbEntity
  8
0
100
AcDbLine
 10
904.1442269065818
 20
50.14693743028828
 30
0.0
 11
904.1442269065818
 21
-50.14693743028828
 31
0.0
  0
LINE
  5
3991
330
21CC
100
AcDbEntity
  8
0
100
AcDbLine
 10
880.5028427016976
 20
-50.80001831054733
 30
0.0
 11
902.7438120241967
 21
-50.80001831054733
 31
0.0
  0
LINE
  5
3992
330
21CC
100
AcDbEntity
  8
0
100
AcDbLine
 10
860.1897476089241
 20
-66.97116088867232
 30
0.0
 11
873.4318588149788
 21
-53.72904968261718
 31
0.0
  0
LINE
  5
3993
330
21CC
100
AcDbEntity
  8
0
100
AcDbLine
 10
267.7607438931037
 20
-69.90002441406296
 30
0.0
 11
853.1185653579477
 21
-69.90002441406296
 31
0.0
  0
LINE
  5
3994
330
21CC
100
AcDbEntity
  8
0
100
AcDbLine
 10
876.3607528579477
 20
49.53755447147933
 30
0.0
 11
876.3607528579477
 21
-49.53755447147978
 31
0.0
  0
LINE
  5
3995
330
21CC
100
AcDbEntity
  8
0
100
AcDbLine
 10
857.2607772720102
 20
66.74415185727958
 30
0.0
 11
857.2607772720102
 21
-66.74415185728003
 31
0.0
  0
LINE
  5
3996
330
21CC
100
AcDbEntity
  8
0
  6
CENTER
100
AcDbLine
 10
190.1608138931038
 20
0.0
 30
0.0
 11
929.3607681167367
 21
0.0
 31
0.0
  0
ARC
  5
3997
330
21CC
100
AcDbEntity
  8
0
100
AcDbCircle
 10
853.1185653579477
 20
-59.90002441406296
 30
0.0
 40
10.0
100
AcDbArc
 50
270.0
 51
314.9999381801773
  0
ARC
  5
3998
330
21CC
100
AcDbEntity
  8
0
100
AcDbCircle
 10
880.5028427016976
 20
-60.80001831054733
 30
0.0
 40
10.0
100
AcDbArc
 50
90.0
 51
134.9999381801773
  0
LINE
  5
3999
330
21CC
100
AcDbEntity
  8
0
100
AcDbLine
 10
210.1608138931038
 20
-59.5
 30
0.0
 11
212.4506484899112
 21
-59.5
 31
0.0
  0
LINE
  5
399A
330
21CC
100
AcDbEntity
  8
0
100
AcDbLine
 10
217.577731959711
 20
-50.80002000000013
 30
0.0
 11
241.7607938931038
 21
-50.80002000000013
 31
0.0
  0
LINE
  5
399B
330
21CC
100
AcDbEntity
  8
0
100
AcDbLine
 10
213.2024036926805
 20
-58.97361307554547
 30
0.0
 11
215.6983439527877
 21
-52.11598731113736
 31
0.0
  0
LINE
  5
399C
330
21CC
100
AcDbEntity
  8
0
100
AcDbLine
 10
210.1608138931038
 20
59.5
 30
0.0
 11
210.1608138931038
 21
-59.5
 31
0.0
  0
LINE
  5
399D
330
21CC
100
AcDbEntity
  8
0
100
AcDbLine
 10
910.160768116736
 20
59.50001525878906
 30
0.0
 11
910.160768116736
 21
-59.50001525878952
 31
0.0
  0
LINE
  5
399E
330
21CC
100
AcDbEntity
  8
0
100
AcDbLine
 10
907.3107681167366
 20
56.57621190452437
 30
0.0
 11
907.3107681167366
 21
-56.57621190452482
 31
0.0
  0
ARC
  5
399F
330
21CC
100
AcDbEntity
  8
0
100
AcDbCircle
 10
907.8709340696903
 20
-58.70001525878933
 30
0.0
 40
0.8
100
AcDbArc
 50
200.000007459842
 51
270.0
  0
ARC
  5
39A0
330
21CC
100
AcDbEntity
  8
0
100
AcDbCircle
 10
902.7438120241967
 20
-52.80001831054732
 30
0.0
 40
2.0
100
AcDbArc
 50
20.00000745984201
 51
90.0
  0
LINE
  5
39A1
330
21CC
100
AcDbEntity
  8
0
100
AcDbLine
 10
213.0108138931037
 20
56.57617146913117
 30
0.0
 11
213.0108138931037
 21
-56.57617146913162
 31
0.0
  0
LINE
  5
39A2
330
21CC
100
AcDbEntity
  8
0
100
AcDbLine
 10
216.1773108584917
 20
-50.14695397993865
 30
0.0
 11
216.1773108584917
 21
50.14695397993818
 31
0.0
  0
ARC
  5
39A3
330
21CC
100
AcDbEntity
  8
0
100
AcDbCircle
 10
212.4506484899112
 20
-58.70000000000027
 30
0.0
 40
0.8
100
AcDbArc
 50
270.0
 51
340.0002316294131
  0
ARC
  5
39A4
330
21CC
100
AcDbEntity
  8
0
100
AcDbCircle
 10
217.577731959711
 20
-52.80002000000013
 30
0.0
 40
2.0
100
AcDbArc
 50
90.0
 51
160.0002316294131
  0
LINE
  5
39EA
330
21CC
100
AcDbEntity
  8
0
100
AcDbLine
 10
907.8709340696903
 20
59.50001525878906
 30
0.0
 11
910.160768116736
 21
59.50001525878906
 31
0.0
  0
LINE
  5
39EB
330
21CC
100
AcDbEntity
  8
0
100
AcDbLine
 10
904.6231971767072
 20
52.11597777920179
 30
0.0
 11
907.1191800086861
 21
58.97363147132683
 31
0.0
  0
LINE
  5
39EC
330
21CC
100
AcDbEntity
  8
0
100
AcDbLine
 10
880.5028427016976
 20
50.80001831054687
 30
0.0
 11
902.7438120241967
 21
50.80001831054687
 31
0.0
  0
LINE
  5
39ED
330
21CC
100
AcDbEntity
  8
0
100
AcDbLine
 10
860.1897476089241
 20
66.97116088867187
 30
0.0
 11
873.4318588149788
 21
53.72904968261718
 31
0.0
  0
LINE
  5
39EE
330
21CC
100
AcDbEntity
  8
0
100
AcDbLine
 10
267.7607438931037
 20
69.9000244140625
 30
0.0
 11
853.1185653579477
 21
69.9000244140625
 31
0.0
  0
ARC
  5
39EF
330
21CC
100
AcDbEntity
  8
0
100
AcDbCircle
 10
853.1185653579477
 20
59.9000244140625
 30
0.0
 40
10.0
100
AcDbArc
 50
45.00006181983187
 51
90.0
  0
ARC
  5
39F0
330
21CC
100
AcDbEntity
  8
0
100
AcDbCircle
 10
880.5028427016976
 20
60.80001831054687
 30
0.0
 40
10.0
100
AcDbArc
 50
225.0000618198318
 51
270.0
  0
LINE
  5
39F1
330
21CC
100
AcDbEntity
  8
0
100
AcDbLine
 10
210.1608138931038
 20
59.5
 30
0.0
 11
212.4506484899112
 21
59.5
 31
0.0
  0
LINE
  5
39F2
330
21CC
100
AcDbEntity
  8
0
100
AcDbLine
 10
217.577731959711
 20
50.80002000000013
 30
0.0
 11
241.7607938931038
 21
50.80001999999968
 31
0.0
  0
LINE
  5
39F3
330
21CC
100
AcDbEntity
  8
0
100
AcDbLine
 10
213.2024036926805
 20
58.97361307554501
 30
0.0
 11
215.6983439527877
 21
52.11598731113736
 31
0.0
  0
ARC
  5
39F4
330
21CC
100
AcDbEntity
  8
0
100
AcDbCircle
 10
907.8709340696903
 20
58.70001525878888
 30
0.0
 40
0.8
100
AcDbArc
 50
90.0
 51
159.9999925401579
  0
ARC
  5
39F5
330
21CC
100
AcDbEntity
  8
0
100
AcDbCircle
 10
902.7438120241967
 20
52.80001831054687
 30
0.0
 40
2.0
100
AcDbArc
 50
270.0
 51
339.9999925401579
  0
ARC
  5
39F6
330
21CC
100
AcDbEntity
  8
0
100
AcDbCircle
 10
212.4506484899112
 20
58.69999999999982
 30
0.0
 40
0.8
100
AcDbArc
 50
19.9997683705761
 51
90.0
  0
ARC
  5
39F7
330
21CC
100
AcDbEntity
  8
0
100
AcDbCircle
 10
217.577731959711
 20
52.80002000000013
 30
0.0
 40
2.0
100
AcDbArc
 50
199.9997683705761
 51
270.0
  0
LINE
  5
3B67
330
21CC
100
AcDbEntity
  8
0
  6
CENTER
100
AcDbLine
 10
-103.4034674999999
 20
0.0
 30
0.0
 11
103.4034674999999
 21
0.0
 31
0.0
  0
LINE
  5
3B68
330
21CC
100
AcDbEntity
  8
0
  6
CENTER
100
AcDbLine
 10
-0.0000000000001137
 20
-98.54540250000036
 30
0.0
 11
-0.0000000000001137
 21
98.54540249999992
 31
0.0
  0
LINE
  5
3B69
330
21CC
100
AcDbEntity
  8
0
100
AcDbLine
 10
75.67693499999984
 20
-4.000005000000328
 30
0.0
 11
106.0000049999999
 21
-4.000005000000328
 31
0.0
  0
LINE
  5
3B6A
330
21CC
100
AcDbEntity
  8
0
100
AcDbLine
 10
75.67693499999984
 20
4.000004999999873
 30
0.0
 11
106.0000049999999
 21
4.000004999999873
 31
0.0
  0
LINE
  5
3B6B
330
21CC
100
AcDbEntity
  8
0
100
AcDbLine
 10
103.4999999999998
 20
-4.000005000000328
 30
0.0
 11
103.4999999999998
 21
4.000004999999873
 31
0.0
  0
LINE
  5
3B6C
330
21CC
100
AcDbEntity
  8
0
100
AcDbLine
 10
87.90904499999976
 20
18.49999499999967
 30
0.0
 11
106.0000049999999
 21
18.49999499999967
 31
0.0
  0
LINE
  5
3B6D
330
21CC
100
AcDbEntity
  8
0
100
AcDbLine
 10
242.7607688931035
 20
18.49999499999967
 30
0.0
 11
247.5607688931034
 21
18.49999499999967
 31
0.0
  0
LINE
  5
3B6E
330
21CC
100
AcDbEntity
  8
0
100
AcDbLine
 10
242.7607688931035
 20
-18.49999500000012
 30
0.0
 11
245.8092488931034
 21
-18.49999500000012
 31
0.0
  0
LINE
  5
3B6F
330
21CC
100
AcDbEntity
  8
0
100
AcDbLine
 10
242.7607688931035
 20
-4.000005000000328
 30
0.0
 11
247.5607688931034
 21
-4.000005000000328
 31
0.0
  0
LINE
  5
3B70
330
21CC
100
AcDbEntity
  8
0
100
AcDbLine
 10
242.7607688931035
 20
4.000004999999873
 30
0.0
 11
247.5607688931034
 21
4.000004999999873
 31
0.0
  0
LINE
  5
3B71
330
21CC
100
AcDbEntity
  8
0
100
AcDbLine
 10
263.7122888931033
 20
-18.49999500000012
 30
0.0
 11
266.7607688931035
 21
-18.49999500000012
 31
0.0
  0
LINE
  5
3B72
330
21CC
100
AcDbEntity
  8
0
100
AcDbLine
 10
261.9607688931033
 20
-4.000005000000328
 30
0.0
 11
266.7607688931035
 21
-4.000005000000328
 31
0.0
  0
LINE
  5
3B73
330
21CC
100
AcDbEntity
  8
0
100
AcDbLine
 10
261.9607688931033
 20
4.000004999999873
 30
0.0
 11
266.7607688931035
 21
4.000004999999873
 31
0.0
  0
LINE
  5
3B74
330
21CC
100
AcDbEntity
  8
0
100
AcDbLine
 10
261.9607688931033
 20
18.49999499999967
 30
0.0
 11
266.7607688931035
 21
18.49999499999967
 31
0.0
  0
LINE
  5
3B75
330
21CC
100
AcDbEntity
  8
0
100
AcDbLine
 10
249.7607738931034
 20
-15.7209300000004
 30
0.0
 11
249.7607738931034
 21
16.84016999999994
 31
0.0
  0
LINE
  5
3B76
330
21CC
100
AcDbEntity
  8
0
100
AcDbLine
 10
259.7607638931034
 20
-15.7209300000004
 30
0.0
 11
259.7607638931034
 21
16.84016999999994
 31
0.0
  0
LINE
  5
3B77
330
21CC
100
AcDbEntity
  8
0
100
AcDbLine
 10
248.5607738931033
 20
7.750004999999873
 30
0.0
 11
249.7607738931034
 21
7.750004999999873
 31
0.0
  0
LINE
  5
3B78
330
21CC
100
AcDbEntity
  8
0
100
AcDbLine
 10
248.5607738931033
 20
14.74999499999967
 30
0.0
 11
249.7607738931034
 21
14.74999499999967
 31
0.0
  0
LINE
  5
3B79
330
21CC
100
AcDbEntity
  8
0
100
AcDbLine
 10
240.7607738931034
 20
6.250004999999873
 30
0.0
 11
241.7607638931034
 21
6.250004999999873
 31
0.0
  0
LINE
  5
3B7A
330
21CC
100
AcDbEntity
  8
0
100
AcDbLine
 10
240.7607738931034
 20
16.24999499999967
 30
0.0
 11
241.7607638931034
 21
16.24999499999967
 31
0.0
  0
LINE
  5
3B7B
330
21CC
100
AcDbEntity
  8
0
100
AcDbLine
 10
93.49999499999979
 20
4.000004999999873
 30
0.0
 11
93.49999499999979
 21
-4.000005000000328
 31
0.0
  0
LINE
  5
3B7C
330
21CC
100
AcDbEntity
  8
0
100
AcDbLine
 10
93.49999499999979
 20
-41.71840500000008
 30
0.0
 11
93.49999499999979
 21
-43.72093500000028
 31
0.0
  0
LINE
  5
3B7D
330
21CC
100
AcDbEntity
  8
0
100
AcDbLine
 10
94.49999999999988
 20
-44.72092500000008
 30
0.0
 11
102.4999949999997
 21
-44.72092500000008
 31
0.0
  0
LINE
  5
3B7E
330
21CC
100
AcDbEntity
  8
0
100
AcDbLine
 10
106.9999949999997
 20
-17.49999500000012
 30
0.0
 11
106.9999949999997
 21
-4.999995000000126
 31
0.0
  0
ARC
  5
3B7F
330
21CC
100
AcDbEntity
  8
0
100
AcDbCircle
 10
105.9999949999997
 20
-17.49999500000012
 30
0.0
 40
1.0
100
AcDbArc
 50
270.0
 51
0.0
  0
LINE
  5
3B80
330
21CC
100
AcDbEntity
  8
0
100
AcDbLine
 10
106.9999949999997
 20
4.999994999999671
 30
0.0
 11
106.9999949999997
 21
17.50000499999987
 31
0.0
  0
LINE
  5
3B81
330
21CC
100
AcDbEntity
  8
0
100
AcDbLine
 10
89.50000499999999
 20
4.000004999999873
 30
0.0
 11
89.50000499999999
 21
18.49999499999967
 31
0.0
  0
LINE
  5
3B82
330
21CC
100
AcDbEntity
  8
0
100
AcDbLine
 10
247.5010988931034
 20
-87.49999500000013
 30
0.0
 11
262.0204688931033
 21
-87.49999500000013
 31
0.0
  0
LINE
  5
3B83
330
21CC
100
AcDbEntity
  8
0
100
AcDbLine
 10
241.7607638931034
 20
-83.74230000000034
 30
0.0
 11
241.7607638931034
 21
83.74228499999981
 31
0.0
  0
LINE
  5
3B84
330
21CC
100
AcDbEntity
  8
0
100
AcDbLine
 10
267.7607738931034
 20
-83.74230000000034
 30
0.0
 11
267.7607738931034
 21
83.74228499999981
 31
0.0
  0
LINE
  5
3B85
330
21CC
100
AcDbEntity
  8
0
100
AcDbLine
 10
241.8210938931034
 20
-77.66568000000006
 30
0.0
 11
244.6820438931034
 21
-85.52605500000026
 31
0.0
  0
LINE
  5
3B86
330
21CC
100
AcDbEntity
  8
0
100
AcDbLine
 10
267.7004738931033
 20
-77.66569500000014
 30
0.0
 11
264.8395238931035
 21
-85.52608500000042
 31
0.0
  0
LINE
  5
3B87
330
21CC
100
AcDbEntity
  8
0
100
AcDbLine
 10
248.5607738931033
 20
-15.51328499999999
 30
0.0
 11
248.5607738931033
 21
-4.999995000000126
 31
0.0
  0
LINE
  5
3B88
330
21CC
100
AcDbEntity
  8
0
100
AcDbLine
 10
248.5607738931033
 20
4.999994999999671
 30
0.0
 11
248.5607738931033
 21
17.50000499999987
 31
0.0
  0
LINE
  5
3B89
330
21CC
100
AcDbEntity
  8
0
100
AcDbLine
 10
260.9607938931034
 20
4.999994999999671
 30
0.0
 11
260.9607938931034
 21
17.50000499999987
 31
0.0
  0
LINE
  5
3B8A
330
21CC
100
AcDbEntity
  8
0
100
AcDbLine
 10
260.9607938931034
 20
-15.51331500000014
 30
0.0
 11
260.9607938931034
 21
-4.999995000000126
 31
0.0
  0
LINE
  5
3B8B
330
21CC
100
AcDbEntity
  8
0
100
AcDbLine
 10
245.4004838931035
 20
-82.5130650000001
 30
0.0
 11
245.4004838931035
 21
-18.49999500000012
 31
0.0
  0
LINE
  5
3B8C
330
21CC
100
AcDbEntity
  8
0
100
AcDbLine
 10
264.1210688931033
 20
-83.17848000000003
 30
0.0
 11
264.1210688931033
 21
-18.49999500000012
 31
0.0
  0
LINE
  5
3B8D
330
21CC
100
AcDbEntity
  8
0
100
AcDbLine
 10
240.7607738931034
 20
-82.94229000000042
 30
0.0
 11
241.7607638931034
 21
-82.94229000000042
 31
0.0
  0
LINE
  5
3B8E
330
21CC
100
AcDbEntity
  8
0
100
AcDbLine
 10
240.7607738931034
 20
-72.94228500000008
 30
0.0
 11
241.7607638931034
 21
-72.94228500000008
 31
0.0
  0
LINE
  5
3B8F
330
21CC
100
AcDbEntity
  8
0
100
AcDbLine
 10
244.7607638931034
 20
-86.74230000000035
 30
0.0
 11
245.5080638931034
 21
-86.74230000000035
 31
0.0
  0
LINE
  5
3B90
330
21CC
100
AcDbEntity
  8
0
100
AcDbLine
 10
264.0134738931034
 20
-86.74230000000035
 30
0.0
 11
264.7607738931034
 21
-86.74230000000035
 31
0.0
  0
LINE
  5
3B91
330
21CC
100
AcDbEntity
  8
0
100
AcDbLine
 10
240.7607738931034
 20
72.94228499999963
 30
0.0
 11
241.7607638931034
 21
72.94228499999963
 31
0.0
  0
LINE
  5
3B92
330
21CC
100
AcDbEntity
  8
0
100
AcDbLine
 10
264.1210688931033
 20
83.07994499999995
 30
0.0
 11
264.1210688931033
 21
18.49999499999967
 31
0.0
  0
LINE
  5
3B93
330
21CC
100
AcDbEntity
  8
0
100
AcDbLine
 10
245.4004838931035
 20
83.42732999999999
 30
0.0
 11
245.4004838931035
 21
18.49999499999967
 31
0.0
  0
LINE
  5
3B94
330
21CC
100
AcDbEntity
  8
0
100
AcDbLine
 10
264.0134738931034
 20
86.74228499999982
 30
0.0
 11
264.7607738931034
 21
86.74228499999982
 31
0.0
  0
LINE
  5
3B95
330
21CC
100
AcDbEntity
  8
0
100
AcDbLine
 10
244.7607638931034
 20
86.74228499999982
 30
0.0
 11
245.5080638931034
 21
86.74228499999982
 31
0.0
  0
LINE
  5
3B96
330
21CC
100
AcDbEntity
  8
0
100
AcDbLine
 10
247.5010988931034
 20
87.50000999999974
 30
0.0
 11
262.0204688931033
 21
87.50000999999974
 31
0.0
  0
LINE
  5
3B97
330
21CC
100
AcDbEntity
  8
0
100
AcDbLine
 10
241.8210938931034
 20
77.66569499999969
 30
0.0
 11
244.6820288931033
 21
85.52606999999989
 31
0.0
  0
LINE
  5
3B98
330
21CC
100
AcDbEntity
  8
0
100
AcDbLine
 10
267.7004738931033
 20
77.66569499999969
 30
0.0
 11
264.8395388931033
 21
85.52605499999982
 31
0.0
  0
LINE
  5
3B99
330
21CC
100
AcDbEntity
  8
0
100
AcDbLine
 10
240.7607738931034
 20
82.94227499999989
 30
0.0
 11
241.7607638931034
 21
82.94227499999989
 31
0.0
  0
LINE
  5
3B9A
330
21CC
100
AcDbEntity
  8
0
100
AcDbLine
 10
259.7607638931034
 20
14.74999499999967
 30
0.0
 11
260.9607938931034
 21
14.74999499999967
 31
0.0
  0
LINE
  5
3B9B
330
21CC
100
AcDbEntity
  8
0
100
AcDbLine
 10
259.7607638931034
 20
7.750004999999873
 30
0.0
 11
260.9607938931034
 21
7.750004999999873
 31
0.0
  0
LINE
  5
3B9C
330
21CC
100
AcDbEntity
  8
0
100
AcDbLine
 10
87.90904499999976
 20
-18.49999500000012
 30
0.0
 11
105.9999949999997
 21
-18.49999500000012
 31
0.0
  0
LINE
  5
3B9D
330
21CC
100
AcDbEntity
  8
0
100
AcDbLine
 10
72.19576499999982
 20
10.80613499999981
 30
0.0
 11
85.52192999999977
 21
18.49999499999967
 31
0.0
  0
LINE
  5
3B9E
330
21CC
100
AcDbEntity
  8
0
100
AcDbLine
 10
-35.99773500000026
 20
64.88164499999993
 30
0.0
 11
-36.8810850000001
 21
65.293545
 31
0.0
  0
LINE
  5
3B9F
330
21CC
100
AcDbEntity
  8
0
100
AcDbLine
 10
-55.68525000000011
 20
68.10221999999976
 30
0.0
 11
-50.44416000000012
 21
79.34177999999974
 31
0.0
  0
LINE
  5
3BA0
330
21CC
100
AcDbEntity
  8
0
100
AcDbLine
 10
-38.19028500000001
 20
63.61576500000001
 30
0.0
 11
-37.12663500000019
 21
75.77335499999981
 31
0.0
  0
LINE
  5
3BA1
330
21CC
100
AcDbEntity
  8
0
100
AcDbLine
 10
-31.13562000000013
 20
82.27594499999986
 30
0.0
 11
-43.48993500000017
 21
83.35679999999957
 31
0.0
  0
LINE
  5
3BA2
330
21CC
100
AcDbEntity
  8
0
100
AcDbLine
 10
-37.45465500000011
 20
66.28702499999963
 30
0.0
 11
-36.28812000000005
 21
79.62047999999959
 31
0.0
  0
LINE
  5
3BA3
330
21CC
100
AcDbEntity
  8
0
100
AcDbLine
 10
-47.50389000000007
 20
63.07786499999974
 30
0.0
 11
-56.14845000000002
 21
67.10888999999998
 31
0.0
  0
LINE
  5
3BA4
330
21CC
100
AcDbEntity
  8
0
100
AcDbLine
 10
-24.80167500000004
 20
74.26424999999972
 30
0.0
 11
-36.2881500000002
 21
79.62047999999959
 31
0.0
  0
LINE
  5
3BA5
330
21CC
100
AcDbEntity
  8
0
100
AcDbLine
 10
261.2106788931033
 20
-16.17462000000023
 30
0.0
 11
262.9621838931035
 21
-18.16131000000041
 31
0.0
  0
LINE
  5
3BA6
330
21CC
100
AcDbEntity
  8
0
100
AcDbLine
 10
248.3108888931034
 20
-16.17459000000008
 30
0.0
 11
246.5593688931034
 21
-18.16131000000041
 31
0.0
  0
LINE
  5
3BA7
330
21CC
100
AcDbEntity
  8
0
100
AcDbLine
 10
93.49997999999994
 20
-43.72095000000036
 30
0.0
 11
94.49996999999996
 21
-44.72095500000023
 31
0.0
  0
LINE
  5
3BA8
330
21CC
100
AcDbEntity
  8
0
100
AcDbLine
 10
107.2499999999998
 20
-22.09095000000024
 30
0.0
 11
107.2499999999998
 21
-25.04143500000009
 31
0.0
  0
LINE
  5
3BA9
330
21CC
100
AcDbEntity
  8
0
100
AcDbLine
 10
108.5897249999999
 20
-30.04143000000022
 30
0.0
 11
111.0120899999998
 21
-34.23708000000033
 31
0.0
  0
LINE
  5
3BAA
330
21CC
100
AcDbEntity
  8
0
100
AcDbLine
 10
116.9999999999998
 20
-52.22092500000008
 30
0.0
 11
116.9999999999998
 21
-60.43648500000017
 31
0.0
  0
LINE
  5
3BAB
330
21CC
100
AcDbEntity
  8
0
100
AcDbLine
 10
79.99999499999979
 20
-52.22092500000008
 30
0.0
 11
79.99999499999979
 21
-60.43648500000017
 31
0.0
  0
LINE
  5
3BAC
330
21CC
100
AcDbEntity
  8
0
100
AcDbLine
 10
89.74999499999979
 20
-22.09095000000024
 30
0.0
 11
89.74999499999979
 21
-25.04143500000009
 31
0.0
  0
LINE
  5
3BAD
330
21CC
100
AcDbEntity
  8
0
100
AcDbLine
 10
88.41025499999989
 20
-30.04143000000022
 30
0.0
 11
85.98790499999983
 21
-34.23706500000025
 31
0.0
  0
LINE
  5
3BAE
330
21CC
100
AcDbEntity
  8
0
100
AcDbLine
 10
107.9739299999997
 20
-61.4357100000002
 30
0.0
 11
112.9739249999998
 21
-63.25555500000018
 31
0.0
  0
LINE
  5
3BAF
330
21CC
100
AcDbEntity
  8
0
100
AcDbLine
 10
89.02603499999997
 20
-61.43572500000027
 30
0.0
 11
84.02606999999978
 21
-63.25557000000026
 31
0.0
  0
LINE
  5
3BB0
330
21CC
100
AcDbEntity
  8
0
100
AcDbLine
 10
103.6695299999997
 20
-41.71840500000008
 30
0.0
 11
93.33044999999982
 21
-41.71840500000008
 31
0.0
  0
LINE
  5
3BB1
330
21CC
100
AcDbEntity
  8
0
100
AcDbLine
 10
107.3259449999999
 20
-26.27161500000011
 30
0.0
 11
106.6654049999998
 21
-38.8754100000001
 31
0.0
  0
LINE
  5
3BB2
330
21CC
100
AcDbEntity
  8
0
100
AcDbLine
 10
89.67403499999988
 20
-26.27161500000011
 30
0.0
 11
90.33457499999997
 21
-38.87544000000025
 31
0.0
  0
LINE
  5
3BB3
330
21CC
100
AcDbEntity
  8
0
100
AcDbLine
 10
106.0000049999999
 20
-44.71840500000007
 30
0.0
 11
106.0000049999999
 21
-58.61664000000018
 31
0.0
  0
LINE
  5
3BB4
330
21CC
100
AcDbEntity
  8
0
100
AcDbLine
 10
91.00000499999998
 20
-44.71840500000007
 30
0.0
 11
91.00000499999998
 21
-58.61664000000018
 31
0.0
  0
LINE
  5
3BB5
330
21CC
100
AcDbEntity
  8
0
100
AcDbLine
 10
103.4999999999998
 20
-43.72093500000028
 30
0.0
 11
103.4999999999998
 21
-41.71840500000008
 31
0.0
  0
LINE
  5
3BB6
330
21CC
100
AcDbEntity
  8
0
100
AcDbLine
 10
103.4999849999998
 20
-43.72095000000036
 30
0.0
 11
102.4999949999997
 21
-44.72095500000023
 31
0.0
  0
ARC
  5
3BB7
330
21CC
100
AcDbEntity
  8
0
100
AcDbCircle
 10
254.7607688931035
 20
11.25
 30
0.0
 40
7.5
100
AcDbArc
 50
48.18969000000906
 51
131.8103200000063
  0
ARC
  5
3BB8
330
21CC
100
AcDbEntity
  8
0
100
AcDbCircle
 10
246.8679188931033
 20
11.25
 30
0.0
 40
7.892857049999999
100
AcDbArc
 50
140.692349999994
 51
219.3076500000059
  0
ARC
  5
3BB9
330
21CC
100
AcDbEntity
  8
0
100
AcDbCircle
 10
98.500005
 20
11.25
 30
0.0
 40
7.5
100
AcDbArc
 50
75.16473923325555
 51
104.8351099999976
  0
ARC
  5
3BBA
330
21CC
100
AcDbEntity
  8
0
100
AcDbCircle
 10
106.0000049999999
 20
-4.999995000000126
 30
0.0
 40
1.000000035
100
AcDbArc
 50
0.0
 51
90.0
  0
ARC
  5
3BBB
330
21CC
100
AcDbEntity
  8
0
100
AcDbCircle
 10
106.0000049999999
 20
4.999994999999671
 30
0.0
 40
1.000000035
100
AcDbArc
 50
269.9999970000023
 51
0.0
  0
ARC
  5
3BBC
330
21CC
100
AcDbEntity
  8
0
100
AcDbCircle
 10
106.0000049999999
 20
17.50000499999987
 30
0.0
 40
1.000000035
100
AcDbArc
 50
0.0
 51
90.0
  0
ARC
  5
3BBD
330
21CC
100
AcDbEntity
  8
0
100
AcDbCircle
 10
247.5010988931034
 20
-84.49999500000012
 30
0.0
 40
3.0
100
AcDbArc
 50
199.9999999999892
 51
269.9999970000023
  0
ARC
  5
3BBE
330
21CC
100
AcDbEntity
  8
0
100
AcDbCircle
 10
262.0204688931033
 20
-84.49999500000012
 30
0.0
 40
3.0
100
AcDbArc
 50
269.9999970000023
 51
340.0000009999936
  0
ARC
  5
3BBF
330
21CC
100
AcDbEntity
  8
0
100
AcDbCircle
 10
242.7607688931035
 20
-77.32368000000042
 30
0.0
 40
1.000000035
100
AcDbArc
 50
179.9999899999989
 51
199.9999999999892
  0
ARC
  5
3BC0
330
21CC
100
AcDbEntity
  8
0
100
AcDbCircle
 10
266.7607688931035
 20
-77.32368000000042
 30
0.0
 40
1.000000035
100
AcDbArc
 50
340.0000009999936
 51
0.0
  0
ARC
  5
3BC1
330
21CC
100
AcDbEntity
  8
0
100
AcDbCircle
 10
266.7607688931035
 20
-17.50000500000032
 30
0.0
 40
1.000000035
100
AcDbArc
 50
269.9999970000023
 51
0.0
  0
ARC
  5
3BC2
330
21CC
100
AcDbEntity
  8
0
100
AcDbCircle
 10
266.7607688931035
 20
-4.999995000000126
 30
0.0
 40
1.000000035
100
AcDbArc
 50
0.0
 51
90.0
  0
ARC
  5
3BC3
330
21CC
100
AcDbEntity
  8
0
100
AcDbCircle
 10
247.5607688931034
 20
-4.999995000000126
 30
0.0
 40
1.000000035
100
AcDbArc
 50
0.0
 51
90.0
  0
ARC
  5
3BC4
330
21CC
100
AcDbEntity
  8
0
100
AcDbCircle
 10
242.7607688931035
 20
-4.999995000000126
 30
0.0
 40
1.000000035
100
AcDbArc
 50
90.0
 51
180.0000100000009
  0
ARC
  5
3BC5
330
21CC
100
AcDbEntity
  8
0
100
AcDbCircle
 10
242.7607688931035
 20
-17.50000500000032
 30
0.0
 40
1.000000035
100
AcDbArc
 50
179.9999899999989
 51
269.9999970000023
  0
ARC
  5
3BC6
330
21CC
100
AcDbEntity
  8
0
100
AcDbCircle
 10
261.9607688931033
 20
-4.999995000000126
 30
0.0
 40
1.000000035
100
AcDbArc
 50
90.0
 51
180.0000100000009
  0
ARC
  5
3BC7
330
21CC
100
AcDbEntity
  8
0
100
AcDbCircle
 10
242.7607688931035
 20
4.999994999999671
 30
0.0
 40
1.000000035
100
AcDbArc
 50
179.9999899999989
 51
269.9999970000023
  0
ARC
  5
3BC8
330
21CC
100
AcDbEntity
  8
0
100
AcDbCircle
 10
247.5607688931034
 20
4.999994999999671
 30
0.0
 40
1.000000035
100
AcDbArc
 50
269.9999970000023
 51
0.0
  0
ARC
  5
3BC9
330
21CC
100
AcDbEntity
  8
0
100
AcDbCircle
 10
261.9607688931033
 20
4.999994999999671
 30
0.0
 40
1.000000035
100
AcDbArc
 50
179.9999899999989
 51
269.9999970000023
  0
ARC
  5
3BCA
330
21CC
100
AcDbEntity
  8
0
100
AcDbCircle
 10
266.7607688931035
 20
4.999994999999671
 30
0.0
 40
1.000000035
100
AcDbArc
 50
269.9999970000023
 51
0.0
  0
ARC
  5
3BCB
330
21CC
100
AcDbEntity
  8
0
100
AcDbCircle
 10
266.7607688931035
 20
17.50000499999987
 30
0.0
 40
1.000000035
100
AcDbArc
 50
0.0
 51
90.0
  0
ARC
  5
3BCC
330
21CC
100
AcDbEntity
  8
0
100
AcDbCircle
 10
261.9607688931033
 20
17.50000499999987
 30
0.0
 40
1.000000035
100
AcDbArc
 50
90.0
 51
180.0000100000009
  0
ARC
  5
3BCD
330
21CC
100
AcDbEntity
  8
0
100
AcDbCircle
 10
247.5607688931034
 20
17.50000499999987
 30
0.0
 40
1.000000035
100
AcDbArc
 50
0.0
 51
90.0
  0
ARC
  5
3BCE
330
21CC
100
AcDbEntity
  8
0
100
AcDbCircle
 10
242.7607688931035
 20
17.50000499999987
 30
0.0
 40
1.000000035
100
AcDbArc
 50
90.0
 51
180.0000100000009
  0
ARC
  5
3BCF
330
21CC
100
AcDbEntity
  8
0
100
AcDbCircle
 10
246.8679188931033
 20
-77.94229500000028
 30
0.0
 40
7.892857049999999
100
AcDbArc
 50
140.692349999994
 51
219.3076500000059
  0
ARC
  5
3BD0
330
21CC
100
AcDbEntity
  8
0
100
AcDbCircle
 10
244.7607638931034
 20
-83.74230000000034
 30
0.0
 40
3.0
100
AcDbArc
 50
179.9999899999989
 51
269.9999970000023
  0
ARC
  5
3BD1
330
21CC
100
AcDbEntity
  8
0
100
AcDbCircle
 10
264.7607738931034
 20
-83.74230000000034
 30
0.0
 40
3.0
100
AcDbArc
 50
269.9999970000023
 51
0.0
  0
ARC
  5
3BD2
330
21CC
100
AcDbEntity
  8
0
100
AcDbCircle
 10
244.7607638931034
 20
83.74228499999981
 30
0.0
 40
3.0
100
AcDbArc
 50
90.0
 51
180.0000100000009
  0
ARC
  5
3BD3
330
21CC
100
AcDbEntity
  8
0
100
AcDbCircle
 10
264.7607738931034
 20
83.74228499999981
 30
0.0
 40
3.0
100
AcDbArc
 50
0.0
 51
90.0
  0
ARC
  5
3BD4
330
21CC
100
AcDbEntity
  8
0
100
AcDbCircle
 10
247.5010988931034
 20
84.50000999999975
 30
0.0
 40
3.0
100
AcDbArc
 50
90.0
 51
160.0000000000107
  0
ARC
  5
3BD5
330
21CC
100
AcDbEntity
  8
0
100
AcDbCircle
 10
262.0204688931033
 20
84.50000999999975
 30
0.0
 40
3.0
100
AcDbArc
 50
19.99999999998923
 51
90.0
  0
ARC
  5
3BD6
330
21CC
100
AcDbEntity
  8
0
100
AcDbCircle
 10
246.8679188931033
 20
77.94227999999975
 30
0.0
 40
7.892857049999999
100
AcDbArc
 50
140.692349999994
 51
219.3076500000059
  0
ARC
  5
3BD7
330
21CC
100
AcDbEntity
  8
0
100
AcDbCircle
 10
242.7607688931035
 20
77.32366499999989
 30
0.0
 40
1.000000035
100
AcDbArc
 50
160.0000000000107
 51
180.0000100000009
  0
ARC
  5
3BD8
330
21CC
100
AcDbEntity
  8
0
100
AcDbCircle
 10
266.7607688931035
 20
77.32366499999989
 30
0.0
 40
1.000000035
100
AcDbArc
 50
0.0
 51
19.99999999998923
  0
ARC
  5
3BD9
330
21CC
100
AcDbEntity
  8
0
100
AcDbCircle
 10
-0.0000000000001137
 20
0.0
 30
0.0
 40
77.50000199999999
100
AcDbArc
 50
12.84843000000311
 51
106.9984400000034
  0
ARC
  5
3BDA
330
21CC
100
AcDbEntity
  8
0
100
AcDbCircle
 10
87.90904499999976
 20
-21.49999500000012
 30
0.0
 40
3.0
100
AcDbArc
 50
90.0
 51
166.2568900000044
  0
ARC
  5
3BDB
330
21CC
100
AcDbEntity
  8
0
100
AcDbCircle
 10
87.90904499999976
 20
21.49999499999967
 30
0.0
 40
3.0
100
AcDbArc
 50
193.7431099999955
 51
269.9999970000023
  0
ARC
  5
3BDC
330
21CC
100
AcDbEntity
  8
0
100
AcDbCircle
 10
-0.0000000000001137
 20
0.0
 30
0.0
 40
87.49999799999999
100
AcDbArc
 50
13.74310999999556
 51
114.5017899999975
  0
ARC
  5
3BDD
330
21CC
100
AcDbEntity
  8
0
100
AcDbCircle
 10
78.48442499999976
 20
17.90101499999991
 30
0.0
 40
3.0
100
AcDbArc
 50
192.8484300000031
 51
299.9999979999987
  0
ARC
  5
3BDE
330
21CC
100
AcDbEntity
  8
0
100
AcDbCircle
 10
75.67693499999984
 20
-7.000005000000328
 30
0.0
 40
3.0
100
AcDbArc
 50
90.0
 51
174.7152699999822
  0
ARC
  5
3BDF
330
21CC
100
AcDbEntity
  8
0
100
AcDbCircle
 10
75.67693499999984
 20
7.000004999999873
 30
0.0
 40
3.0
100
AcDbArc
 50
185.2847300000177
 51
269.9999970000023
  0
ARC
  5
3BE0
330
21CC
100
AcDbEntity
  8
0
100
AcDbCircle
 10
-0.0000000000001137
 20
0.0
 30
0.0
 40
73.00000199999999
100
AcDbArc
 50
5.284730000017777
 51
117.1918648954249
  0
ARC
  5
3BE1
330
21CC
100
AcDbEntity
  8
0
100
AcDbCircle
 10
-36.45846000000017
 20
66.19987499999979
 30
0.0
 40
1.000000035
100
AcDbArc
 50
174.9999999999999
 51
244.9999999999933
  0
ARC
  5
3BE2
330
21CC
100
AcDbEntity
  8
0
100
AcDbCircle
 10
-60.21679500000016
 20
70.21529999999984
 30
0.0
 40
4.99999995
100
AcDbArc
 50
310.6164549999984
 51
334.9999999999961
  0
ARC
  5
3BE3
330
21CC
100
AcDbEntity
  8
0
100
AcDbCircle
 10
-30.69982500000003
 20
87.2569199999998
 30
0.0
 40
4.99999995
100
AcDbArc
 50
264.9999980000079
 51
289.3835420000072
  0
ARC
  5
3BE4
330
21CC
100
AcDbEntity
  8
0
100
AcDbCircle
 10
-0.0000000000001137
 20
0.0
 30
0.0
 40
88.1999985
100
AcDbArc
 50
112.6724899999981
 51
127.7883999999989
  0
ARC
  5
3BE5
330
21CC
100
AcDbEntity
  8
0
100
AcDbCircle
 10
-41.17887000000007
 20
63.8772299999996
 30
0.0
 40
3.0
100
AcDbArc
 50
302.5302778812012
 51
355.0000001000157
  0
ARC
  5
3BE6
330
21CC
100
AcDbEntity
  8
0
100
AcDbCircle
 10
-44.10000000000002
 20
76.38343499999973
 30
0.0
 40
6.999999749999999
100
AcDbArc
 50
355.0000001000157
 51
154.9998916388422
  0
ARC
  5
3BE7
330
21CC
100
AcDbEntity
  8
0
100
AcDbCircle
 10
-34.72984500000018
 20
67.60057499999994
 30
0.0
 40
3.0
100
AcDbArc
 50
244.9999999999933
 51
297.191882000002
  0
ARC
  5
3BE8
330
21CC
100
AcDbEntity
  8
0
100
AcDbCircle
 10
-47.92648500000029
 20
62.17153499999994
 30
0.0
 40
1.000000035
100
AcDbArc
 50
307.6277280000033
 51
64.99999999999338
  0
ARC
  5
3BE9
330
21CC
100
AcDbEntity
  8
0
100
AcDbCircle
 10
245.8092488931034
 20
-17.50000500000032
 30
0.0
 40
1.000000035
100
AcDbArc
 50
269.9999970000023
 51
318.6000000000059
  0
ARC
  5
3BEA
330
21CC
100
AcDbEntity
  8
0
100
AcDbCircle
 10
247.5607688931034
 20
-15.51328499999999
 30
0.0
 40
1.000000035
100
AcDbArc
 50
318.6000000000059
 51
0.0
  0
ARC
  5
3BEB
330
21CC
100
AcDbEntity
  8
0
100
AcDbCircle
 10
261.9607688931033
 20
-15.51331500000014
 30
0.0
 40
1.000000035
100
AcDbArc
 50
179.9999899999989
 51
221.3999999999941
  0
ARC
  5
3BEC
330
21CC
100
AcDbEntity
  8
0
100
AcDbCircle
 10
263.7122888931033
 20
-17.50000500000032
 30
0.0
 40
1.000000035
100
AcDbArc
 50
221.3999999999941
 51
269.9999970000023
  0
ARC
  5
3BED
330
21CC
100
AcDbEntity
  8
0
100
AcDbCircle
 10
-23.53381500000011
 20
76.98317999999972
 30
0.0
 40
3.0
100
AcDbArc
 50
244.9999999999933
 51
286.9984400000034
  0
ARC
  5
3BEE
330
21CC
100
AcDbEntity
  8
0
100
AcDbCircle
 10
98.500005
 20
-22.09095000000024
 30
0.0
 40
8.750000249999999
100
AcDbArc
 50
0.0
 51
24.94279160985027
  0
ARC
  5
3BEF
330
21CC
100
AcDbEntity
  8
0
100
AcDbCircle
 10
98.500005
 20
-22.09095000000024
 30
0.0
 40
8.750000249999999
100
AcDbArc
 50
155.7703592151425
 51
179.9999899999989
  0
ARC
  5
3BF0
330
21CC
100
AcDbEntity
  8
0
100
AcDbCircle
 10
109.9999949999997
 20
-52.22092500000008
 30
0.0
 40
30.0
100
AcDbArc
 50
143.1686100000093
 51
179.9999899999989
  0
ARC
  5
3BF1
330
21CC
100
AcDbEntity
  8
0
100
AcDbCircle
 10
86.99999999999988
 20
-52.22092500000008
 30
0.0
 40
30.0
100
AcDbArc
 50
0.0
 51
36.83140000000955
  0
ARC
  5
3BF2
330
21CC
100
AcDbEntity
  8
0
100
AcDbCircle
 10
113.9999999999998
 20
-60.43648500000017
 30
0.0
 40
3.0
100
AcDbArc
 50
249.9999999999968
 51
0.0
  0
ARC
  5
3BF3
330
21CC
100
AcDbEntity
  8
0
100
AcDbCircle
 10
82.99999499999978
 20
-60.43648500000017
 30
0.0
 40
3.0
100
AcDbArc
 50
179.9999899999989
 51
290.0000000000031
  0
ARC
  5
3BF4
330
21CC
100
AcDbEntity
  8
0
100
AcDbCircle
 10
79.75000499999999
 20
-25.04143500000009
 30
0.0
 40
9.999999749999998
100
AcDbArc
 50
330.0000030000066
 51
0.0
  0
ARC
  5
3BF5
330
21CC
100
AcDbEntity
  8
0
100
AcDbCircle
 10
117.2500049999999
 20
-25.04143500000009
 30
0.0
 40
9.999999749999998
100
AcDbArc
 50
179.9999899999989
 51
209.9999999999984
  0
ARC
  5
3BF6
330
21CC
100
AcDbEntity
  8
0
100
AcDbCircle
 10
93.33044999999982
 20
-38.71840500000007
 30
0.0
 40
3.0
100
AcDbArc
 50
183.0000100000062
 51
270.0
  0
ARC
  5
3BF7
330
21CC
100
AcDbEntity
  8
0
100
AcDbCircle
 10
103.6695299999997
 20
-38.71840500000007
 30
0.0
 40
3.0
100
AcDbArc
 50
269.9999970000023
 51
356.99999909999
  0
ARC
  5
3BF8
330
21CC
100
AcDbEntity
  8
0
100
AcDbCircle
 10
103.0000049999999
 20
-44.71840500000007
 30
0.0
 40
3.0
100
AcDbArc
 50
0.0
 51
90.0
  0
ARC
  5
3BF9
330
21CC
100
AcDbEntity
  8
0
100
AcDbCircle
 10
94.00000499999999
 20
-44.71840500000007
 30
0.0
 40
3.0
100
AcDbArc
 50
99.59407000000169
 51
179.9999899999989
  0
ARC
  5
3BFA
330
21CC
100
AcDbEntity
  8
0
100
AcDbCircle
 10
88.00000499999999
 20
-58.61664000000018
 30
0.0
 40
3.0
100
AcDbArc
 50
290.0000000000031
 51
0.0
  0
ARC
  5
3BFB
330
21CC
100
AcDbEntity
  8
0
100
AcDbCircle
 10
109.0000049999999
 20
-58.61664000000018
 30
0.0
 40
3.0
100
AcDbArc
 50
179.9999899999989
 51
249.9999999999968
  0
LINE
  5
3BFC
330
21CC
100
AcDbEntity
  8
0
100
AcDbLine
 10
248.7619704931036
 20
-15.7209300000004
 30
0.0
 11
260.7595710931035
 21
-15.7209300000004
 31
0.0
  0
LINE
  5
3BFD
330
21CC
100
AcDbEntity
  8
0
100
AcDbLine
 10
246.0107688931035
 20
-22.09093270000039
 30
0.0
 11
246.0107688931035
 21
-27.72088400000029
 31
0.0
  0
LINE
  5
3BFE
330
21CC
100
AcDbEntity
  8
0
100
AcDbLine
 10
263.5107688931035
 20
-22.09093270000039
 30
0.0
 11
263.5107688931035
 21
-27.72094500000048
 31
0.0
  0
LINE
  5
3BFF
330
21CC
100
AcDbEntity
  8
0
100
AcDbLine
 10
246.0107726931036
 20
-27.72093500000028
 30
0.0
 11
246.5895894931035
 21
-38.76541900000029
 31
0.0
  0
LINE
  5
3C00
330
21CC
100
AcDbEntity
  8
0
100
AcDbLine
 10
251.9107703931034
 20
-30.57092800000009
 30
0.0
 11
251.9107703931034
 21
-60.31400100000019
 31
0.0
  0
LINE
  5
3C01
330
21CC
100
AcDbEntity
  8
0
100
AcDbLine
 10
263.5107683931035
 20
-27.72092800000018
 30
0.0
 11
262.9319510931035
 21
-38.76541900000029
 31
0.0
  0
LINE
  5
3C02
330
21CC
100
AcDbEntity
  8
0
100
AcDbLine
 10
249.5854758931035
 20
-41.60841200000049
 30
0.0
 11
251.9107703931034
 21
-41.60841200000049
 31
0.0
  0
LINE
  5
3C03
330
21CC
100
AcDbEntity
  8
0
100
AcDbLine
 10
257.6107673931036
 20
-41.60841200000049
 30
0.0
 11
259.9360656931036
 21
-41.60841200000049
 31
0.0
  0
LINE
  5
3C04
330
21CC
100
AcDbEntity
  8
0
100
AcDbLine
 10
253.8984069831036
 20
-63.4364830000004
 30
0.0
 11
255.6231308031034
 21
-63.4364830000004
 31
0.0
  0
LINE
  5
3C05
330
21CC
100
AcDbEntity
  8
0
100
AcDbLine
 10
257.5174159931035
 20
-60.73589000000038
 30
0.0
 11
256.5297774931035
 21
-62.85837400000037
 31
0.0
  0
LINE
  5
3C06
330
21CC
100
AcDbEntity
  8
0
100
AcDbLine
 10
252.0041202931035
 20
-60.7358820000004
 30
0.0
 11
252.9917587931034
 21
-62.85836600000038
 31
0.0
  0
LINE
  5
3C07
330
21CC
100
AcDbEntity
  8
0
100
AcDbLine
 10
257.6107673931036
 20
-30.57092800000009
 30
0.0
 11
257.6107673931036
 21
-60.31400100000019
 31
0.0
  0
ARC
  5
3C08
330
21CC
100
AcDbEntity
  8
0
100
AcDbCircle
 10
254.7607688931035
 20
-22.09093270000039
 30
0.0
 40
8.75
100
AcDbArc
 50
0.0
 51
46.71898000000369
  0
ARC
  5
3C09
330
21CC
100
AcDbEntity
  8
0
100
AcDbCircle
 10
254.7607688931035
 20
-22.09093270000039
 30
0.0
 40
8.75
100
AcDbArc
 50
133.2810199999962
 51
179.9999899999989
  0
ARC
  5
3C0A
330
21CC
100
AcDbEntity
  8
0
100
AcDbCircle
 10
254.7607688931035
 20
-30.57092800000009
 30
0.0
 40
2.849999899999999
100
AcDbArc
 50
359.9999956743055
 51
180.0000100000009
  0
ARC
  5
3C0B
330
21CC
100
AcDbEntity
  8
0
100
AcDbCircle
 10
254.7607688931035
 20
-24.07093230000009
 30
0.0
 40
6.0
100
AcDbArc
 50
199.4712299999891
 51
228.1896799999936
  0
ARC
  5
3C0C
330
21CC
100
AcDbEntity
  8
0
100
AcDbCircle
 10
249.5854758931035
 20
-38.6084120000005
 30
0.0
 40
3.0
100
AcDbArc
 50
183.0000100000062
 51
269.9999970000023
  0
ARC
  5
3C0D
330
21CC
100
AcDbEntity
  8
0
100
AcDbCircle
 10
259.9360656931036
 20
-38.6084120000005
 30
0.0
 40
3.0
100
AcDbArc
 50
269.9999970000023
 51
356.99999909999
  0
ARC
  5
3C0E
330
21CC
100
AcDbEntity
  8
0
100
AcDbCircle
 10
252.9107703931034
 20
-60.31400100000019
 30
0.0
 40
1.0
100
AcDbArc
 50
179.9999899999989
 51
204.9536000000111
  0
ARC
  5
3C0F
330
21CC
100
AcDbEntity
  8
0
100
AcDbCircle
 10
253.8984069831036
 20
-62.43648300000041
 30
0.0
 40
1.0
100
AcDbArc
 50
204.9536000000111
 51
269.9999970000023
  0
ARC
  5
3C10
330
21CC
100
AcDbEntity
  8
0
100
AcDbCircle
 10
255.6231308031034
 20
-62.43648300000041
 30
0.0
 40
1.0
100
AcDbArc
 50
269.9999970000023
 51
335.0464039999974
  0
ARC
  5
3C11
330
21CC
100
AcDbEntity
  8
0
100
AcDbCircle
 10
256.6107673931036
 20
-60.31400100000019
 30
0.0
 40
1.0
100
AcDbArc
 50
335.0464039999974
 51
0.0
  0
ARC
  5
3C12
330
21CC
100
AcDbEntity
  8
0
100
AcDbCircle
 10
254.7607688931035
 20
-24.07093230000009
 30
0.0
 40
6.0
100
AcDbArc
 50
311.8103169999981
 51
340.5287779999952
  0
LINE
  5
3C13
330
21CC
100
AcDbEntity
  8
0
100
AcDbLine
 10
72.19576499999982
 20
-10.80613500000026
 30
0.0
 11
85.52192999999977
 21
-18.49999500000012
 31
0.0
  0
LINE
  5
3C14
330
21CC
100
AcDbEntity
  8
0
100
AcDbLine
 10
-35.99773500000026
 20
-64.88164499999993
 30
0.0
 11
-36.8810850000001
 21
-65.293545
 31
0.0
  0
LINE
  5
3C15
330
21CC
100
AcDbEntity
  8
0
100
AcDbLine
 10
-55.68525000000011
 20
-68.10222000000021
 30
0.0
 11
-50.44416000000012
 21
-79.3417800000002
 31
0.0
  0
LINE
  5
3C16
330
21CC
100
AcDbEntity
  8
0
100
AcDbLine
 10
-38.19028500000001
 20
-63.61576500000001
 30
0.0
 11
-37.12663500000019
 21
-75.77335500000026
 31
0.0
  0
LINE
  5
3C17
330
21CC
100
AcDbEntity
  8
0
100
AcDbLine
 10
-31.13562000000013
 20
-82.27594499999986
 30
0.0
 11
-43.48993500000017
 21
-83.35680000000001
 31
0.0
  0
LINE
  5
3C18
330
21CC
100
AcDbEntity
  8
0
100
AcDbLine
 10
-37.45465500000011
 20
-66.28702500000009
 30
0.0
 11
-36.28812000000005
 21
-79.62048000000004
 31
0.0
  0
LINE
  5
3C19
330
21CC
100
AcDbEntity
  8
0
100
AcDbLine
 10
-47.50389000000007
 20
-63.0778650000002
 30
0.0
 11
-56.14845000000002
 21
-67.10888999999998
 31
0.0
  0
LINE
  5
3C1A
330
21CC
100
AcDbEntity
  8
0
100
AcDbLine
 10
-24.80167500000004
 20
-74.26425000000017
 30
0.0
 11
-36.2881500000002
 21
-79.62048000000004
 31
0.0
  0
ARC
  5
3C1B
330
21CC
100
AcDbEntity
  8
0
100
AcDbCircle
 10
-0.0000000000001137
 20
0.0
 30
0.0
 40
77.50000199999999
100
AcDbArc
 50
253.0015599999966
 51
347.1515699999968
  0
ARC
  5
3C1C
330
21CC
100
AcDbEntity
  8
0
100
AcDbCircle
 10
-0.0000000000001137
 20
0.0
 30
0.0
 40
87.49999799999999
100
AcDbArc
 50
245.4982100000024
 51
346.2568900000044
  0
ARC
  5
3C1D
330
21CC
100
AcDbEntity
  8
0
100
AcDbCircle
 10
-0.0000000000001137
 20
0.0
 30
0.0
 40
87.49999799999999
100
AcDbArc
 50
130.5591900000004
 51
229.4408099999903
  0
ARC
  5
3C1E
330
21CC
100
AcDbEntity
  8
0
100
AcDbCircle
 10
78.48442499999976
 20
-17.90101499999991
 30
0.0
 40
3.0
100
AcDbArc
 50
60.0000020000013
 51
167.1515699999968
  0
ARC
  5
3C1F
330
21CC
100
AcDbEntity
  8
0
100
AcDbCircle
 10
-0.0000000000001137
 20
0.0
 30
0.0
 40
73.00000199999999
100
AcDbArc
 50
122.8195321108529
 51
237.180467889147
  0
ARC
  5
3C20
330
21CC
100
AcDbEntity
  8
0
100
AcDbCircle
 10
-0.0000000000001137
 20
0.0
 30
0.0
 40
73.00000199999999
100
AcDbArc
 50
242.8081351045749
 51
354.7152699999822
  0
ARC
  5
3C21
330
21CC
100
AcDbEntity
  8
0
100
AcDbCircle
 10
-0.0000000000001137
 20
0.0
 30
0.0
 40
77.50000199999999
100
AcDbArc
 50
127.6277299999958
 51
232.3722700000041
  0
ARC
  5
3C22
330
21CC
100
AcDbEntity
  8
0
100
AcDbCircle
 10
-36.45846000000017
 20
-66.19987500000025
 30
0.0
 40
1.000000035
100
AcDbArc
 50
115.0000000000066
 51
185.0
  0
ARC
  5
3C23
330
21CC
100
AcDbEntity
  8
0
100
AcDbCircle
 10
-60.21679500000016
 20
-70.2153000000003
 30
0.0
 40
4.99999995
100
AcDbArc
 50
25.00000000000378
 51
49.38354500000149
  0
ARC
  5
3C24
330
21CC
100
AcDbEntity
  8
0
100
AcDbCircle
 10
-30.69982500000003
 20
-87.25692000000027
 30
0.0
 40
4.99999995
100
AcDbArc
 50
70.6164579999928
 51
95.00000199999204
  0
ARC
  5
3C25
330
21CC
100
AcDbEntity
  8
0
100
AcDbCircle
 10
-0.0000000000001137
 20
0.0
 30
0.0
 40
88.1999985
100
AcDbArc
 50
232.211600000001
 51
247.3275100000018
  0
ARC
  5
3C26
330
21CC
100
AcDbEntity
  8
0
100
AcDbCircle
 10
-41.17887000000007
 20
-63.87723000000005
 30
0.0
 40
3.0
100
AcDbArc
 50
4.999999899984282
 51
57.46972211879882
  0
ARC
  5
3C27
330
21CC
100
AcDbEntity
  8
0
100
AcDbCircle
 10
-44.10000000000002
 20
-76.38343500000019
 30
0.0
 40
6.999999749999999
100
AcDbArc
 50
205.0001083611577
 51
4.999999899984282
  0
ARC
  5
3C28
330
21CC
100
AcDbEntity
  8
0
100
AcDbCircle
 10
-34.72984500000018
 20
-67.60057499999994
 30
0.0
 40
3.0
100
AcDbArc
 50
62.80811799999796
 51
115.0000000000066
  0
ARC
  5
3C29
330
21CC
100
AcDbEntity
  8
0
100
AcDbCircle
 10
-47.92648500000029
 20
-62.17153499999994
 30
0.0
 40
1.000000035
100
AcDbArc
 50
295.0000000000066
 51
52.37227199999665
  0
ARC
  5
3C2A
330
21CC
100
AcDbEntity
  8
0
100
AcDbCircle
 10
-23.53381500000011
 20
-76.98318000000018
 30
0.0
 40
3.0
100
AcDbArc
 50
73.00155999999657
 51
115.0000000000066
  0
CIRCLE
  5
3C2B
330
21CC
100
AcDbEntity
  8
0
100
AcDbCircle
 10
-44.10000000000002
 20
76.38343499999973
 30
0.0
 40
3.099999899999999
  0
CIRCLE
  5
3C2C
330
21CC
100
AcDbEntity
  8
0
100
AcDbCircle
 10
-44.10000000000002
 20
-76.38343500000019
 30
0.0
 40
3.099999899999999
  0
CIRCLE
  5
3C2D
330
21CC
100
AcDbEntity
  8
0
100
AcDbCircle
 10
98.500005
 20
11.25
 30
0.0
 40
4.999995000000126
  0
ENDSEC
  0
SECTION
  2
OBJECTS
  0
DICTIONARY
  5
21BA
330
0
100
AcDbDictionary
281
     1
  3
ACAD_GROUP
350
21BB
  3
ACAD_LAYOUT
350
21C7
  3
ACAD_MLINESTYLE
350
21C4
  3
ACAD_PLOTSETTINGS
350
21C6
  3
ACAD_PLOTSTYLENAME
350
21BC
  3
AcDbVariableDictionary
350
2238
  0
DICTIONARY
  5
2244
330
21B0
100
AcDbDictionary
280
     1
281
     1
  3
ACAD_LAYERSTATES
360
2245
  0
DICTIONARY
  5
21F8
330
21CC
100
AcDbDictionary
280
     1
281
     1
  3
ACAD_LAYOUTSELFREF
360
2227
  0
DICTIONARY
  5
21FA
330
21C8
100
AcDbDictionary
280
     1
281
     1
  3
ACAD_LAYOUTSELFREF
360
2226
  0
DICTIONARY
  5
21BB
102
{ACAD_REACTORS
330
21BA
102
}
330
21BA
100
AcDbDictionary
281
     1
  0
DICTIONARY
  5
21C7
102
{ACAD_REACTORS
330
21BA
102
}
330
21BA
100
AcDbDictionary
281
     1
  3
Model
350
21CF
  3
ﾚｲｱｳﾄ1
350
21CB
  0
DICTIONARY
  5
21C4
102
{ACAD_REACTORS
330
21BA
102
}
330
21BA
100
AcDbDictionary
281
     1
  3
Standard
350
21C5
  0
DICTIONARY
  5
21C6
102
{ACAD_REACTORS
330
21BA
102
}
330
21BA
100
AcDbDictionary
281
     1
  0
ACDBDICTIONARYWDFLT
  5
21BC
102
{ACAD_REACTORS
330
21BA
102
}
330
21BA
100
AcDbDictionary
281
     1
  3
Normal
350
21BD
100
AcDbDictionaryWithDefault
340
21BD
  0
DICTIONARY
  5
2238
102
{ACAD_REACTORS
330
21BA
102
}
330
21BA
100
AcDbDictionary
281
     1
  3
DIMASSOC
350
2239
  0
DICTIONARY
  5
2245
102
{ACAD_REACTORS
330
2244
102
}
330
2244
100
AcDbDictionary
281
     1
  0
XRECORD
  5
2227
102
{ACAD_REACTORS
330
21F8
102
}
330
21F8
100
AcDbXrecord
280
     1
340
21CC
  0
XRECORD
  5
2226
102
{ACAD_REACTORS
330
21FA
102
}
330
21FA
100
AcDbXrecord
280
     1
340
21C8
  0
LAYOUT
  5
21CF
102
{ACAD_REACTORS
330
21C7
102
}
330
21C7
100
AcDbPlotSettings
  1

  2
SII LP-2150 (D-SCAN C2)
  4

  6

 40
0.0
 41
0.0
 42
0.0
 43
0.0
 44
0.0
 45
0.0
 46
0.0
 47
0.0
 48
0.0
 49
0.0
140
0.0
141
0.0
142
1.0
143
1.0
 70
  1712
 72
     0
 73
     0
 74
     0
  7

 75
     0
147
1.0
148
0.0
149
0.0
100
AcDbLayout
  1
Model
 70
     1
 71
     0
 10
0.0
 20
0.0
 11
12.0
 21
9.0
 12
0.0
 22
0.0
 32
0.0
 14
0.0
 24
0.0
 34
0.0
 15
0.0
 25
0.0
 35
0.0
146
0.0
 13
0.0
 23
0.0
 33
0.0
 16
1.0
 26
0.0
 36
0.0
 17
0.0
 27
1.0
 37
0.0
 76
     0
330
21CC
  0
LAYOUT
  5
21CB
102
{ACAD_REACTORS
330
21C7
102
}
330
21C7
100
AcDbPlotSettings
  1

  2
SII LP-2150 (D-SCAN C2)
  4

  6

 40
0.0
 41
0.0
 42
0.0
 43
0.0
 44
0.0
 45
0.0
 46
0.0
 47
0.0
 48
0.0
 49
0.0
140
0.0
141
0.0
142
1.0
143
1.0
 70
   688
 72
     0
 73
     0
 74
     5
  7

 75
    16
147
1.0
148
0.0
149
0.0
100
AcDbLayout
  1
ﾚｲｱｳﾄ1
 70
     1
 71
     1
 10
0.0
 20
0.0
 11
12.0
 21
9.0
 12
0.0
 22
0.0
 32
0.0
 14
1.000000000000000E+20
 24
1.000000000000000E+20
 34
1.000000000000000E+20
 15
-1.000000000000000E+20
 25
-1.000000000000000E+20
 35
-1.000000000000000E+20
146
0.0
 13
0.0
 23
0.0
 33
0.0
 16
1.0
 26
0.0
 36
0.0
 17
0.0
 27
1.0
 37
0.0
 76
     0
330
21C8
  0
MLINESTYLE
  5
21C5
102
{ACAD_REACTORS
330
21C4
102
}
330
21C4
100
AcDbMlineStyle
  2
STANDARD
 70
     0
  3

 62
   256
 51
90.0
 52
90.0
 71
     2
 49
0.5
 62
   256
  6
BYLAYER
 49
-0.5
 62
   256
  6
BYLAYER
  0
ACDBPLACEHOLDER
  5
21BD
102
{ACAD_REACTORS
330
21BC
102
}
330
21BC
  0
DICTIONARYVAR
  5
2239
102
{ACAD_REACTORS
330
2238
102
}
330
2238
100
DictionaryVariables
280
     0
  1
1
  0
ENDSEC
  0
EOF
