  0
SECTION
  2
HEADER
  9
$ACADVER
  1
AC1015
  9
$ACADMAINTVER
 70
    14
  9
$DWGCODEPAGE
  3
ANSI_932
  9
$INSBASE
 10
0.0
 20
0.0
 30
0.0
  9
$EXTMIN
 10
-88.68569379995529
 20
-90.26025580348107
 30
-0.0000000349181948
  9
$EXTMAX
 10
788.3650043893753
 20
198.0106196034018
 30
0.0000000814935746
  9
$LIMMIN
 10
0.0
 20
0.0
  9
$LIMMAX
 10
12.0
 20
9.0
  9
$ORTHOMODE
 70
     0
  9
$REGENMODE
 70
     1
  9
$FILLMODE
 70
     1
  9
$QTEXTMODE
 70
     0
  9
$MIRRTEXT
 70
     1
  9
$LTSCALE
 40
1.0
  9
$ATTMODE
 70
     1
  9
$TEXTSIZE
 40
0.2
  9
$TRACEWID
 40
0.05
  9
$TEXTSTYLE
  7
STANDARD
  9
$CLAYER
  8
0
  9
$CELTYPE
  6
CONTINUOUS
  9
$CECOLOR
 62
   256
  9
$CELTSCALE
 40
1.0
  9
$DISPSILH
 70
     0
  9
$DIMSCALE
 40
1.0
  9
$DIMASZ
 40
1.0
  9
$DIMEXO
 40
2.54
  9
$DIMDLI
 40
0.38
  9
$DIMRND
 40
0.0
  9
$DIMDLE
 40
0.0
  9
$DIMEXE
 40
2.54
  9
$DIMTP
 40
0.0
  9
$DIMTM
 40
0.0
  9
$DIMTXT
 40
3.2
  9
$DIMCEN
 40
0.09
  9
$DIMTSZ
 40
0.0
  9
$DIMTOL
 70
     0
  9
$DIMLIM
 70
     0
  9
$DIMTIH
 70
     0
  9
$DIMTOH
 70
     0
  9
$DIMSE1
 70
     0
  9
$DIMSE2
 70
     0
  9
$DIMTAD
 70
     1
  9
$DIMZIN
 70
     0
  9
$DIMBLK
  1

  9
$DIMASO
 70
     1
  9
$DIMSHO
 70
     0
  9
$DIMPOST
  1

  9
$DIMAPOST
  1

  9
$DIMALT
 70
     0
  9
$DIMALTD
 70
     2
  9
$DIMALTF
 40
25.4
  9
$DIMLFAC
 40
1.0
  9
$DIMTOFL
 70
     0
  9
$DIMTVP
 40
1.0
  9
$DIMTIX
 70
     0
  9
$DIMSOXD
 70
     0
  9
$DIMSAH
 70
     1
  9
$DIMBLK1
  1

  9
$DIMBLK2
  1

  9
$DIMSTYLE
  2
STANDARD
  9
$DIMCLRD
 70
     0
  9
$DIMCLRE
 70
     0
  9
$DIMCLRT
 70
     0
  9
$DIMTFAC
 40
1.0
  9
$DIMGAP
 40
1.6
  9
$DIMJUST
 70
     0
  9
$DIMSD1
 70
     0
  9
$DIMSD2
 70
     0
  9
$DIMTOLJ
 70
     1
  9
$DIMTZIN
 70
     0
  9
$DIMALTZ
 70
     0
  9
$DIMALTTZ
 70
     0
  9
$DIMUPT
 70
     0
  9
$DIMDEC
 70
     4
  9
$DIMTDEC
 70
     4
  9
$DIMALTU
 70
     2
  9
$DIMALTTD
 70
     2
  9
$DIMTXSTY
  7
STANDARD
  9
$DIMAUNIT
 70
     0
  9
$DIMADEC
 70
     0
  9
$DIMALTRND
 40
0.0
  9
$DIMAZIN
 70
     0
  9
$DIMDSEP
 70
    46
  9
$DIMATFIT
 70
     3
  9
$DIMFRAC
 70
     0
  9
$DIMLDRBLK
  1

  9
$DIMLUNIT
 70
     2
  9
$DIMLWD
 70
    -2
  9
$DIMLWE
 70
    -2
  9
$DIMTMOVE
 70
     0
  9
$LUNITS
 70
     2
  9
$LUPREC
 70
     4
  9
$SKETCHINC
 40
0.1
  9
$FILLETRAD
 40
0.0
  9
$AUNITS
 70
     0
  9
$AUPREC
 70
     0
  9
$MENU
  1
.
  9
$ELEVATION
 40
0.0
  9
$PELEVATION
 40
0.0
  9
$THICKNESS
 40
0.0
  9
$LIMCHECK
 70
     0
  9
$CHAMFERA
 40
0.0
  9
$CHAMFERB
 40
0.0
  9
$CHAMFERC
 40
0.0
  9
$CHAMFERD
 40
0.0
  9
$SKPOLY
 70
     0
  9
$TDCREATE
 40
2452488.423138738
  9
$TDUCREATE
 40
2452488.048138738
  9
$TDUPDATE
 40
2456906.720927002
  9
$TDUUPDATE
 40
2456906.345927002
  9
$TDINDWG
 40
0.2845380903
  9
$TDUSRTIMER
 40
0.2845379051
  9
$USRTIMER
 70
     1
  9
$ANGBASE
 50
0.0
  9
$ANGDIR
 70
     0
  9
$PDMODE
 70
     3
  9
$PDSIZE
 40
0.0
  9
$PLINEWID
 40
0.0
  9
$SPLFRAME
 70
     0
  9
$SPLINETYPE
 70
     6
  9
$SPLINESEGS
 70
     8
  9
$HANDSEED
  5
3E6A
  9
$SURFTAB1
 70
     6
  9
$SURFTAB2
 70
     6
  9
$SURFTYPE
 70
     6
  9
$SURFU
 70
     6
  9
$SURFV
 70
     6
  9
$UCSBASE
  2

  9
$UCSNAME
  2

  9
$UCSORG
 10
0.0
 20
0.0
 30
0.0
  9
$UCSXDIR
 10
1.0
 20
0.0
 30
0.0
  9
$UCSYDIR
 10
0.0
 20
1.0
 30
0.0
  9
$UCSORTHOREF
  2

  9
$UCSORTHOVIEW
 70
     0
  9
$UCSORGTOP
 10
0.0
 20
0.0
 30
0.0
  9
$UCSORGBOTTOM
 10
0.0
 20
0.0
 30
0.0
  9
$UCSORGLEFT
 10
0.0
 20
0.0
 30
0.0
  9
$UCSORGRIGHT
 10
0.0
 20
0.0
 30
0.0
  9
$UCSORGFRONT
 10
0.0
 20
0.0
 30
0.0
  9
$UCSORGBACK
 10
0.0
 20
0.0
 30
0.0
  9
$PUCSBASE
  2

  9
$PUCSNAME
  2

  9
$PUCSORG
 10
0.0
 20
0.0
 30
0.0
  9
$PUCSXDIR
 10
1.0
 20
0.0
 30
0.0
  9
$PUCSYDIR
 10
0.0
 20
1.0
 30
0.0
  9
$PUCSORTHOREF
  2

  9
$PUCSORTHOVIEW
 70
     0
  9
$PUCSORGTOP
 10
0.0
 20
0.0
 30
0.0
  9
$PUCSORGBOTTOM
 10
0.0
 20
0.0
 30
0.0
  9
$PUCSORGLEFT
 10
0.0
 20
0.0
 30
0.0
  9
$PUCSORGRIGHT
 10
0.0
 20
0.0
 30
0.0
  9
$PUCSORGFRONT
 10
0.0
 20
0.0
 30
0.0
  9
$PUCSORGBACK
 10
0.0
 20
0.0
 30
0.0
  9
$USERI1
 70
     0
  9
$USERI2
 70
     0
  9
$USERI3
 70
     0
  9
$USERI4
 70
     0
  9
$USERI5
 70
     0
  9
$USERR1
 40
0.0
  9
$USERR2
 40
0.0
  9
$USERR3
 40
0.0
  9
$USERR4
 40
0.0
  9
$USERR5
 40
0.0
  9
$WORLDVIEW
 70
     1
  9
$SHADEDGE
 70
     3
  9
$SHADEDIF
 70
    70
  9
$TILEMODE
 70
     1
  9
$MAXACTVP
 70
    48
  9
$PINSBASE
 10
0.0
 20
0.0
 30
0.0
  9
$PLIMCHECK
 70
     0
  9
$PEXTMIN
 10
1.000000000000000E+20
 20
1.000000000000000E+20
 30
1.000000000000000E+20
  9
$PEXTMAX
 10
-1.000000000000000E+20
 20
-1.000000000000000E+20
 30
-1.000000000000000E+20
  9
$PLIMMIN
 10
0.0
 20
0.0
  9
$PLIMMAX
 10
12.0
 20
9.0
  9
$UNITMODE
 70
     0
  9
$VISRETAIN
 70
     1
  9
$PLINEGEN
 70
     0
  9
$PSLTSCALE
 70
     1
  9
$TREEDEPTH
 70
  3020
  9
$CMLSTYLE
  2
Standard
  9
$CMLJUST
 70
     0
  9
$CMLSCALE
 40
1.0
  9
$PROXYGRAPHICS
 70
     1
  9
$MEASUREMENT
 70
     0
  9
$CELWEIGHT
370
    -1
  9
$ENDCAPS
280
     0
  9
$JOINSTYLE
280
     0
  9
$LWDISPLAY
290
     0
  9
$INSUNITS
 70
     0
  9
$HYPERLINKBASE
  1

  9
$STYLESHEET
  1

  9
$XEDIT
290
     1
  9
$CEPSNTYPE
380
     0
  9
$PSTYLEMODE
290
     1
  9
$FINGERPRINTGUID
  2
{FFE95C04-33D2-4560-80D0-1E2918E4EC86}
  9
$VERSIONGUID
  2
{05DAFBC7-BE3D-4C04-8BF5-3C769D3D6F58}
  9
$EXTNAMES
290
     1
  9
$PSVPSCALE
 40
0.0
  9
$OLESTARTUP
290
     0
  0
ENDSEC
  0
SECTION
  2
CLASSES
  0
CLASS
  1
ACDBDICTIONARYWDFLT
  2
AcDbDictionaryWithDefault
  3
AutoCAD 2000
 90
        0
280
     0
281
     0
  0
CLASS
  1
ACDBPLACEHOLDER
  2
AcDbPlaceHolder
  3
AutoCAD 2000
 90
        0
280
     0
281
     0
  0
CLASS
  1
LAYOUT
  2
AcDbLayout
  3
AutoCAD 2000
 90
        0
280
     0
281
     0
  0
CLASS
  1
DICTIONARYVAR
  2
AcDbDictionaryVar
  3
AutoCAD 2000
 90
        0
280
     0
281
     0
  0
CLASS
  1
LONG_TRANSACTION
  2
AcDbLongTransaction
  3
AutoCAD 2000
 90
    32768
280
     0
281
     0
  0
CLASS
  1
LWPOLYLINE
  2
AcDbPolyline
  3
AutoCAD 2000
 90
    32768
280
     0
281
     1
  0
CLASS
  1
HATCH
  2
AcDbHatch
  3
AutoCAD 2000
 90
    32768
280
     0
281
     1
  0
CLASS
  1
XRECORD
  2
AcDbXrecord
  3
AutoCAD 2000
 90
    32768
280
     0
281
     0
  0
ENDSEC
  0
SECTION
  2
TABLES
  0
TABLE
  2
VPORT
  5
21B6
330
0
100
AcDbSymbolTable
 70
     2
  0
VPORT
  5
3E69
330
21B6
100
AcDbSymbolTableRecord
100
AcDbViewportTableRecord
  2
*Active
 70
     0
 10
0.0
 20
0.0
 11
1.0
 21
1.0
 12
349.83965529471
 22
53.87518189996041
 13
0.0
 23
0.0
 14
1.0
 24
1.0
 15
0.0
 25
0.0
 16
0.0
 26
0.0
 36
1.0
 17
0.0
 27
0.0
 37
0.0
 40
450.4484505596605
 41
1.953389830508474
 42
50.0
 43
0.0
 44
0.0
 50
0.0
 51
0.0
 71
     0
 72
   100
 73
     1
 74
     3
 75
     0
 76
     0
 77
     0
 78
     0
281
     0
 65
     1
110
0.0
120
0.0
130
0.0
111
1.0
121
0.0
131
0.0
112
0.0
122
1.0
132
0.0
 79
     0
146
0.0
  0
ENDTAB
  0
TABLE
  2
LTYPE
  5
21B3
330
0
100
AcDbSymbolTable
 70
     2
  0
LTYPE
  5
21C1
330
21B3
100
AcDbSymbolTableRecord
100
AcDbLinetypeTableRecord
  2
ByBlock
 70
     0
  3

 72
    65
 73
     0
 40
0.0
  0
LTYPE
  5
21C2
330
21B3
100
AcDbSymbolTableRecord
100
AcDbLinetypeTableRecord
  2
ByLayer
 70
     0
  3

 72
    65
 73
     0
 40
0.0
  0
LTYPE
  5
21C3
330
21B3
100
AcDbSymbolTableRecord
100
AcDbLinetypeTableRecord
  2
CONTINUOUS
 70
     0
  3
Solid line
 72
    65
 73
     0
 40
0.0
  0
LTYPE
  5
21D1
330
21B3
100
AcDbSymbolTableRecord
100
AcDbLinetypeTableRecord
  2
CENTER
 70
     0
  3
__ . __
 72
    65
 73
     4
 40
7.0
 49
4.0
 74
     0
 49
-1.0
 74
     0
 49
1.0
 74
     0
 49
-1.0
 74
     0
  0
ENDTAB
  0
TABLE
  2
LAYER
  5
21B0
102
{ACAD_XDICTIONARY
360
2244
102
}
330
0
100
AcDbSymbolTable
 70
     1
  0
LAYER
  5
21BE
330
21B0
100
AcDbSymbolTableRecord
100
AcDbLayerTableRecord
  2
0
 70
     0
 62
     7
  6
CONTINUOUS
370
    -3
390
21BD
  0
ENDTAB
  0
TABLE
  2
STYLE
  5
21B1
330
0
100
AcDbSymbolTable
 70
     1
  0
STYLE
  5
21BF
330
21B1
100
AcDbSymbolTableRecord
100
AcDbTextStyleTableRecord
  2
STANDARD
 70
     0
 40
0.0
 41
1.0
 50
0.0
 71
     0
 42
0.2
  3
txt
  4
BIGFONT
  0
ENDTAB
  0
TABLE
  2
VIEW
  5
21B4
330
0
100
AcDbSymbolTable
 70
     1
  0
VIEW
  5
21DE
330
21B4
100
AcDbSymbolTableRecord
100
AcDbViewTableRecord
  2
OLE1
 70
     0
 40
3692.141019219747
 10
1914.591370701856
 20
1272.206200738182
 41
4595.022665841169
 11
0.0
 21
0.0
 31
1.0
 12
0.0
 22
0.0
 32
0.0
 42
50.0
 43
0.0
 44
0.0
 50
0.0
 71
     0
281
     0
 72
     1
110
0.0
120
0.0
130
0.0
111
1.0
121
0.0
131
0.0
112
0.0
122
1.0
132
0.0
 79
     0
146
0.0
  0
ENDTAB
  0
TABLE
  2
UCS
  5
21B5
330
0
100
AcDbSymbolTable
 70
     0
  0
ENDTAB
  0
TABLE
  2
APPID
  5
21B7
330
0
100
AcDbSymbolTable
 70
     8
  0
APPID
  5
21C0
330
21B7
100
AcDbSymbolTableRecord
100
AcDbRegAppTableRecord
  2
ACAD
 70
     0
  0
APPID
  5
21DF
330
21B7
100
AcDbSymbolTableRecord
100
AcDbRegAppTableRecord
  2
MCAD_NO_VIS
 70
     0
  0
APPID
  5
21E0
330
21B7
100
AcDbSymbolTableRecord
100
AcDbRegAppTableRecord
  2
ACAD_TEMP_GRAPHIC
 70
     0
  0
APPID
  5
21E1
330
21B7
100
AcDbSymbolTableRecord
100
AcDbRegAppTableRecord
  2
ACATTRIBSERVICES
 70
     0
  0
APPID
  5
21E2
330
21B7
100
AcDbSymbolTableRecord
100
AcDbRegAppTableRecord
  2
CONTENTBLOCKICON
 70
     0
  0
APPID
  5
2241
330
21B7
100
AcDbSymbolTableRecord
100
AcDbRegAppTableRecord
  2
ACAD_DSTYLE_DIMJAG
 70
     0
  0
APPID
  5
2242
330
21B7
100
AcDbSymbolTableRecord
100
AcDbRegAppTableRecord
  2
ACAD_DSTYLE_DIMTALN
 70
     0
  0
APPID
  5
2243
330
21B7
100
AcDbSymbolTableRecord
100
AcDbRegAppTableRecord
  2
ACAD_PSEXT
 70
     0
  0
ENDTAB
  0
TABLE
  2
DIMSTYLE
  5
21B8
330
0
100
AcDbSymbolTable
 70
     1
100
AcDbDimStyleTable
 71
     0
  0
DIMSTYLE
105
21E3
330
21B8
100
AcDbSymbolTableRecord
100
AcDbDimStyleTableRecord
  2
STANDARD
 70
     0
279
     2
340
21BF
  0
ENDTAB
  0
TABLE
  2
BLOCK_RECORD
  5
21AF
330
0
100
AcDbSymbolTable
 70
     0
  0
BLOCK_RECORD
  5
21CC
102
{ACAD_XDICTIONARY
360
21F8
102
}
330
21AF
100
AcDbSymbolTableRecord
100
AcDbBlockTableRecord
  2
*Model_Space
340
21CF
  0
BLOCK_RECORD
  5
21C8
102
{ACAD_XDICTIONARY
360
21FA
102
}
330
21AF
100
AcDbSymbolTableRecord
100
AcDbBlockTableRecord
  2
*Paper_Space
340
21CB
  0
ENDTAB
  0
ENDSEC
  0
SECTION
  2
BLOCKS
  0
BLOCK
  5
21CD
330
21CC
100
AcDbEntity
  8
0
100
AcDbBlockBegin
  2
*Model_Space
 70
     0
 10
0.0
 20
0.0
 30
0.0
  3
*Model_Space
  1

  0
ENDBLK
  5
21CE
330
21CC
100
AcDbEntity
  8
0
100
AcDbBlockEnd
  0
BLOCK
  5
21C9
330
21C8
100
AcDbEntity
 67
     1
  8
0
100
AcDbBlockBegin
  2
*Paper_Space
 70
     0
 10
0.0
 20
0.0
 30
0.0
  3
*Paper_Space
  1

  0
ENDBLK
  5
21CA
330
21C8
100
AcDbEntity
 67
     1
  8
0
100
AcDbBlockEnd
  0
ENDSEC
  0
SECTION
  2
ENTITIES
  0
TEXT
  5
F6E
330
21CC
100
AcDbEntity
  8
0
  6
Continuous
100
AcDbText
 10
0.0
 20
150.0
 30
0.0
 40
48.000002
  1
STS 3S
 41
1.32095
100
AcDbText
  0
LINE
  5
3977
330
21CC
100
AcDbEntity
  8
0
100
AcDbLine
 10
183.8641930061996
 20
-44.97360000000026
 30
0.0
 11
185.8688202733831
 21
-39.46597498285246
 31
0.0
  0
LINE
  5
3978
330
21CC
100
AcDbEntity
  8
0
100
AcDbLine
 10
180.8226330061995
 20
-45.49999999999999
 30
0.0
 11
183.1124330061996
 21
-45.49999999999999
 31
0.0
  0
ARC
  5
3979
330
21CC
100
AcDbEntity
  8
0
100
AcDbCircle
 10
183.1124330061996
 20
-44.70002000000022
 30
0.0
 40
0.80000002
100
AcDbArc
 50
270.0
 51
340.0000900000038
  0
LINE
  5
397A
330
21CC
100
AcDbEntity
  8
0
100
AcDbLine
 10
775.7764199321441
 20
-39.46595902885474
 30
0.0
 11
777.7810528226805
 21
-44.97363638845809
 31
0.0
  0
LINE
  5
397B
330
21CC
100
AcDbEntity
  8
0
100
AcDbLine
 10
775.2974494733457
 20
37.49691893565727
 30
0.0
 11
775.2974494733457
 21
-37.4969189356575
 31
0.0
  0
LINE
  5
397C
330
21CC
100
AcDbEntity
  8
0
100
AcDbLine
 10
778.5328068196554
 20
-45.50001999999994
 30
0.0
 11
780.8226410061993
 21
-45.50001999999994
 31
0.0
  0
LINE
  5
397D
330
21CC
100
AcDbEntity
  8
0
100
AcDbLine
 10
759.8473530061997
 20
-38.15000000000009
 30
0.0
 11
773.8970349397073
 21
-38.15000000000009
 31
0.0
  0
LINE
  5
397E
330
21CC
100
AcDbEntity
  8
0
100
AcDbLine
 10
228.5726180062003
 20
-57.14998000000014
 30
0.0
 11
732.5804530061991
 21
-57.14998000000014
 31
0.0
  0
LINE
  5
397F
330
21CC
100
AcDbEntity
  8
0
100
AcDbLine
 10
755.8226330061993
 20
37.65125241768783
 30
0.0
 11
755.8226330061993
 21
-37.65125241768783
 31
0.0
  0
LINE
  5
3980
330
21CC
100
AcDbEntity
  8
0
100
AcDbLine
 10
739.6515530061992
 20
-54.22108000000026
 30
0.0
 11
752.793733006199
 21
-41.07889999999997
 31
0.0
  0
LINE
  5
3981
330
21CC
100
AcDbEntity
  8
0
100
AcDbLine
 10
736.7226730061989
 20
54.85741235271007
 30
0.0
 11
736.7226730061989
 21
-54.85741235271007
 31
0.0
  0
ARC
  5
3982
330
21CC
100
AcDbEntity
  8
0
100
AcDbCircle
 10
732.5804530061991
 20
-47.14998000000014
 30
0.0
 40
10.0
100
AcDbArc
 50
270.0
 51
314.9999399999955
  0
ARC
  5
3983
330
21CC
100
AcDbEntity
  8
0
100
AcDbCircle
 10
759.8648130061997
 20
-48.14998000000014
 30
0.0
 40
10.0
100
AcDbArc
 50
90.0
 51
135.000060000009
  0
LINE
  5
3984
330
21CC
100
AcDbEntity
  8
0
100
AcDbLine
 10
187.7482037931879
 20
-38.15002000000004
 30
0.0
 11
209.0726180062006
 21
-38.15002000000004
 31
0.0
  0
LINE
  5
3985
330
21CC
100
AcDbEntity
  8
0
100
AcDbLine
 10
180.8226330061995
 20
45.49999999999999
 30
0.0
 11
180.8226330061995
 21
-45.49999999999999
 31
0.0
  0
LINE
  5
3986
330
21CC
100
AcDbEntity
  8
0
100
AcDbLine
 10
183.6726330061994
 20
43.16087530811228
 30
0.0
 11
183.6726330061994
 21
-43.16087530811228
 31
0.0
  0
LINE
  5
3987
330
21CC
100
AcDbEntity
  8
0
100
AcDbLine
 10
186.3477924678948
 20
37.72538326767471
 30
0.0
 11
186.3477924678948
 21
-37.72538326767471
 31
0.0
  0
ARC
  5
3988
330
21CC
100
AcDbEntity
  8
0
100
AcDbCircle
 10
187.7482037931879
 20
-40.15002000000004
 30
0.0
 40
2.0
100
AcDbArc
 50
90.0
 51
159.9998557839088
  0
LINE
  5
3989
330
21CC
100
AcDbEntity
  8
0
100
AcDbLine
 10
780.8226410061993
 20
45.50001999999994
 30
0.0
 11
780.8226410061993
 21
-45.50001999999994
 31
0.0
  0
LINE
  5
398A
330
21CC
100
AcDbEntity
  8
0
100
AcDbLine
 10
777.9726410061998
 20
42.57621852557758
 30
0.0
 11
777.9726410061998
 21
-42.57621852557758
 31
0.0
  0
ARC
  5
398B
330
21CC
100
AcDbEntity
  8
0
100
AcDbCircle
 10
773.8970349397073
 20
-40.15000000000009
 30
0.0
 40
2.0
100
AcDbArc
 50
20.00002086779148
 51
90.0
  0
ARC
  5
398C
330
21CC
100
AcDbEntity
  8
0
100
AcDbCircle
 10
778.5328068196554
 20
-44.70002000000022
 30
0.0
 40
0.8
100
AcDbArc
 50
200.0000208677914
 51
270.0
  0
LINE
  5
398D
330
21CC
100
AcDbEntity
  8
0
  6
CENTER
100
AcDbLine
 10
170.8226330061995
 20
0.0
 30
0.0
 11
788.3479090061996
 21
0.0
 31
0.0
  0
LINE
  5
39DC
330
21CC
100
AcDbEntity
  8
0
100
AcDbLine
 10
183.8641930061996
 20
44.97360000000026
 30
0.0
 11
185.8688202733831
 21
39.46597498285246
 31
0.0
  0
LINE
  5
39DD
330
21CC
100
AcDbEntity
  8
0
100
AcDbLine
 10
180.8226330061995
 20
45.49999999999999
 30
0.0
 11
183.1124330061996
 21
45.49999999999999
 31
0.0
  0
ARC
  5
39DE
330
21CC
100
AcDbEntity
  8
0
100
AcDbCircle
 10
183.1124330061996
 20
44.70002000000022
 30
0.0
 40
0.80000002
100
AcDbArc
 50
19.99990999999616
 51
90.0
  0
LINE
  5
39DF
330
21CC
100
AcDbEntity
  8
0
100
AcDbLine
 10
775.7764199321441
 20
39.46595902885474
 30
0.0
 11
777.7810528226805
 21
44.97363638845809
 31
0.0
  0
LINE
  5
39E0
330
21CC
100
AcDbEntity
  8
0
100
AcDbLine
 10
778.5328068196554
 20
45.50001999999994
 30
0.0
 11
780.8226410061993
 21
45.50001999999994
 31
0.0
  0
LINE
  5
39E1
330
21CC
100
AcDbEntity
  8
0
100
AcDbLine
 10
759.8473530061997
 20
38.15000000000009
 30
0.0
 11
773.8970349397073
 21
38.15000000000009
 31
0.0
  0
LINE
  5
39E2
330
21CC
100
AcDbEntity
  8
0
100
AcDbLine
 10
228.5726180062003
 20
57.14998000000014
 30
0.0
 11
732.5804530061991
 21
57.14998000000014
 31
0.0
  0
LINE
  5
39E3
330
21CC
100
AcDbEntity
  8
0
100
AcDbLine
 10
739.6515530061992
 20
54.22108000000026
 30
0.0
 11
752.793733006199
 21
41.07889999999997
 31
0.0
  0
ARC
  5
39E4
330
21CC
100
AcDbEntity
  8
0
100
AcDbCircle
 10
732.5804530061991
 20
47.14998000000014
 30
0.0
 40
10.0
100
AcDbArc
 50
45.00006000000444
 51
90.0
  0
ARC
  5
39E5
330
21CC
100
AcDbEntity
  8
0
100
AcDbCircle
 10
759.8648130061997
 20
48.14998000000014
 30
0.0
 40
10.0
100
AcDbArc
 50
224.9999399999909
 51
270.0
  0
LINE
  5
39E6
330
21CC
100
AcDbEntity
  8
0
100
AcDbLine
 10
187.7482037931879
 20
38.15002000000004
 30
0.0
 11
209.0726180062006
 21
38.15002000000004
 31
0.0
  0
ARC
  5
39E7
330
21CC
100
AcDbEntity
  8
0
100
AcDbCircle
 10
187.7482037931879
 20
40.15002000000004
 30
0.0
 40
2.0
100
AcDbArc
 50
200.0001442160911
 51
270.0
  0
ARC
  5
39E8
330
21CC
100
AcDbEntity
  8
0
100
AcDbCircle
 10
773.8970349397073
 20
40.15000000000009
 30
0.0
 40
2.0
100
AcDbArc
 50
270.0
 51
339.9999791322085
  0
ARC
  5
39E9
330
21CC
100
AcDbEntity
  8
0
100
AcDbCircle
 10
778.5328068196554
 20
44.70002
 30
0.0
 40
0.8
100
AcDbArc
 50
90.0
 51
159.9999791322085
  0
LINE
  5
3AAE
330
21CC
100
AcDbEntity
  8
0
100
AcDbLine
 10
88.99994999999989
 20
14.0
 30
0.0
 11
88.99994999999989
 21
5.0
 31
0.0
  0
LINE
  5
3AAF
330
21CC
100
AcDbEntity
  8
0
100
AcDbLine
 10
88.99994999999989
 20
-5.0
 30
0.0
 11
88.99994999999989
 21
-14.0
 31
0.0
  0
ARC
  5
3AB0
330
21CC
100
AcDbEntity
  8
0
100
AcDbCircle
 10
87.9999499999999
 20
-14.0
 30
0.0
 40
1.0
100
AcDbArc
 50
270.0
 51
0.0
  0
LINE
  5
3AB1
330
21CC
100
AcDbEntity
  8
0
100
AcDbLine
 10
85.9999499999999
 20
4.0
 30
0.0
 11
85.9999499999999
 21
-4.0
 31
0.0
  0
LINE
  5
3AB2
330
21CC
100
AcDbEntity
  8
0
100
AcDbLine
 10
85.99995000000012
 20
-29.46795919243095
 30
0.0
 11
85.9999499999999
 21
-39.42822999999998
 31
0.0
  0
LINE
  5
3AB3
330
21CC
100
AcDbEntity
  8
0
100
AcDbLine
 10
77.9999499999999
 20
4.0
 30
0.0
 11
77.9999499999999
 21
-4.0
 31
0.0
  0
LINE
  5
3AB4
330
21CC
100
AcDbEntity
  8
0
100
AcDbLine
 10
77.9999499999999
 20
-29.46795919243095
 30
0.0
 11
77.9999499999999
 21
-39.42822999999998
 31
0.0
  0
LINE
  5
3AB5
330
21CC
100
AcDbEntity
  8
0
100
AcDbLine
 10
76.9999499999999
 20
-43.0000299999997
 30
0.0
 11
76.9999499999999
 21
-31.20001000000002
 31
0.0
  0
LINE
  5
3AB6
330
21CC
100
AcDbEntity
  8
0
100
AcDbLine
 10
86.9999499999999
 20
-43.0000299999997
 30
0.0
 11
86.9999499999999
 21
-31.20001000000002
 31
0.0
  0
LINE
  5
3AB7
330
21CC
100
AcDbEntity
  8
0
100
AcDbLine
 10
74.2499499999999
 20
-27.20001000000002
 30
0.0
 11
74.2499499999999
 21
-17.90002999999978
 31
0.0
  0
ARC
  5
3AB8
330
21CC
100
AcDbEntity
  8
0
100
AcDbCircle
 10
76.2499499999999
 20
-27.20001000000002
 30
0.0
 40
2.0
100
AcDbArc
 50
180.0
 51
270.0
  0
LINE
  5
3AB9
330
21CC
100
AcDbEntity
  8
0
100
AcDbLine
 10
89.7499499999999
 20
-27.20000999999956
 30
0.0
 11
89.7499499999999
 21
-17.90002999999978
 31
0.0
  0
ARC
  5
3ABA
330
21CC
100
AcDbEntity
  8
0
100
AcDbCircle
 10
87.74994999999989
 20
-27.20000999999956
 30
0.0
 40
2.0
100
AcDbArc
 50
270.0
 51
0.0
  0
LINE
  5
3ABB
330
21CC
100
AcDbEntity
  8
0
100
AcDbLine
 10
95.93928000000005
 20
-52.0000299999997
 30
0.0
 11
68.06062999999994
 21
-52.0000299999997
 31
0.0
  0
LINE
  5
3ABC
330
21CC
100
AcDbEntity
  8
0
100
AcDbLine
 10
87.9999499999999
 20
-4.0
 30
0.0
 11
64.6219799999999
 21
-4.0
 31
0.0
  0
LINE
  5
3ABD
330
21CC
100
AcDbEntity
  8
0
  6
CENTER
100
AcDbLine
 10
88.65956500000015
 20
0.0
 30
0.0
 11
-88.65956499999994
 21
0.0
 31
0.0
  0
LINE
  5
3ABE
330
21CC
100
AcDbEntity
  8
0
100
AcDbLine
 10
228.5726180062003
 20
-64.86837999999989
 30
0.0
 11
228.5726180062003
 21
6.399990000000343
 31
0.0
  0
LINE
  5
3ABF
330
21CC
100
AcDbEntity
  8
0
100
AcDbLine
 10
209.0726180062004
 20
-64.86837999999989
 30
0.0
 11
209.0726180062004
 21
6.266290000000026
 31
0.0
  0
LINE
  5
3AC0
330
21CC
100
AcDbEntity
  8
0
100
AcDbLine
 10
224.1270380062003
 20
72.99999700000035
 30
0.0
 11
213.5182080062004
 21
72.99999700000035
 31
0.0
  0
LINE
  5
3AC1
330
21CC
100
AcDbEntity
  8
0
100
AcDbLine
 10
214.5726180062004
 20
4.0
 30
0.0
 11
209.3226180062004
 21
4.0
 31
0.0
  0
LINE
  5
3AC2
330
21CC
100
AcDbEntity
  8
0
100
AcDbLine
 10
224.1270380062003
 20
-73.0000299999997
 30
0.0
 11
213.5182080062004
 21
-73.0000299999997
 31
0.0
  0
LINE
  5
3AC3
330
21CC
100
AcDbEntity
  8
0
100
AcDbLine
 10
87.9999499999999
 20
4.0
 30
0.0
 11
65.51335999999992
 21
4.0
 31
0.0
  0
LINE
  5
3AC4
330
21CC
100
AcDbEntity
  8
0
100
AcDbLine
 10
87.9999499999999
 20
15.0
 30
0.0
 11
73.83762999999999
 21
15.0
 31
0.0
  0
LINE
  5
3AC5
330
21CC
100
AcDbEntity
  8
0
100
AcDbLine
 10
209.1066880062005
 20
-65.12717999999996
 30
0.0
 11
210.6204080062004
 21
-70.77646999999979
 31
0.0
  0
LINE
  5
3AC6
330
21CC
100
AcDbEntity
  8
0
100
AcDbLine
 10
228.5385380062005
 20
-65.12717999999996
 30
0.0
 11
227.0248180062003
 21
-70.77646999999979
 31
0.0
  0
LINE
  5
3AC7
330
21CC
100
AcDbEntity
  8
0
100
AcDbLine
 10
227.0248280062003
 20
70.77645000000029
 30
0.0
 11
228.5385480062004
 21
65.12716300000011
 31
0.0
  0
LINE
  5
3AC8
330
21CC
100
AcDbEntity
  8
0
100
AcDbLine
 10
211.2162080062005
 20
15.0
 30
0.0
 11
211.2162080062005
 21
69.57964800000036
 31
0.0
  0
LINE
  5
3AC9
330
21CC
100
AcDbEntity
  8
0
100
AcDbLine
 10
226.4290380062004
 20
15.0
 30
0.0
 11
226.4290380062004
 21
69.95712000000003
 31
0.0
  0
LINE
  5
3ACA
330
21CC
100
AcDbEntity
  8
0
100
AcDbLine
 10
66.53444999999988
 20
12.16647000000011
 30
0.0
 11
72.24022999999988
 21
15.46070000000008
 31
0.0
  0
LINE
  5
3ACB
330
21CC
100
AcDbEntity
  8
0
100
AcDbLine
 10
214.3227380062005
 20
-11.28499999999985
 30
0.0
 11
211.3461080062004
 21
-14.6613299999999
 31
0.0
  0
LINE
  5
3ACC
330
21CC
100
AcDbEntity
  8
0
100
AcDbLine
 10
223.3224980062004
 20
-11.28503
 30
0.0
 11
226.2991180062003
 21
-14.66134999999985
 31
0.0
  0
LINE
  5
3ACD
330
21CC
100
AcDbEntity
  8
0
100
AcDbLine
 10
216.9726480062004
 20
-52.0
 30
0.0
 11
220.6726280062005
 21
-52.0
 31
0.0
  0
LINE
  5
3ACE
330
21CC
100
AcDbEntity
  8
0
100
AcDbLine
 10
215.9726480062004
 20
-51.0
 30
0.0
 11
215.9726480062004
 21
-31.20001000000002
 31
0.0
  0
LINE
  5
3ACF
330
21CC
100
AcDbEntity
  8
0
100
AcDbLine
 10
210.5959980062004
 20
-15.0
 30
0.0
 11
209.3226180062004
 21
-15.0
 31
0.0
  0
LINE
  5
3AD0
330
21CC
100
AcDbEntity
  8
0
100
AcDbLine
 10
214.5726180062004
 20
-4.0
 30
0.0
 11
209.3226180062004
 21
-4.0
 31
0.0
  0
LINE
  5
3AD1
330
21CC
100
AcDbEntity
  8
0
100
AcDbLine
 10
214.5726180062004
 20
4.0
 30
0.0
 11
214.5726180062004
 21
15.0
 31
0.0
  0
LINE
  5
3AD2
330
21CC
100
AcDbEntity
  8
0
100
AcDbLine
 10
214.5726180062004
 20
15.0
 30
0.0
 11
209.3226180062004
 21
15.0
 31
0.0
  0
LINE
  5
3AD3
330
21CC
100
AcDbEntity
  8
0
100
AcDbLine
 10
214.5726180062004
 20
-10.62368999999989
 30
0.0
 11
214.5726180062004
 21
-4.0
 31
0.0
  0
LINE
  5
3AD4
330
21CC
100
AcDbEntity
  8
0
100
AcDbLine
 10
214.8226180062004
 20
-12.0
 30
0.0
 11
214.8226180062004
 21
14.42819000000008
 31
0.0
  0
LINE
  5
3AD5
330
21CC
100
AcDbEntity
  8
0
100
AcDbLine
 10
214.8226180062004
 20
-39.42822999999998
 30
0.0
 11
214.8226180062004
 21
-29.38961999999992
 31
0.0
  0
LINE
  5
3AD6
330
21CC
100
AcDbEntity
  8
0
100
AcDbLine
 10
211.0726180062004
 20
-27.20001000000002
 30
0.0
 11
211.0726180062004
 21
-17.90000000000009
 31
0.0
  0
LINE
  5
3AD7
330
21CC
100
AcDbEntity
  8
0
100
AcDbLine
 10
213.0726180062004
 20
-29.20001000000002
 30
0.0
 11
224.5726180062003
 21
-29.20001000000002
 31
0.0
  0
LINE
  5
3AD8
330
21CC
100
AcDbEntity
  8
0
100
AcDbLine
 10
213.7974480062005
 20
-12.0
 30
0.0
 11
223.8478280062003
 21
-12.0
 31
0.0
  0
LINE
  5
3AD9
330
21CC
100
AcDbEntity
  8
0
100
AcDbLine
 10
228.3226180062003
 20
12.5999999999999
 30
0.0
 11
228.8226180062003
 21
12.5999999999999
 31
0.0
  0
LINE
  5
3ADA
330
21CC
100
AcDbEntity
  8
0
100
AcDbLine
 10
228.3226180062003
 20
6.399990000000343
 30
0.0
 11
228.8226180062003
 21
6.399990000000343
 31
0.0
  0
LINE
  5
3ADB
330
21CC
100
AcDbEntity
  8
0
100
AcDbLine
 10
221.6726280062005
 20
-51.0
 30
0.0
 11
221.6726280062005
 21
-31.20001000000002
 31
0.0
  0
LINE
  5
3ADC
330
21CC
100
AcDbEntity
  8
0
100
AcDbLine
 10
227.0492480062005
 20
-15.0
 30
0.0
 11
228.3226180062003
 21
-15.0
 31
0.0
  0
LINE
  5
3ADD
330
21CC
100
AcDbEntity
  8
0
100
AcDbLine
 10
223.0726180062004
 20
-4.0
 30
0.0
 11
228.3226180062003
 21
-4.0
 31
0.0
  0
LINE
  5
3ADE
330
21CC
100
AcDbEntity
  8
0
100
AcDbLine
 10
223.0726180062004
 20
4.0
 30
0.0
 11
223.0726180062004
 21
15.0
 31
0.0
  0
LINE
  5
3ADF
330
21CC
100
AcDbEntity
  8
0
100
AcDbLine
 10
223.0726180062004
 20
4.0
 30
0.0
 11
228.3226180062003
 21
4.0
 31
0.0
  0
LINE
  5
3AE0
330
21CC
100
AcDbEntity
  8
0
100
AcDbLine
 10
223.0726180062004
 20
15.0
 30
0.0
 11
228.3226180062003
 21
15.0
 31
0.0
  0
LINE
  5
3AE1
330
21CC
100
AcDbEntity
  8
0
100
AcDbLine
 10
223.0726180062004
 20
-10.62368999999989
 30
0.0
 11
223.0726180062004
 21
-4.0
 31
0.0
  0
LINE
  5
3AE2
330
21CC
100
AcDbEntity
  8
0
100
AcDbLine
 10
222.8226180062004
 20
-12.0
 30
0.0
 11
222.8226180062004
 21
14.42819000000008
 31
0.0
  0
LINE
  5
3AE3
330
21CC
100
AcDbEntity
  8
0
100
AcDbLine
 10
222.8226180062004
 20
-39.42822999999998
 30
0.0
 11
222.8226180062004
 21
-29.38961999999992
 31
0.0
  0
LINE
  5
3AE4
330
21CC
100
AcDbEntity
  8
0
100
AcDbLine
 10
226.5726180062003
 20
-27.20001000000002
 30
0.0
 11
226.5726180062003
 21
-17.90000000000009
 31
0.0
  0
LINE
  5
3AE5
330
21CC
100
AcDbEntity
  8
0
100
AcDbLine
 10
226.4290380062004
 20
-28.39141999999992
 30
0.0
 11
226.4290380062004
 21
-69.95715999999993
 31
0.0
  0
LINE
  5
3AE6
330
21CC
100
AcDbEntity
  8
0
100
AcDbLine
 10
211.2162080062005
 20
-28.39141999999992
 30
0.0
 11
211.2162080062005
 21
-69.57964999999967
 31
0.0
  0
LINE
  5
3AE7
330
21CC
100
AcDbEntity
  8
0
100
AcDbLine
 10
73.83762999999999
 20
-15.0
 30
0.0
 11
87.9999499999999
 21
-15.0
 31
0.0
  0
LINE
  5
3AE8
330
21CC
100
AcDbEntity
  8
0
  6
CENTER
100
AcDbLine
 10
0.0
 20
82.04720799999995
 30
0.0
 11
0.0
 21
-82.04720799999995
 31
0.0
  0
LINE
  5
3AE9
330
21CC
100
AcDbEntity
  8
0
100
AcDbLine
 10
229.3226180062004
 20
6.899990000000343
 30
0.0
 11
229.3226180062004
 21
12.09999999999991
 31
0.0
  0
LINE
  5
3AEA
330
21CC
100
AcDbEntity
  8
0
100
AcDbLine
 10
229.5726180062004
 20
61.22605599999997
 30
0.0
 11
229.5726180062004
 21
66.4260690000001
 31
0.0
  0
LINE
  5
3AEB
330
21CC
100
AcDbEntity
  8
0
100
AcDbLine
 10
228.0726180062004
 20
66.9260690000001
 30
0.0
 11
229.0726180062004
 21
66.9260690000001
 31
0.0
  0
LINE
  5
3AEC
330
21CC
100
AcDbEntity
  8
0
100
AcDbLine
 10
228.5726180062003
 20
60.72605599999997
 30
0.0
 11
229.0726180062004
 21
60.72605599999997
 31
0.0
  0
LINE
  5
3AED
330
21CC
100
AcDbEntity
  8
0
100
AcDbLine
 10
229.5726180062004
 20
-61.22605999999996
 30
0.0
 11
229.5726180062004
 21
-66.42606999999998
 31
0.0
  0
LINE
  5
3AEE
330
21CC
100
AcDbEntity
  8
0
100
AcDbLine
 10
228.5726180062003
 20
-60.72605999999996
 30
0.0
 11
229.0726180062004
 21
-60.72605999999996
 31
0.0
  0
LINE
  5
3AEF
330
21CC
100
AcDbEntity
  8
0
100
AcDbLine
 10
228.0565380062005
 20
-66.92606999999998
 30
0.0
 11
229.0726180062004
 21
-66.92606999999998
 31
0.0
  0
LINE
  5
3AF0
330
21CC
100
AcDbEntity
  8
0
100
AcDbLine
 10
209.3226180062004
 20
-15.0
 30
0.0
 11
209.3226180062004
 21
15.0
 31
0.0
  0
LINE
  5
3AF1
330
21CC
100
AcDbEntity
  8
0
100
AcDbLine
 10
228.3226180062003
 20
-15.0
 30
0.0
 11
228.3226180062003
 21
15.0
 31
0.0
  0
LINE
  5
3AF2
330
21CC
100
AcDbEntity
  8
0
100
AcDbLine
 10
209.0726180062004
 20
12.73370000000022
 30
0.0
 11
209.0726180062004
 21
64.99999700000035
 31
0.0
  0
LINE
  5
3AF3
330
21CC
100
AcDbEntity
  8
0
100
AcDbLine
 10
228.5726180062003
 20
12.5999999999999
 30
0.0
 11
228.5726180062003
 21
64.86834500000032
 31
0.0
  0
LINE
  5
3AF4
330
21CC
100
AcDbEntity
  8
0
100
AcDbLine
 10
209.0726180062004
 20
67.07606299999998
 30
0.0
 11
209.5726180062003
 21
67.07606299999998
 31
0.0
  0
LINE
  5
3AF5
330
21CC
100
AcDbEntity
  8
0
100
AcDbLine
 10
209.0726180062004
 20
-67.07607000000007
 30
0.0
 11
209.5726180062003
 21
-67.07607000000007
 31
0.0
  0
LINE
  5
3AF6
330
21CC
100
AcDbEntity
  8
0
100
AcDbLine
 10
210.0726180062003
 20
68.82606299999998
 30
0.0
 11
210.0978180062004
 21
68.82606299999998
 31
0.0
  0
LINE
  5
3AF7
330
21CC
100
AcDbEntity
  8
0
100
AcDbLine
 10
209.0726180062004
 20
67.07606299999998
 30
0.0
 11
209.0726180062004
 21
67.82606299999997
 31
0.0
  0
LINE
  5
3AF8
330
21CC
100
AcDbEntity
  8
0
100
AcDbLine
 10
228.5726180062003
 20
66.9260690000001
 30
0.0
 11
228.5726180062003
 21
67.82606299999997
 31
0.0
  0
LINE
  5
3AF9
330
21CC
100
AcDbEntity
  8
0
100
AcDbLine
 10
227.5474280062003
 20
68.82606299999998
 30
0.0
 11
227.5726180062004
 21
68.82606299999998
 31
0.0
  0
LINE
  5
3AFA
330
21CC
100
AcDbEntity
  8
0
100
AcDbLine
 10
210.6204180062004
 20
70.77646000000004
 30
0.0
 11
209.1066980062005
 21
65.12715900000012
 31
0.0
  0
LINE
  5
3AFB
330
21CC
100
AcDbEntity
  8
0
100
AcDbLine
 10
209.0726180062004
 20
-67.07607000000007
 30
0.0
 11
209.0726180062004
 21
-67.82607000000007
 31
0.0
  0
LINE
  5
3AFC
330
21CC
100
AcDbEntity
  8
0
100
AcDbLine
 10
228.5726180062003
 20
-66.92606999999998
 30
0.0
 11
228.5726180062003
 21
-67.82607000000007
 31
0.0
  0
LINE
  5
3AFD
330
21CC
100
AcDbEntity
  8
0
100
AcDbLine
 10
-31.26307999999994
 20
55.5628300000003
 30
0.0
 11
-30.63376999999991
 21
55.26938000000019
 31
0.0
  0
LINE
  5
3AFE
330
21CC
100
AcDbEntity
  8
0
100
AcDbLine
 10
-32.50566000000003
 20
54.64634999999998
 30
0.0
 11
-31.72020999999995
 21
63.62401100000034
 31
0.0
  0
LINE
  5
3AFF
330
21CC
100
AcDbEntity
  8
0
100
AcDbLine
 10
-29.87015999999994
 20
66.60911600000009
 30
0.0
 11
-20.84680000000003
 21
62.40145400000028
 31
0.0
  0
LINE
  5
3B00
330
21CC
100
AcDbEntity
  8
0
100
AcDbLine
 10
-31.83664999999996
 20
56.55628999999999
 30
0.0
 11
-31.05300941711766
 21
65.51336285529351
 31
0.0
  0
LINE
  5
3B01
330
21CC
100
AcDbEntity
  8
0
100
AcDbLine
 10
-36.53810999999996
 20
69.36576300000024
 30
0.0
 11
-26.60805000000005
 21
68.49699600000031
 31
0.0
  0
LINE
  5
3B02
330
21CC
100
AcDbEntity
  8
0
100
AcDbLine
 10
-41.80347000000006
 20
66.32581100000016
 30
0.0
 11
-46.01613999999995
 21
57.29170000000022
 31
0.0
  0
LINE
  5
3B03
330
21CC
100
AcDbEntity
  8
0
100
AcDbLine
 10
-46.48498999999993
 20
56.28628000000026
 30
0.0
 11
-39.85221999999998
 21
53.19336999999996
 31
0.0
  0
ARC
  5
3B04
330
21CC
100
AcDbEntity
  8
0
100
AcDbCircle
 10
0.0
 20
0.0
 30
0.0
 40
73.0
100
AcDbArc
 50
13.70022999998832
 51
114.6740500000028
  0
ARC
  5
3B05
330
21CC
100
AcDbEntity
  8
0
100
AcDbCircle
 10
87.9999499999999
 20
14.0
 30
0.0
 40
1.0
100
AcDbArc
 50
0.0
 51
90.0
  0
ARC
  5
3B06
330
21CC
100
AcDbEntity
  8
0
100
AcDbCircle
 10
87.9999499999999
 20
5.0
 30
0.0
 40
1.0
100
AcDbArc
 50
269.9999970000023
 51
0.0
  0
ARC
  5
3B07
330
21CC
100
AcDbEntity
  8
0
100
AcDbCircle
 10
87.9999499999999
 20
-5.0
 30
0.0
 40
1.0
100
AcDbArc
 50
0.0
 51
90.0
  0
ARC
  5
3B08
330
21CC
100
AcDbEntity
  8
0
100
AcDbCircle
 10
81.9999499999999
 20
-32.50002999999969
 30
0.0
 40
8.0
100
AcDbArc
 50
240.0000000000006
 51
300.0000050000116
  0
ARC
  5
3B09
330
21CC
100
AcDbEntity
  8
0
100
AcDbCircle
 10
84.99994999999989
 20
-31.20001000000002
 30
0.0
 40
2.0
100
AcDbArc
 50
359.9999913485851
 51
90.0
  0
ARC
  5
3B0A
330
21CC
100
AcDbEntity
  8
0
100
AcDbCircle
 10
78.99994999999989
 20
-31.20001000000002
 30
0.0
 40
2.0
100
AcDbArc
 50
90.0
 51
179.9999899999989
  0
ARC
  5
3B0B
330
21CC
100
AcDbEntity
  8
0
100
AcDbCircle
 10
81.9999499999999
 20
-43.0000299999997
 30
0.0
 40
5.0
100
AcDbArc
 50
179.9999899999989
 51
0.0000100000010064
  0
ARC
  5
3B0C
330
21CC
100
AcDbEntity
  8
0
100
AcDbCircle
 10
62.99997000000008
 20
-48.0000299999997
 30
0.0
 40
35.0
100
AcDbArc
 50
356.5254056999958
 51
35.24750999999153
  0
ARC
  5
3B0D
330
21CC
100
AcDbEntity
  8
0
100
AcDbCircle
 10
99.7499499999999
 20
-22.03008999999974
 30
0.0
 40
10.0
100
AcDbArc
 50
179.9999899999989
 51
215.2474999999989
  0
ARC
  5
3B0E
330
21CC
100
AcDbEntity
  8
0
100
AcDbCircle
 10
64.24997000000008
 20
-22.03008999999974
 30
0.0
 40
10.0
100
AcDbArc
 50
324.7524979999964
 51
0.0000100000010064
  0
ARC
  5
3B0F
330
21CC
100
AcDbEntity
  8
0
100
AcDbCircle
 10
100.9999499999999
 20
-48.0000299999997
 30
0.0
 40
35.0
100
AcDbArc
 50
144.7524900000084
 51
183.4745899999905
  0
ARC
  5
3B10
330
21CC
100
AcDbEntity
  8
0
100
AcDbCircle
 10
81.9999499999999
 20
-17.90002999999978
 30
0.0
 40
7.75
100
AcDbArc
 50
158.02528285816
 51
179.9999899999989
  0
ARC
  5
3B11
330
21CC
100
AcDbEntity
  8
0
100
AcDbCircle
 10
81.9999499999999
 20
-17.90002999999978
 30
0.0
 40
7.75
100
AcDbArc
 50
0.0000100000010064
 51
26.83102656175668
  0
ARC
  5
3B12
330
21CC
100
AcDbEntity
  8
0
100
AcDbCircle
 10
81.9999499999999
 20
9.5
 30
0.0
 40
6.0
100
AcDbArc
 50
66.44353569089929
 51
113.5564600000039
  0
ARC
  5
3B13
330
21CC
100
AcDbEntity
  8
0
100
AcDbCircle
 10
95.93928000000005
 20
-50.0000299999997
 30
0.0
 40
2.0
100
AcDbArc
 50
270.0000040000056
 51
356.5254056999958
  0
ARC
  5
3B14
330
21CC
100
AcDbEntity
  8
0
100
AcDbCircle
 10
68.06062999999994
 20
-50.0000299999997
 30
0.0
 40
2.0
100
AcDbArc
 50
183.4745899999905
 51
270.0000040000056
  0
ARC
  5
3B15
330
21CC
100
AcDbEntity
  8
0
100
AcDbCircle
 10
210.0726180062003
 20
-64.86837999999989
 30
0.0
 40
1.0
100
AcDbArc
 50
179.9999899999989
 51
195.0000100000155
  0
ARC
  5
3B16
330
21CC
100
AcDbEntity
  8
0
100
AcDbCircle
 10
227.5726180062004
 20
-64.86837999999989
 30
0.0
 40
1.0
100
AcDbArc
 50
345.0000000000055
 51
0.0
  0
ARC
  5
3B17
330
21CC
100
AcDbEntity
  8
0
100
AcDbCircle
 10
210.0726180062003
 20
64.86834500000032
 30
0.0
 40
1.0
100
AcDbArc
 50
165.0000000000055
 51
180.0000100000009
  0
ARC
  5
3B18
330
21CC
100
AcDbEntity
  8
0
100
AcDbCircle
 10
227.5726180062004
 20
64.86834500000032
 30
0.0
 40
1.0
100
AcDbArc
 50
0.0
 51
14.99999999999445
  0
ARC
  5
3B19
330
21CC
100
AcDbEntity
  8
0
100
AcDbCircle
 10
213.5182080062004
 20
-70.0000299999997
 30
0.0
 40
3.0
100
AcDbArc
 50
195.0000100000155
 51
269.9999970000023
  0
ARC
  5
3B1A
330
21CC
100
AcDbEntity
  8
0
100
AcDbCircle
 10
224.1270380062003
 20
-70.0000299999997
 30
0.0
 40
3.0
100
AcDbArc
 50
269.9999970000023
 51
345.0000000000055
  0
ARC
  5
3B1B
330
21CC
100
AcDbEntity
  8
0
100
AcDbCircle
 10
213.5182080062004
 20
69.99999700000035
 30
0.0
 40
3.0
100
AcDbArc
 50
90.0
 51
164.9999899999844
  0
ARC
  5
3B1C
330
21CC
100
AcDbEntity
  8
0
100
AcDbCircle
 10
224.1270380062003
 20
69.99999700000035
 30
0.0
 40
3.0
100
AcDbArc
 50
14.99999999999445
 51
90.0
  0
ARC
  5
3B1D
330
21CC
100
AcDbEntity
  8
0
100
AcDbCircle
 10
73.83762999999999
 20
18.0
 30
0.0
 40
3.0
100
AcDbArc
 50
193.7002299999883
 51
269.9999970000023
  0
ARC
  5
3B1E
330
21CC
100
AcDbEntity
  8
0
100
AcDbCircle
 10
73.83762999999999
 20
-18.0
 30
0.0
 40
3.0
100
AcDbArc
 50
90.0
 51
166.2997700000116
  0
ARC
  5
3B1F
330
21CC
100
AcDbEntity
  8
0
100
AcDbCircle
 10
213.5726180062003
 20
-10.62368999999989
 30
0.0
 40
1.0
100
AcDbArc
 50
318.6000000000059
 51
0.0
  0
ARC
  5
3B20
330
21CC
100
AcDbEntity
  8
0
100
AcDbCircle
 10
224.0726180062003
 20
-10.62368999999989
 30
0.0
 40
1.0
100
AcDbArc
 50
179.9999899999989
 51
221.3999999999941
  0
ARC
  5
3B21
330
21CC
100
AcDbEntity
  8
0
100
AcDbCircle
 10
210.5959980062004
 20
-14.0
 30
0.0
 40
1.0
100
AcDbArc
 50
269.9999970000023
 51
318.6000000000059
  0
ARC
  5
3B22
330
21CC
100
AcDbEntity
  8
0
100
AcDbCircle
 10
213.0726180062004
 20
-27.20001000000002
 30
0.0
 40
2.0
100
AcDbArc
 50
179.9999899999989
 51
270.0000040000056
  0
ARC
  5
3B23
330
21CC
100
AcDbEntity
  8
0
100
AcDbCircle
 10
218.8226180062004
 20
-32.5
 30
0.0
 40
8.0
100
AcDbArc
 50
240.0000000000006
 51
249.1299300000058
  0
ARC
  5
3B24
330
21CC
100
AcDbEntity
  8
0
100
AcDbCircle
 10
218.8226180062004
 20
-17.90000000000009
 30
0.0
 40
7.75
100
AcDbArc
 50
130.4219000000114
 51
179.9999899999989
  0
ARC
  5
3B25
330
21CC
100
AcDbEntity
  8
0
100
AcDbCircle
 10
218.8226180062004
 20
7.5
 30
0.0
 40
8.0
100
AcDbArc
 50
60.00000000000068
 51
119.9999999999993
  0
ARC
  5
3B26
330
21CC
100
AcDbEntity
  8
0
100
AcDbCircle
 10
213.9726480062004
 20
-31.20001000000002
 30
0.0
 40
2.0
100
AcDbArc
 50
359.9999949910625
 51
90.0
  0
ARC
  5
3B27
330
21CC
100
AcDbEntity
  8
0
100
AcDbCircle
 10
216.9726480062004
 20
-51.0
 30
0.0
 40
1.0
100
AcDbArc
 50
179.9999899999989
 51
270.0000040000056
  0
ARC
  5
3B28
330
21CC
100
AcDbEntity
  8
0
100
AcDbCircle
 10
220.6726280062005
 20
-51.0
 30
0.0
 40
1.0
100
AcDbArc
 50
269.9999970000023
 51
0.0
  0
ARC
  5
3B29
330
21CC
100
AcDbEntity
  8
0
100
AcDbCircle
 10
223.6726280062005
 20
-31.20001000000002
 30
0.0
 40
2.0
100
AcDbArc
 50
90.0
 51
180.0000100000009
  0
ARC
  5
3B2A
330
21CC
100
AcDbEntity
  8
0
100
AcDbCircle
 10
224.5726180062003
 20
-27.20001000000002
 30
0.0
 40
2.0
100
AcDbArc
 50
269.9999970000023
 51
0.0
  0
ARC
  5
3B2B
330
21CC
100
AcDbEntity
  8
0
100
AcDbCircle
 10
218.8226180062004
 20
-32.5
 30
0.0
 40
8.0
100
AcDbArc
 50
290.8700709999917
 51
299.9999979999987
  0
ARC
  5
3B2C
330
21CC
100
AcDbEntity
  8
0
100
AcDbCircle
 10
218.8226180062004
 20
-17.90000000000009
 30
0.0
 40
7.75
100
AcDbArc
 50
0.0
 51
49.57807999999683
  0
ARC
  5
3B2D
330
21CC
100
AcDbEntity
  8
0
100
AcDbCircle
 10
228.8226180062003
 20
12.09999999999991
 30
0.0
 40
0.5
100
AcDbArc
 50
0.0
 51
90.0
  0
ARC
  5
3B2E
330
21CC
100
AcDbEntity
  8
0
100
AcDbCircle
 10
228.8226180062003
 20
6.899990000000343
 30
0.0
 40
0.5
100
AcDbArc
 50
269.9999970000023
 51
0.0
  0
ARC
  5
3B2F
330
21CC
100
AcDbEntity
  8
0
100
AcDbCircle
 10
227.0492480062005
 20
-14.0
 30
0.0
 40
1.0
100
AcDbArc
 50
221.3999999999941
 51
269.9999970000023
  0
ARC
  5
3B30
330
21CC
100
AcDbEntity
  8
0
100
AcDbCircle
 10
0.0
 20
0.0
 30
0.0
 40
62.0
100
AcDbArc
 50
7.069709999997229
 51
116.8581399999976
  0
ARC
  5
3B31
330
21CC
100
AcDbEntity
  8
0
100
AcDbCircle
 10
65.51335999999992
 20
8.0
 30
0.0
 40
4.0
100
AcDbArc
 50
186.9620599999884
 51
269.9999970000023
  0
ARC
  5
3B32
330
21CC
100
AcDbEntity
  8
0
100
AcDbCircle
 10
64.6219799999999
 20
-7.0
 30
0.0
 40
3.0
100
AcDbArc
 50
90.0
 51
173.8176999999851
  0
ARC
  5
3B33
330
21CC
100
AcDbEntity
  8
0
100
AcDbCircle
 10
0.0
 20
0.0
 30
0.0
 40
65.0
100
AcDbArc
 50
11.97605000000934
 51
106.7338199999922
  0
ARC
  5
3B34
330
21CC
100
AcDbEntity
  8
0
100
AcDbCircle
 10
65.54170999999996
 20
13.90269000000034
 30
0.0
 40
2.0
100
AcDbArc
 50
191.9760500000093
 51
299.9999979999987
  0
ARC
  5
3B35
330
21CC
100
AcDbEntity
  8
0
100
AcDbCircle
 10
229.0726180062004
 20
61.22605599999997
 30
0.0
 40
0.5
100
AcDbArc
 50
269.9999970000023
 51
0.0
  0
ARC
  5
3B36
330
21CC
100
AcDbEntity
  8
0
100
AcDbCircle
 10
229.0726180062004
 20
66.4260690000001
 30
0.0
 40
0.5
100
AcDbArc
 50
0.0
 51
90.0
  0
ARC
  5
3B37
330
21CC
100
AcDbEntity
  8
0
100
AcDbCircle
 10
229.0726180062004
 20
-61.22605999999996
 30
0.0
 40
0.5
100
AcDbArc
 50
0.0
 51
90.0
  0
ARC
  5
3B38
330
21CC
100
AcDbEntity
  8
0
100
AcDbCircle
 10
229.0726180062004
 20
-66.42606999999998
 30
0.0
 40
0.5
100
AcDbArc
 50
269.9999970000023
 51
0.0
  0
ARC
  5
3B39
330
21CC
100
AcDbEntity
  8
0
100
AcDbCircle
 10
210.0726180062003
 20
67.82606299999997
 30
0.0
 40
1.0
100
AcDbArc
 50
90.0
 51
180.0000100000009
  0
ARC
  5
3B3A
330
21CC
100
AcDbEntity
  8
0
100
AcDbCircle
 10
227.5726180062004
 20
67.82606299999997
 30
0.0
 40
1.0
100
AcDbArc
 50
0.0
 51
90.0
  0
ARC
  5
3B3B
330
21CC
100
AcDbEntity
  8
0
100
AcDbCircle
 10
210.0726180062003
 20
-67.82607000000007
 30
0.0
 40
1.0
100
AcDbArc
 50
179.9999899999989
 51
269.9999970000023
  0
ARC
  5
3B3C
330
21CC
100
AcDbEntity
  8
0
100
AcDbCircle
 10
227.5726180062004
 20
-67.82607000000007
 30
0.0
 40
1.0
100
AcDbArc
 50
269.9999970000023
 51
0.0
  0
ARC
  5
3B3D
330
21CC
100
AcDbEntity
  8
0
100
AcDbCircle
 10
-36.49045
 20
54.99497999999994
 30
0.0
 40
4.0
100
AcDbArc
 50
303.5651900000025
 51
355.0000001000157
  0
ARC
  5
3B3E
330
21CC
100
AcDbEntity
  8
0
100
AcDbCircle
 10
-37.00002999999992
 20
64.08593500000006
 30
0.0
 40
5.3000002
100
AcDbArc
 50
354.9999912000135
 51
155.0000475919553
  0
ARC
  5
3B3F
330
21CC
100
AcDbEntity
  8
0
100
AcDbCircle
 10
-19.57895000000007
 20
65.12038200000006
 30
0.0
 40
3.0
100
AcDbArc
 50
245.0000000000072
 51
286.7338180000002
  0
ARC
  5
3B40
330
21CC
100
AcDbEntity
  8
0
100
AcDbCircle
 10
0.0
 20
0.0
 30
0.0
 40
74.0
100
AcDbArc
 50
111.9408399999982
 51
127.5593300000005
  0
ARC
  5
3B41
330
21CC
100
AcDbEntity
  8
0
100
AcDbCircle
 10
-29.36590999999998
 20
57.98829999999998
 30
0.0
 40
3.0
100
AcDbArc
 50
245.0000000000072
 51
296.8581519999986
  0
ARC
  5
3B42
330
21CC
100
AcDbEntity
  8
0
100
AcDbCircle
 10
-30.84046000000012
 20
56.46914000000015
 30
0.0
 40
1.0
100
AcDbArc
 50
174.9999999999999
 51
245.0000000000072
  0
ARC
  5
3B43
330
21CC
100
AcDbEntity
  8
0
100
AcDbCircle
 10
-50.54766999999992
 20
59.4048130000001
 30
0.0
 40
5.0
100
AcDbArc
 50
310.3945320000129
 51
335.000002000008
  0
ARC
  5
3B44
330
21CC
100
AcDbEntity
  8
0
100
AcDbCircle
 10
-26.17228
 20
73.47797100000025
 30
0.0
 40
5.0
100
AcDbArc
 50
264.9999979999948
 51
289.6054890000013
  0
ARC
  5
3B45
330
21CC
100
AcDbEntity
  8
0
100
AcDbCircle
 10
-30.05680000000007
 20
65.4262060000001
 30
0.0
 40
1.0
100
AcDbArc
 50
114.6740500000028
 51
175.0000100000139
  0
ARC
  5
3B46
330
21CC
100
AcDbEntity
  8
0
100
AcDbCircle
 10
-40.27484000000003
 20
52.28707000000031
 30
0.0
 40
1.0
100
AcDbArc
 50
307.6057590000141
 51
65.00000000000724
  0
ELLIPSE
  5
3B47
330
21CC
100
AcDbEntity
  8
0
100
AcDbEllipse
 10
209.3226180062004
 20
9.5
 30
0.0
 11
0.0
 21
-3.250000099999999
 31
0.0
210
0.0
220
0.0
230
-1.0
 40
0.7692307400000001
 41
0.0
 42
3.1415927
  0
ELLIPSE
  5
3B48
330
21CC
100
AcDbEntity
  8
0
100
AcDbEllipse
 10
209.0726180062004
 20
63.82606299999998
 30
0.0
 11
0.0
 21
-3.250000099999999
 31
0.0
210
0.0
220
0.0
230
-1.0
 40
0.7692307400000001
 41
0.0
 42
3.1415927
  0
ELLIPSE
  5
3B49
330
21CC
100
AcDbEntity
  8
0
100
AcDbEllipse
 10
209.0726180062004
 20
-63.82607000000007
 30
0.0
 11
0.0
 21
3.250000099999999
 31
0.0
210
0.0
220
0.0
230
-1.0
 40
0.7692307400000001
 41
3.1415927
 42
6.283185299999999
  0
LINE
  5
3B4A
330
21CC
100
AcDbEntity
  8
0
100
AcDbLine
 10
66.53444999999988
 20
-12.16647000000011
 30
0.0
 11
72.24022999999988
 21
-15.46070000000008
 31
0.0
  0
LINE
  5
3B4B
330
21CC
100
AcDbEntity
  8
0
100
AcDbLine
 10
-31.26307999999994
 20
-55.56282999999985
 30
0.0
 11
-30.63376999999991
 21
-55.26937999999972
 31
0.0
  0
LINE
  5
3B4C
330
21CC
100
AcDbEntity
  8
0
100
AcDbLine
 10
-32.50566000000003
 20
-54.64634999999998
 30
0.0
 11
-31.72020999999995
 21
-63.62401099999988
 31
0.0
  0
LINE
  5
3B4D
330
21CC
100
AcDbEntity
  8
0
100
AcDbLine
 10
-29.87015999999994
 20
-66.60911600000009
 30
0.0
 11
-20.84680000000003
 21
-62.40145399999983
 31
0.0
  0
LINE
  5
3B4E
330
21CC
100
AcDbEntity
  8
0
100
AcDbLine
 10
-31.83664999999996
 20
-56.55628999999999
 30
0.0
 11
-31.05300941711766
 21
-65.51336285529306
 31
0.0
  0
LINE
  5
3B4F
330
21CC
100
AcDbEntity
  8
0
100
AcDbLine
 10
-36.53810999999996
 20
-69.36576299999979
 30
0.0
 11
-26.60805000000005
 21
-68.49699599999985
 31
0.0
  0
LINE
  5
3B50
330
21CC
100
AcDbEntity
  8
0
100
AcDbLine
 10
-41.80347000000006
 20
-66.32581099999971
 30
0.0
 11
-46.01613999999995
 21
-57.29169999999976
 31
0.0
  0
LINE
  5
3B51
330
21CC
100
AcDbEntity
  8
0
100
AcDbLine
 10
-46.48498999999993
 20
-56.28627999999981
 30
0.0
 11
-39.85221999999998
 21
-53.19336999999996
 31
0.0
  0
ARC
  5
3B52
330
21CC
100
AcDbEntity
  8
0
100
AcDbCircle
 10
0.0
 20
0.0
 30
0.0
 40
73.0
100
AcDbArc
 50
130.394530000004
 51
229.6054699999959
  0
ARC
  5
3B53
330
21CC
100
AcDbEntity
  8
0
100
AcDbCircle
 10
0.0
 20
0.0
 30
0.0
 40
73.0
100
AcDbArc
 50
245.3259499999971
 51
346.2997700000116
  0
ARC
  5
3B54
330
21CC
100
AcDbEntity
  8
0
100
AcDbCircle
 10
0.0
 20
0.0
 30
0.0
 40
62.0
100
AcDbArc
 50
123.2853400000055
 51
236.7146600000106
  0
ARC
  5
3B55
330
21CC
100
AcDbEntity
  8
0
100
AcDbCircle
 10
0.0
 20
0.0
 30
0.0
 40
62.0
100
AcDbArc
 50
243.1418600000023
 51
353.8176957889341
  0
ARC
  5
3B56
330
21CC
100
AcDbEntity
  8
0
100
AcDbCircle
 10
0.0
 20
0.0
 30
0.0
 40
65.0
100
AcDbArc
 50
127.605760000003
 51
232.3942400000141
  0
ARC
  5
3B57
330
21CC
100
AcDbEntity
  8
0
100
AcDbCircle
 10
0.0
 20
0.0
 30
0.0
 40
65.0
100
AcDbArc
 50
253.2661800000077
 51
348.0239499999906
  0
ARC
  5
3B58
330
21CC
100
AcDbEntity
  8
0
100
AcDbCircle
 10
65.54170999999996
 20
-13.90268999999989
 30
0.0
 40
2.0
100
AcDbArc
 50
60.0000020000013
 51
168.0239499999906
  0
ARC
  5
3B59
330
21CC
100
AcDbEntity
  8
0
100
AcDbCircle
 10
-36.49045
 20
-54.99497999999994
 30
0.0
 40
4.0
100
AcDbArc
 50
4.999999900010805
 51
56.43480999999749
  0
ARC
  5
3B5A
330
21CC
100
AcDbEntity
  8
0
100
AcDbCircle
 10
-37.00002999999992
 20
-64.08593500000006
 30
0.0
 40
5.3000002
100
AcDbArc
 50
204.9999524080446
 51
5.000008800012199
  0
ARC
  5
3B5B
330
21CC
100
AcDbEntity
  8
0
100
AcDbCircle
 10
-19.57895000000007
 20
-65.12038200000006
 30
0.0
 40
3.0
100
AcDbArc
 50
73.26618199999971
 51
115.0000000000066
  0
ARC
  5
3B5C
330
21CC
100
AcDbEntity
  8
0
100
AcDbCircle
 10
0.0
 20
0.0
 30
0.0
 40
74.0
100
AcDbArc
 50
232.4406699999994
 51
248.0591600000017
  0
ARC
  5
3B5D
330
21CC
100
AcDbEntity
  8
0
100
AcDbCircle
 10
-29.36590999999998
 20
-57.98829999999998
 30
0.0
 40
3.0
100
AcDbArc
 50
63.14184800000131
 51
115.0000000000066
  0
ARC
  5
3B5E
330
21CC
100
AcDbEntity
  8
0
100
AcDbCircle
 10
-30.84046000000012
 20
-56.4691399999997
 30
0.0
 40
1.0
100
AcDbArc
 50
115.0000000000066
 51
185.0
  0
ARC
  5
3B5F
330
21CC
100
AcDbEntity
  8
0
100
AcDbCircle
 10
-50.54766999999992
 20
-59.4048130000001
 30
0.0
 40
5.0
100
AcDbArc
 50
24.99999799999196
 51
49.60546800000493
  0
ARC
  5
3B60
330
21CC
100
AcDbEntity
  8
0
100
AcDbCircle
 10
-26.17228
 20
-73.47797099999979
 30
0.0
 40
5.0
100
AcDbArc
 50
70.39451099999864
 51
95.00000200000513
  0
ARC
  5
3B61
330
21CC
100
AcDbEntity
  8
0
100
AcDbCircle
 10
-30.05680000000007
 20
-65.4262060000001
 30
0.0
 40
1.0
100
AcDbArc
 50
184.9999900000117
 51
245.3259499999971
  0
ARC
  5
3B62
330
21CC
100
AcDbEntity
  8
0
100
AcDbCircle
 10
-40.27484000000003
 20
-52.28706999999985
 30
0.0
 40
1.0
100
AcDbArc
 50
295.0000000000066
 51
52.39424099998586
  0
LINE
  5
3B63
330
21CC
100
AcDbEntity
  8
0
100
AcDbLine
 10
76.2499499999999
 20
-29.20001000000002
 30
0.0
 11
87.74994999999989
 21
-29.20000999999956
 31
0.0
  0
CIRCLE
  5
3B64
330
21CC
100
AcDbEntity
  8
0
100
AcDbCircle
 10
-37.00002999999992
 20
64.08593500000006
 30
0.0
 40
2.599999899999999
  0
CIRCLE
  5
3B65
330
21CC
100
AcDbEntity
  8
0
100
AcDbCircle
 10
-37.00002999999992
 20
-64.08593500000006
 30
0.0
 40
2.599999899999999
  0
CIRCLE
  5
3B66
330
21CC
100
AcDbEntity
  8
0
100
AcDbCircle
 10
81.9999499999999
 20
9.5
 30
0.0
 40
3.250000100000078
  0
ENDSEC
  0
SECTION
  2
OBJECTS
  0
DICTIONARY
  5
21BA
330
0
100
AcDbDictionary
281
     1
  3
ACAD_GROUP
350
21BB
  3
ACAD_LAYOUT
350
21C7
  3
ACAD_MLINESTYLE
350
21C4
  3
ACAD_PLOTSETTINGS
350
21C6
  3
ACAD_PLOTSTYLENAME
350
21BC
  3
AcDbVariableDictionary
350
2238
  0
DICTIONARY
  5
2244
330
21B0
100
AcDbDictionary
280
     1
281
     1
  3
ACAD_LAYERSTATES
360
2245
  0
DICTIONARY
  5
21F8
330
21CC
100
AcDbDictionary
280
     1
281
     1
  3
ACAD_LAYOUTSELFREF
360
2227
  0
DICTIONARY
  5
21FA
330
21C8
100
AcDbDictionary
280
     1
281
     1
  3
ACAD_LAYOUTSELFREF
360
2226
  0
DICTIONARY
  5
21BB
102
{ACAD_REACTORS
330
21BA
102
}
330
21BA
100
AcDbDictionary
281
     1
  0
DICTIONARY
  5
21C7
102
{ACAD_REACTORS
330
21BA
102
}
330
21BA
100
AcDbDictionary
281
     1
  3
Model
350
21CF
  3
ﾚｲｱｳﾄ1
350
21CB
  0
DICTIONARY
  5
21C4
102
{ACAD_REACTORS
330
21BA
102
}
330
21BA
100
AcDbDictionary
281
     1
  3
Standard
350
21C5
  0
DICTIONARY
  5
21C6
102
{ACAD_REACTORS
330
21BA
102
}
330
21BA
100
AcDbDictionary
281
     1
  0
ACDBDICTIONARYWDFLT
  5
21BC
102
{ACAD_REACTORS
330
21BA
102
}
330
21BA
100
AcDbDictionary
281
     1
  3
Normal
350
21BD
100
AcDbDictionaryWithDefault
340
21BD
  0
DICTIONARY
  5
2238
102
{ACAD_REACTORS
330
21BA
102
}
330
21BA
100
AcDbDictionary
281
     1
  3
DIMASSOC
350
2239
  0
DICTIONARY
  5
2245
102
{ACAD_REACTORS
330
2244
102
}
330
2244
100
AcDbDictionary
281
     1
  0
XRECORD
  5
2227
102
{ACAD_REACTORS
330
21F8
102
}
330
21F8
100
AcDbXrecord
280
     1
340
21CC
  0
XRECORD
  5
2226
102
{ACAD_REACTORS
330
21FA
102
}
330
21FA
100
AcDbXrecord
280
     1
340
21C8
  0
LAYOUT
  5
21CF
102
{ACAD_REACTORS
330
21C7
102
}
330
21C7
100
AcDbPlotSettings
  1

  2
SII LP-2150 (D-SCAN C2)
  4

  6

 40
0.0
 41
0.0
 42
0.0
 43
0.0
 44
0.0
 45
0.0
 46
0.0
 47
0.0
 48
0.0
 49
0.0
140
0.0
141
0.0
142
1.0
143
1.0
 70
  1712
 72
     0
 73
     0
 74
     0
  7

 75
     0
147
1.0
148
0.0
149
0.0
100
AcDbLayout
  1
Model
 70
     1
 71
     0
 10
0.0
 20
0.0
 11
12.0
 21
9.0
 12
0.0
 22
0.0
 32
0.0
 14
0.0
 24
0.0
 34
0.0
 15
0.0
 25
0.0
 35
0.0
146
0.0
 13
0.0
 23
0.0
 33
0.0
 16
1.0
 26
0.0
 36
0.0
 17
0.0
 27
1.0
 37
0.0
 76
     0
330
21CC
  0
LAYOUT
  5
21CB
102
{ACAD_REACTORS
330
21C7
102
}
330
21C7
100
AcDbPlotSettings
  1

  2
SII LP-2150 (D-SCAN C2)
  4

  6

 40
0.0
 41
0.0
 42
0.0
 43
0.0
 44
0.0
 45
0.0
 46
0.0
 47
0.0
 48
0.0
 49
0.0
140
0.0
141
0.0
142
1.0
143
1.0
 70
   688
 72
     0
 73
     0
 74
     5
  7

 75
    16
147
1.0
148
0.0
149
0.0
100
AcDbLayout
  1
ﾚｲｱｳﾄ1
 70
     1
 71
     1
 10
0.0
 20
0.0
 11
12.0
 21
9.0
 12
0.0
 22
0.0
 32
0.0
 14
1.000000000000000E+20
 24
1.000000000000000E+20
 34
1.000000000000000E+20
 15
-1.000000000000000E+20
 25
-1.000000000000000E+20
 35
-1.000000000000000E+20
146
0.0
 13
0.0
 23
0.0
 33
0.0
 16
1.0
 26
0.0
 36
0.0
 17
0.0
 27
1.0
 37
0.0
 76
     0
330
21C8
  0
MLINESTYLE
  5
21C5
102
{ACAD_REACTORS
330
21C4
102
}
330
21C4
100
AcDbMlineStyle
  2
STANDARD
 70
     0
  3

 62
   256
 51
90.0
 52
90.0
 71
     2
 49
0.5
 62
   256
  6
BYLAYER
 49
-0.5
 62
   256
  6
BYLAYER
  0
ACDBPLACEHOLDER
  5
21BD
102
{ACAD_REACTORS
330
21BC
102
}
330
21BC
  0
DICTIONARYVAR
  5
2239
102
{ACAD_REACTORS
330
2238
102
}
330
2238
100
DictionaryVariables
280
     0
  1
1
  0
ENDSEC
  0
EOF
