  0
SECTION
  2
HEADER
  9
$ACADVER
  1
AC1015
  9
$ACADMAINTVER
 70
    14
  9
$DWGCODEPAGE
  3
ANSI_932
  9
$INSBASE
 10
0.0
 20
0.0
 30
0.0
  9
$EXTMIN
 10
-83.27578020971214
 20
-83.30723763789853
 30
-0.0000000000112498
  9
$EXTMAX
 10
788.2342699308253
 20
198.0202979764541
 30
0.0000000000002956
  9
$LIMMIN
 10
0.0
 20
0.0
  9
$LIMMAX
 10
12.0
 20
9.0
  9
$ORTHOMODE
 70
     0
  9
$REGENMODE
 70
     1
  9
$FILLMODE
 70
     1
  9
$QTEXTMODE
 70
     0
  9
$MIRRTEXT
 70
     1
  9
$LTSCALE
 40
1.0
  9
$ATTMODE
 70
     1
  9
$TEXTSIZE
 40
0.2
  9
$TRACEWID
 40
0.05
  9
$TEXTSTYLE
  7
STANDARD
  9
$CLAYER
  8
0
  9
$CELTYPE
  6
CONTINUOUS
  9
$CECOLOR
 62
   256
  9
$CELTSCALE
 40
1.0
  9
$DISPSILH
 70
     0
  9
$DIMSCALE
 40
1.0
  9
$DIMASZ
 40
1.0
  9
$DIMEXO
 40
2.54
  9
$DIMDLI
 40
0.38
  9
$DIMRND
 40
0.0
  9
$DIMDLE
 40
0.0
  9
$DIMEXE
 40
2.54
  9
$DIMTP
 40
0.0
  9
$DIMTM
 40
0.0
  9
$DIMTXT
 40
3.2
  9
$DIMCEN
 40
0.09
  9
$DIMTSZ
 40
0.0
  9
$DIMTOL
 70
     0
  9
$DIMLIM
 70
     0
  9
$DIMTIH
 70
     0
  9
$DIMTOH
 70
     0
  9
$DIMSE1
 70
     0
  9
$DIMSE2
 70
     0
  9
$DIMTAD
 70
     1
  9
$DIMZIN
 70
     0
  9
$DIMBLK
  1

  9
$DIMASO
 70
     1
  9
$DIMSHO
 70
     0
  9
$DIMPOST
  1

  9
$DIMAPOST
  1

  9
$DIMALT
 70
     0
  9
$DIMALTD
 70
     2
  9
$DIMALTF
 40
25.4
  9
$DIMLFAC
 40
1.0
  9
$DIMTOFL
 70
     0
  9
$DIMTVP
 40
1.0
  9
$DIMTIX
 70
     0
  9
$DIMSOXD
 70
     0
  9
$DIMSAH
 70
     1
  9
$DIMBLK1
  1

  9
$DIMBLK2
  1

  9
$DIMSTYLE
  2
STANDARD
  9
$DIMCLRD
 70
     0
  9
$DIMCLRE
 70
     0
  9
$DIMCLRT
 70
     0
  9
$DIMTFAC
 40
1.0
  9
$DIMGAP
 40
1.6
  9
$DIMJUST
 70
     0
  9
$DIMSD1
 70
     0
  9
$DIMSD2
 70
     0
  9
$DIMTOLJ
 70
     1
  9
$DIMTZIN
 70
     0
  9
$DIMALTZ
 70
     0
  9
$DIMALTTZ
 70
     0
  9
$DIMUPT
 70
     0
  9
$DIMDEC
 70
     4
  9
$DIMTDEC
 70
     4
  9
$DIMALTU
 70
     2
  9
$DIMALTTD
 70
     2
  9
$DIMTXSTY
  7
STANDARD
  9
$DIMAUNIT
 70
     0
  9
$DIMADEC
 70
     0
  9
$DIMALTRND
 40
0.0
  9
$DIMAZIN
 70
     0
  9
$DIMDSEP
 70
    46
  9
$DIMATFIT
 70
     3
  9
$DIMFRAC
 70
     0
  9
$DIMLDRBLK
  1

  9
$DIMLUNIT
 70
     2
  9
$DIMLWD
 70
    -2
  9
$DIMLWE
 70
    -2
  9
$DIMTMOVE
 70
     0
  9
$LUNITS
 70
     2
  9
$LUPREC
 70
     4
  9
$SKETCHINC
 40
0.1
  9
$FILLETRAD
 40
0.0
  9
$AUNITS
 70
     0
  9
$AUPREC
 70
     0
  9
$MENU
  1
.
  9
$ELEVATION
 40
0.0
  9
$PELEVATION
 40
0.0
  9
$THICKNESS
 40
0.0
  9
$LIMCHECK
 70
     0
  9
$CHAMFERA
 40
0.0
  9
$CHAMFERB
 40
0.0
  9
$CHAMFERC
 40
0.0
  9
$CHAMFERD
 40
0.0
  9
$SKPOLY
 70
     0
  9
$TDCREATE
 40
2452488.423138738
  9
$TDUCREATE
 40
2452488.048138738
  9
$TDUPDATE
 40
2456906.720946689
  9
$TDUUPDATE
 40
2456906.345946689
  9
$TDINDWG
 40
0.2846686574
  9
$TDUSRTIMER
 40
0.2846684722
  9
$USRTIMER
 70
     1
  9
$ANGBASE
 50
0.0
  9
$ANGDIR
 70
     0
  9
$PDMODE
 70
     3
  9
$PDSIZE
 40
0.0
  9
$PLINEWID
 40
0.0
  9
$SPLFRAME
 70
     0
  9
$SPLINETYPE
 70
     6
  9
$SPLINESEGS
 70
     8
  9
$HANDSEED
  5
3E6B
  9
$SURFTAB1
 70
     6
  9
$SURFTAB2
 70
     6
  9
$SURFTYPE
 70
     6
  9
$SURFU
 70
     6
  9
$SURFV
 70
     6
  9
$UCSBASE
  2

  9
$UCSNAME
  2

  9
$UCSORG
 10
0.0
 20
0.0
 30
0.0
  9
$UCSXDIR
 10
1.0
 20
0.0
 30
0.0
  9
$UCSYDIR
 10
0.0
 20
1.0
 30
0.0
  9
$UCSORTHOREF
  2

  9
$UCSORTHOVIEW
 70
     0
  9
$UCSORGTOP
 10
0.0
 20
0.0
 30
0.0
  9
$UCSORGBOTTOM
 10
0.0
 20
0.0
 30
0.0
  9
$UCSORGLEFT
 10
0.0
 20
0.0
 30
0.0
  9
$UCSORGRIGHT
 10
0.0
 20
0.0
 30
0.0
  9
$UCSORGFRONT
 10
0.0
 20
0.0
 30
0.0
  9
$UCSORGBACK
 10
0.0
 20
0.0
 30
0.0
  9
$PUCSBASE
  2

  9
$PUCSNAME
  2

  9
$PUCSORG
 10
0.0
 20
0.0
 30
0.0
  9
$PUCSXDIR
 10
1.0
 20
0.0
 30
0.0
  9
$PUCSYDIR
 10
0.0
 20
1.0
 30
0.0
  9
$PUCSORTHOREF
  2

  9
$PUCSORTHOVIEW
 70
     0
  9
$PUCSORGTOP
 10
0.0
 20
0.0
 30
0.0
  9
$PUCSORGBOTTOM
 10
0.0
 20
0.0
 30
0.0
  9
$PUCSORGLEFT
 10
0.0
 20
0.0
 30
0.0
  9
$PUCSORGRIGHT
 10
0.0
 20
0.0
 30
0.0
  9
$PUCSORGFRONT
 10
0.0
 20
0.0
 30
0.0
  9
$PUCSORGBACK
 10
0.0
 20
0.0
 30
0.0
  9
$USERI1
 70
     0
  9
$USERI2
 70
     0
  9
$USERI3
 70
     0
  9
$USERI4
 70
     0
  9
$USERI5
 70
     0
  9
$USERR1
 40
0.0
  9
$USERR2
 40
0.0
  9
$USERR3
 40
0.0
  9
$USERR4
 40
0.0
  9
$USERR5
 40
0.0
  9
$WORLDVIEW
 70
     1
  9
$SHADEDGE
 70
     3
  9
$SHADEDIF
 70
    70
  9
$TILEMODE
 70
     1
  9
$MAXACTVP
 70
    48
  9
$PINSBASE
 10
0.0
 20
0.0
 30
0.0
  9
$PLIMCHECK
 70
     0
  9
$PEXTMIN
 10
1.000000000000000E+20
 20
1.000000000000000E+20
 30
1.000000000000000E+20
  9
$PEXTMAX
 10
-1.000000000000000E+20
 20
-1.000000000000000E+20
 30
-1.000000000000000E+20
  9
$PLIMMIN
 10
0.0
 20
0.0
  9
$PLIMMAX
 10
12.0
 20
9.0
  9
$UNITMODE
 70
     0
  9
$VISRETAIN
 70
     1
  9
$PLINEGEN
 70
     0
  9
$PSLTSCALE
 70
     1
  9
$TREEDEPTH
 70
  3020
  9
$CMLSTYLE
  2
Standard
  9
$CMLJUST
 70
     0
  9
$CMLSCALE
 40
1.0
  9
$PROXYGRAPHICS
 70
     1
  9
$MEASUREMENT
 70
     0
  9
$CELWEIGHT
370
    -1
  9
$ENDCAPS
280
     0
  9
$JOINSTYLE
280
     0
  9
$LWDISPLAY
290
     0
  9
$INSUNITS
 70
     0
  9
$HYPERLINKBASE
  1

  9
$STYLESHEET
  1

  9
$XEDIT
290
     1
  9
$CEPSNTYPE
380
     0
  9
$PSTYLEMODE
290
     1
  9
$FINGERPRINTGUID
  2
{FFE95C04-33D2-4560-80D0-1E2918E4EC86}
  9
$VERSIONGUID
  2
{A6A7F5C1-8D19-48DB-81BE-9EE3A30939FF}
  9
$EXTNAMES
290
     1
  9
$PSVPSCALE
 40
0.0
  9
$OLESTARTUP
290
     0
  0
ENDSEC
  0
SECTION
  2
CLASSES
  0
CLASS
  1
ACDBDICTIONARYWDFLT
  2
AcDbDictionaryWithDefault
  3
AutoCAD 2000
 90
        0
280
     0
281
     0
  0
CLASS
  1
ACDBPLACEHOLDER
  2
AcDbPlaceHolder
  3
AutoCAD 2000
 90
        0
280
     0
281
     0
  0
CLASS
  1
LAYOUT
  2
AcDbLayout
  3
AutoCAD 2000
 90
        0
280
     0
281
     0
  0
CLASS
  1
DICTIONARYVAR
  2
AcDbDictionaryVar
  3
AutoCAD 2000
 90
        0
280
     0
281
     0
  0
CLASS
  1
LONG_TRANSACTION
  2
AcDbLongTransaction
  3
AutoCAD 2000
 90
    32768
280
     0
281
     0
  0
CLASS
  1
LWPOLYLINE
  2
AcDbPolyline
  3
AutoCAD 2000
 90
    32768
280
     0
281
     1
  0
CLASS
  1
HATCH
  2
AcDbHatch
  3
AutoCAD 2000
 90
    32768
280
     0
281
     1
  0
CLASS
  1
XRECORD
  2
AcDbXrecord
  3
AutoCAD 2000
 90
    32768
280
     0
281
     0
  0
ENDSEC
  0
SECTION
  2
TABLES
  0
TABLE
  2
VPORT
  5
21B6
330
0
100
AcDbSymbolTable
 70
     2
  0
VPORT
  5
3E6A
330
21B6
100
AcDbSymbolTableRecord
100
AcDbViewportTableRecord
  2
*Active
 70
     0
 10
0.0
 20
0.0
 11
1.0
 21
1.0
 12
352.4792448605566
 22
57.35653016927776
 13
0.0
 23
0.0
 14
1.0
 24
1.0
 15
0.0
 25
0.0
 16
0.0
 26
0.0
 36
1.0
 17
0.0
 27
0.0
 37
0.0
 40
447.6028039695286
 41
1.953389830508474
 42
50.0
 43
0.0
 44
0.0
 50
0.0
 51
0.0
 71
     0
 72
   100
 73
     1
 74
     3
 75
     0
 76
     0
 77
     0
 78
     0
281
     0
 65
     1
110
0.0
120
0.0
130
0.0
111
1.0
121
0.0
131
0.0
112
0.0
122
1.0
132
0.0
 79
     0
146
0.0
  0
ENDTAB
  0
TABLE
  2
LTYPE
  5
21B3
330
0
100
AcDbSymbolTable
 70
     2
  0
LTYPE
  5
21C1
330
21B3
100
AcDbSymbolTableRecord
100
AcDbLinetypeTableRecord
  2
ByBlock
 70
     0
  3

 72
    65
 73
     0
 40
0.0
  0
LTYPE
  5
21C2
330
21B3
100
AcDbSymbolTableRecord
100
AcDbLinetypeTableRecord
  2
ByLayer
 70
     0
  3

 72
    65
 73
     0
 40
0.0
  0
LTYPE
  5
21C3
330
21B3
100
AcDbSymbolTableRecord
100
AcDbLinetypeTableRecord
  2
CONTINUOUS
 70
     0
  3
Solid line
 72
    65
 73
     0
 40
0.0
  0
LTYPE
  5
21D1
330
21B3
100
AcDbSymbolTableRecord
100
AcDbLinetypeTableRecord
  2
CENTER
 70
     0
  3
__ . __
 72
    65
 73
     4
 40
7.0
 49
4.0
 74
     0
 49
-1.0
 74
     0
 49
1.0
 74
     0
 49
-1.0
 74
     0
  0
ENDTAB
  0
TABLE
  2
LAYER
  5
21B0
102
{ACAD_XDICTIONARY
360
2244
102
}
330
0
100
AcDbSymbolTable
 70
     1
  0
LAYER
  5
21BE
330
21B0
100
AcDbSymbolTableRecord
100
AcDbLayerTableRecord
  2
0
 70
     0
 62
     7
  6
CONTINUOUS
370
    -3
390
21BD
  0
ENDTAB
  0
TABLE
  2
STYLE
  5
21B1
330
0
100
AcDbSymbolTable
 70
     1
  0
STYLE
  5
21BF
330
21B1
100
AcDbSymbolTableRecord
100
AcDbTextStyleTableRecord
  2
STANDARD
 70
     0
 40
0.0
 41
1.0
 50
0.0
 71
     0
 42
0.2
  3
txt
  4
BIGFONT
  0
ENDTAB
  0
TABLE
  2
VIEW
  5
21B4
330
0
100
AcDbSymbolTable
 70
     1
  0
VIEW
  5
21DE
330
21B4
100
AcDbSymbolTableRecord
100
AcDbViewTableRecord
  2
OLE1
 70
     0
 40
3692.141019219747
 10
1914.591370701856
 20
1272.206200738182
 41
4595.022665841169
 11
0.0
 21
0.0
 31
1.0
 12
0.0
 22
0.0
 32
0.0
 42
50.0
 43
0.0
 44
0.0
 50
0.0
 71
     0
281
     0
 72
     1
110
0.0
120
0.0
130
0.0
111
1.0
121
0.0
131
0.0
112
0.0
122
1.0
132
0.0
 79
     0
146
0.0
  0
ENDTAB
  0
TABLE
  2
UCS
  5
21B5
330
0
100
AcDbSymbolTable
 70
     0
  0
ENDTAB
  0
TABLE
  2
APPID
  5
21B7
330
0
100
AcDbSymbolTable
 70
     8
  0
APPID
  5
21C0
330
21B7
100
AcDbSymbolTableRecord
100
AcDbRegAppTableRecord
  2
ACAD
 70
     0
  0
APPID
  5
21DF
330
21B7
100
AcDbSymbolTableRecord
100
AcDbRegAppTableRecord
  2
MCAD_NO_VIS
 70
     0
  0
APPID
  5
21E0
330
21B7
100
AcDbSymbolTableRecord
100
AcDbRegAppTableRecord
  2
ACAD_TEMP_GRAPHIC
 70
     0
  0
APPID
  5
21E1
330
21B7
100
AcDbSymbolTableRecord
100
AcDbRegAppTableRecord
  2
ACATTRIBSERVICES
 70
     0
  0
APPID
  5
21E2
330
21B7
100
AcDbSymbolTableRecord
100
AcDbRegAppTableRecord
  2
CONTENTBLOCKICON
 70
     0
  0
APPID
  5
2241
330
21B7
100
AcDbSymbolTableRecord
100
AcDbRegAppTableRecord
  2
ACAD_DSTYLE_DIMJAG
 70
     0
  0
APPID
  5
2242
330
21B7
100
AcDbSymbolTableRecord
100
AcDbRegAppTableRecord
  2
ACAD_DSTYLE_DIMTALN
 70
     0
  0
APPID
  5
2243
330
21B7
100
AcDbSymbolTableRecord
100
AcDbRegAppTableRecord
  2
ACAD_PSEXT
 70
     0
  0
ENDTAB
  0
TABLE
  2
DIMSTYLE
  5
21B8
330
0
100
AcDbSymbolTable
 70
     1
100
AcDbDimStyleTable
 71
     0
  0
DIMSTYLE
105
21E3
330
21B8
100
AcDbSymbolTableRecord
100
AcDbDimStyleTableRecord
  2
STANDARD
 70
     0
279
     2
340
21BF
  0
ENDTAB
  0
TABLE
  2
BLOCK_RECORD
  5
21AF
330
0
100
AcDbSymbolTable
 70
     0
  0
BLOCK_RECORD
  5
21CC
102
{ACAD_XDICTIONARY
360
21F8
102
}
330
21AF
100
AcDbSymbolTableRecord
100
AcDbBlockTableRecord
  2
*Model_Space
340
21CF
  0
BLOCK_RECORD
  5
21C8
102
{ACAD_XDICTIONARY
360
21FA
102
}
330
21AF
100
AcDbSymbolTableRecord
100
AcDbBlockTableRecord
  2
*Paper_Space
340
21CB
  0
ENDTAB
  0
ENDSEC
  0
SECTION
  2
BLOCKS
  0
BLOCK
  5
21CD
330
21CC
100
AcDbEntity
  8
0
100
AcDbBlockBegin
  2
*Model_Space
 70
     0
 10
0.0
 20
0.0
 30
0.0
  3
*Model_Space
  1

  0
ENDBLK
  5
21CE
330
21CC
100
AcDbEntity
  8
0
100
AcDbBlockEnd
  0
BLOCK
  5
21C9
330
21C8
100
AcDbEntity
 67
     1
  8
0
100
AcDbBlockBegin
  2
*Paper_Space
 70
     0
 10
0.0
 20
0.0
 30
0.0
  3
*Paper_Space
  1

  0
ENDBLK
  5
21CA
330
21C8
100
AcDbEntity
 67
     1
  8
0
100
AcDbBlockEnd
  0
ENDSEC
  0
SECTION
  2
ENTITIES
  0
TEXT
  5
F6E
330
21CC
100
AcDbEntity
  8
0
  6
Continuous
100
AcDbText
 10
0.0
 20
150.0
 30
0.0
 40
48.000002
  1
STS 2.5S
 41
1.32095
100
AcDbText
  0
LINE
  5
391E
330
21CC
100
AcDbEntity
  8
0
100
AcDbLine
 10
771.160492258504
 20
-38.75
 30
0.0
 11
773.082191009986
 21
-38.75
 31
0.0
  0
LINE
  5
391F
330
21CC
100
AcDbEntity
  8
0
100
AcDbLine
 10
768.5315170099859
 20
-33.06597999999985
 30
0.0
 11
770.408737933599
 21
-38.22361548747585
 31
0.0
  0
LINE
  5
3920
330
21CC
100
AcDbEntity
  8
0
100
AcDbLine
 10
748.0821870099855
 20
-31.75001999999995
 30
0.0
 11
766.6521370099856
 21
-31.75001999999995
 31
0.0
  0
LINE
  5
3921
330
21CC
100
AcDbEntity
  8
0
100
AcDbLine
 10
768.0525270099863
 20
31.32537407782911
 30
0.0
 11
768.0525270099863
 21
-31.32537407782911
 31
0.0
  0
LINE
  5
3922
330
21CC
100
AcDbEntity
  8
0
100
AcDbLine
 10
770.5821290099859
 20
36.36095590951072
 30
0.0
 11
770.5821290099859
 21
-36.36095590951026
 31
0.0
  0
LINE
  5
3923
330
21CC
100
AcDbEntity
  8
0
100
AcDbLine
 10
748.0821070099857
 20
-31.7500399999999
 30
0.0
 11
638.0820670099858
 21
-50.80004000000008
 31
0.0
  0
LINE
  5
3924
330
21CC
100
AcDbEntity
  8
0
100
AcDbLine
 10
638.0821870099855
 20
50.80000000000018
 30
0.0
 11
638.0821870099855
 21
-50.79999999999973
 31
0.0
  0
LINE
  5
3925
330
21CC
100
AcDbEntity
  8
0
100
AcDbLine
 10
748.0821870099855
 20
31.75001999999995
 30
0.0
 11
748.0821870099855
 21
-31.75001999999995
 31
0.0
  0
LINE
  5
3926
330
21CC
100
AcDbEntity
  8
0
100
AcDbLine
 10
748.0821870099855
 20
-31.75001999999995
 30
0.0
 11
638.0820670099858
 21
-50.80004000000008
 31
0.0
  0
ARC
  5
3927
330
21CC
100
AcDbEntity
  8
0
100
AcDbCircle
 10
766.6521370099856
 20
-33.75001999999994
 30
0.0
 40
2.0
100
AcDbArc
 50
19.99979999998803
 51
90.0
  0
LINE
  5
3928
330
21CC
100
AcDbEntity
  8
0
100
AcDbLine
 10
173.0821870099857
 20
38.75
 30
0.0
 11
173.0821870099857
 21
-38.75
 31
0.0
  0
LINE
  5
3929
330
21CC
100
AcDbEntity
  8
0
100
AcDbLine
 10
173.0821870099857
 20
-38.75
 30
0.0
 11
175.372047009986
 21
-38.75
 31
0.0
  0
LINE
  5
392A
330
21CC
100
AcDbEntity
  8
0
100
AcDbLine
 10
176.1237870099857
 20
-38.22361
 30
0.0
 11
178.0010170099858
 21
-33.0659599999999
 31
0.0
  0
LINE
  5
392B
330
21CC
100
AcDbEntity
  8
0
100
AcDbLine
 10
179.8804070099859
 20
-31.75
 30
0.0
 11
198.0821870099857
 21
-31.75
 31
0.0
  0
ARC
  5
392C
330
21CC
100
AcDbEntity
  8
0
100
AcDbCircle
 10
175.372047009986
 20
-37.94999999999982
 30
0.0
 40
0.8000000099999999
100
AcDbArc
 50
270.0
 51
339.9998499999954
  0
ARC
  5
392D
330
21CC
100
AcDbEntity
  8
0
100
AcDbCircle
 10
179.8804070099859
 20
-33.75
 30
0.0
 40
2.0
100
AcDbArc
 50
90.0
 51
159.9999900000083
  0
LINE
  5
392E
330
21CC
100
AcDbEntity
  8
0
100
AcDbLine
 10
220.5822170099854
 20
-50.79999999999973
 30
0.0
 11
638.0823070099861
 21
-50.79999999999973
 31
0.0
  0
ARC
  5
392F
330
21CC
100
AcDbEntity
  8
0
100
AcDbCircle
 10
771.160492258504
 20
-37.94999999999982
 30
0.0
 40
0.8
100
AcDbArc
 50
199.9999521984295
 51
270.0
  0
LINE
  5
3930
330
21CC
100
AcDbEntity
  8
0
100
AcDbLine
 10
773.082191009986
 20
38.75
 30
0.0
 11
773.082191009986
 21
-38.75
 31
0.0
  0
LINE
  5
3931
330
21CC
100
AcDbEntity
  8
0
  6
CENTER
100
AcDbLine
 10
153.0821870099857
 20
0.0
 30
0.0
 11
788.2057410099862
 21
0.0
 31
0.0
  0
LINE
  5
39CF
330
21CC
100
AcDbEntity
  8
0
100
AcDbLine
 10
771.160492258504
 20
38.75
 30
0.0
 11
773.082191009986
 21
38.75
 31
0.0
  0
LINE
  5
39D0
330
21CC
100
AcDbEntity
  8
0
100
AcDbLine
 10
768.5315170099859
 20
33.06598000000008
 30
0.0
 11
770.408737933599
 21
38.22361548747608
 31
0.0
  0
LINE
  5
39D1
330
21CC
100
AcDbEntity
  8
0
100
AcDbLine
 10
748.0821870099855
 20
31.75001999999995
 30
0.0
 11
766.6521370099856
 21
31.75001999999995
 31
0.0
  0
LINE
  5
39D2
330
21CC
100
AcDbEntity
  8
0
100
AcDbLine
 10
748.0821070099857
 20
31.75004000000012
 30
0.0
 11
638.0820670099858
 21
50.80004000000008
 31
0.0
  0
LINE
  5
39D3
330
21CC
100
AcDbEntity
  8
0
100
AcDbLine
 10
748.0821870099855
 20
31.75001999999995
 30
0.0
 11
638.0820670099858
 21
50.80004000000008
 31
0.0
  0
ARC
  5
39D4
330
21CC
100
AcDbEntity
  8
0
100
AcDbCircle
 10
766.6521370099856
 20
33.75001999999994
 30
0.0
 40
2.0
100
AcDbArc
 50
270.0
 51
340.000199999999
  0
LINE
  5
39D5
330
21CC
100
AcDbEntity
  8
0
100
AcDbLine
 10
173.0821870099857
 20
38.75
 30
0.0
 11
175.372047009986
 21
38.75
 31
0.0
  0
LINE
  5
39D6
330
21CC
100
AcDbEntity
  8
0
100
AcDbLine
 10
176.1237870099857
 20
38.22361
 30
0.0
 11
178.0010170099858
 21
33.06596000000013
 31
0.0
  0
LINE
  5
39D7
330
21CC
100
AcDbEntity
  8
0
100
AcDbLine
 10
179.8804070099859
 20
31.75
 30
0.0
 11
198.0821870099857
 21
31.75
 31
0.0
  0
ARC
  5
39D8
330
21CC
100
AcDbEntity
  8
0
100
AcDbCircle
 10
175.372047009986
 20
37.95000000000027
 30
0.0
 40
0.8000000099999999
100
AcDbArc
 50
20.00015000000459
 51
90.0
  0
ARC
  5
39D9
330
21CC
100
AcDbEntity
  8
0
100
AcDbCircle
 10
179.8804070099859
 20
33.75
 30
0.0
 40
2.0
100
AcDbArc
 50
200.0000099999915
 51
270.0
  0
LINE
  5
39DA
330
21CC
100
AcDbEntity
  8
0
100
AcDbLine
 10
220.5822170099854
 20
50.80000000000018
 30
0.0
 11
638.0823070099861
 21
50.80000000000018
 31
0.0
  0
ARC
  5
39DB
330
21CC
100
AcDbEntity
  8
0
100
AcDbCircle
 10
771.160492258504
 20
37.95000000000027
 30
0.0
 40
0.8
100
AcDbArc
 50
90.0
 51
160.0000478015704
  0
LINE
  5
39F8
330
21CC
100
AcDbEntity
  8
0
100
AcDbLine
 10
81.99997000000029
 20
14.0
 30
0.0
 11
81.99997000000029
 21
5.0
 31
0.0
  0
LINE
  5
39F9
330
21CC
100
AcDbEntity
  8
0
100
AcDbLine
 10
81.99997000000029
 20
-5.0
 30
0.0
 11
81.99997000000029
 21
-14.00000000000045
 31
0.0
  0
ARC
  5
39FA
330
21CC
100
AcDbEntity
  8
0
100
AcDbCircle
 10
80.9999700000003
 20
-14.00000000000045
 30
0.0
 40
1.0
100
AcDbArc
 50
270.0
 51
0.0
  0
LINE
  5
39FB
330
21CC
100
AcDbEntity
  8
0
100
AcDbLine
 10
78.99997000000031
 20
4.0
 30
0.0
 11
78.99997000000031
 21
-4.0
 31
0.0
  0
LINE
  5
39FC
330
21CC
100
AcDbEntity
  8
0
100
AcDbLine
 10
78.99997000000031
 20
-29.46796919243115
 30
0.0
 11
78.99997000000031
 21
-39.42822999999998
 31
0.0
  0
LINE
  5
39FD
330
21CC
100
AcDbEntity
  8
0
100
AcDbLine
 10
70.9999700000003
 20
4.0
 30
0.0
 11
70.9999700000003
 21
-4.0
 31
0.0
  0
LINE
  5
39FE
330
21CC
100
AcDbEntity
  8
0
100
AcDbLine
 10
70.9999700000003
 20
-29.46796919243115
 30
0.0
 11
70.9999700000003
 21
-39.42822999999998
 31
0.0
  0
LINE
  5
39FF
330
21CC
100
AcDbEntity
  8
0
100
AcDbLine
 10
69.9999700000003
 20
-43.00003000000015
 30
0.0
 11
69.9999700000003
 21
-31.20002000000022
 31
0.0
  0
LINE
  5
3A00
330
21CC
100
AcDbEntity
  8
0
100
AcDbLine
 10
79.9999700000003
 20
-43.00003000000015
 30
0.0
 11
79.9999700000003
 21
-31.20002000000022
 31
0.0
  0
LINE
  5
3A01
330
21CC
100
AcDbEntity
  8
0
100
AcDbLine
 10
67.2499700000003
 20
-27.20002000000022
 30
0.0
 11
67.2499700000003
 21
-17.90003000000024
 31
0.0
  0
LINE
  5
3A02
330
21CC
100
AcDbEntity
  8
0
100
AcDbLine
 10
82.74997000000031
 20
-27.20002000000022
 30
0.0
 11
82.74997000000031
 21
-17.90003000000024
 31
0.0
  0
LINE
  5
3A03
330
21CC
100
AcDbEntity
  8
0
100
AcDbLine
 10
88.93930000000001
 20
-52.00003000000015
 30
0.0
 11
61.0606700000003
 21
-52.00003000000015
 31
0.0
  0
LINE
  5
3A04
330
21CC
100
AcDbEntity
  8
0
100
AcDbLine
 10
80.9999700000003
 20
-4.0
 30
0.0
 11
59.08679000000029
 21
-4.0
 31
0.0
  0
LINE
  5
3A05
330
21CC
100
AcDbEntity
  8
0
  6
CENTER
100
AcDbLine
 10
83.23165500000005
 20
0.0
 30
0.0
 11
-83.23165500000005
 21
0.0
 31
0.0
  0
LINE
  5
3A06
330
21CC
100
AcDbEntity
  8
0
100
AcDbLine
 10
220.5822170099854
 20
-59.49999000000025
 30
0.0
 11
220.5822170099854
 21
6.399989999999888
 31
0.0
  0
LINE
  5
3A07
330
21CC
100
AcDbEntity
  8
0
100
AcDbLine
 10
201.5822170099854
 20
-59.5000500000001
 30
0.0
 11
201.5822170099854
 21
6.266290000000026
 31
0.0
  0
LINE
  5
3A08
330
21CC
100
AcDbEntity
  8
0
100
AcDbLine
 10
216.1366370099853
 20
67.49998899999991
 30
0.0
 11
206.0278070099852
 21
67.49998899999991
 31
0.0
  0
LINE
  5
3A09
330
21CC
100
AcDbEntity
  8
0
100
AcDbLine
 10
220.5822170099854
 20
4.0
 30
0.0
 11
215.3322170099854
 21
4.0
 31
0.0
  0
LINE
  5
3A0A
330
21CC
100
AcDbEntity
  8
0
100
AcDbLine
 10
220.5822170099854
 20
15.0
 30
0.0
 11
215.3322170099854
 21
15.0
 31
0.0
  0
LINE
  5
3A0B
330
21CC
100
AcDbEntity
  8
0
100
AcDbLine
 10
206.8322170099854
 20
4.0
 30
0.0
 11
201.8322170099854
 21
4.0
 31
0.0
  0
LINE
  5
3A0C
330
21CC
100
AcDbEntity
  8
0
100
AcDbLine
 10
216.1366370099853
 20
-67.50003000000015
 30
0.0
 11
206.0278070099852
 21
-67.50003000000015
 31
0.0
  0
LINE
  5
3A0D
330
21CC
100
AcDbEntity
  8
0
100
AcDbLine
 10
80.9999700000003
 20
4.0
 30
0.0
 11
59.08679000000029
 21
4.0
 31
0.0
  0
LINE
  5
3A0E
330
21CC
100
AcDbEntity
  8
0
100
AcDbLine
 10
80.9999700000003
 20
15.0
 30
0.0
 11
67.38876000000027
 21
15.0
 31
0.0
  0
LINE
  5
3A0F
330
21CC
100
AcDbEntity
  8
0
100
AcDbLine
 10
201.6162970099853
 20
-59.62719000000015
 30
0.0
 11
203.1300170099853
 21
-65.27647000000024
 31
0.0
  0
LINE
  5
3A10
330
21CC
100
AcDbEntity
  8
0
100
AcDbLine
 10
220.5481470099853
 20
-59.62717999999995
 30
0.0
 11
219.0344170099856
 21
-65.27647000000024
 31
0.0
  0
LINE
  5
3A11
330
21CC
100
AcDbEntity
  8
0
100
AcDbLine
 10
219.0344170099856
 20
65.27644099999998
 30
0.0
 11
220.5481370099855
 21
59.6271499999998
 31
0.0
  0
LINE
  5
3A12
330
21CC
100
AcDbEntity
  8
0
100
AcDbLine
 10
203.7258070099856
 20
15.0
 30
0.0
 11
203.7258070099856
 21
64.98863600000004
 31
0.0
  0
LINE
  5
3A13
330
21CC
100
AcDbEntity
  8
0
100
AcDbLine
 10
218.4386370099855
 20
15.0
 30
0.0
 11
218.4386370099855
 21
65.30692700000009
 31
0.0
  0
LINE
  5
3A14
330
21CC
100
AcDbEntity
  8
0
100
AcDbLine
 10
206.5823370099856
 20
-11.28501000000005
 30
0.0
 11
203.6057070099855
 21
-14.6613299999999
 31
0.0
  0
LINE
  5
3A15
330
21CC
100
AcDbEntity
  8
0
100
AcDbLine
 10
215.5820970099853
 20
-11.2850400000002
 30
0.0
 11
218.5587170099856
 21
-14.66136000000005
 31
0.0
  0
LINE
  5
3A16
330
21CC
100
AcDbEntity
  8
0
100
AcDbLine
 10
209.2322470099857
 20
-52.0
 30
0.0
 11
212.9322270099855
 21
-52.0
 31
0.0
  0
LINE
  5
3A17
330
21CC
100
AcDbEntity
  8
0
100
AcDbLine
 10
208.2322470099857
 20
-51.0
 30
0.0
 11
208.2322470099857
 21
-31.20002000000022
 31
0.0
  0
LINE
  5
3A18
330
21CC
100
AcDbEntity
  8
0
100
AcDbLine
 10
202.8555970099855
 20
-15.0
 30
0.0
 11
201.8322170099854
 21
-15.0
 31
0.0
  0
LINE
  5
3A19
330
21CC
100
AcDbEntity
  8
0
100
AcDbLine
 10
206.8322170099854
 20
-4.0
 30
0.0
 11
201.8322170099854
 21
-4.0
 31
0.0
  0
LINE
  5
3A1A
330
21CC
100
AcDbEntity
  8
0
100
AcDbLine
 10
206.8322170099854
 20
4.0
 30
0.0
 11
206.8322170099854
 21
15.0
 31
0.0
  0
LINE
  5
3A1B
330
21CC
100
AcDbEntity
  8
0
100
AcDbLine
 10
206.8322170099854
 20
15.0
 30
0.0
 11
201.8322170099854
 21
15.0
 31
0.0
  0
LINE
  5
3A1C
330
21CC
100
AcDbEntity
  8
0
100
AcDbLine
 10
206.8322170099854
 20
-10.62368999999989
 30
0.0
 11
206.8322170099854
 21
-4.0
 31
0.0
  0
LINE
  5
3A1D
330
21CC
100
AcDbEntity
  8
0
100
AcDbLine
 10
207.0822170099854
 20
-12.0
 30
0.0
 11
207.0822170099854
 21
14.42819000000008
 31
0.0
  0
LINE
  5
3A1E
330
21CC
100
AcDbEntity
  8
0
100
AcDbLine
 10
207.0822170099854
 20
-39.42822999999998
 30
0.0
 11
207.0822170099854
 21
-29.38961999999992
 31
0.0
  0
LINE
  5
3A1F
330
21CC
100
AcDbEntity
  8
0
100
AcDbLine
 10
203.3322170099854
 20
-27.20002000000022
 30
0.0
 11
203.3322170099854
 21
-17.90000000000009
 31
0.0
  0
LINE
  5
3A20
330
21CC
100
AcDbEntity
  8
0
100
AcDbLine
 10
205.3322170099854
 20
-29.20002000000022
 30
0.0
 11
216.8322170099854
 21
-29.20002000000022
 31
0.0
  0
LINE
  5
3A21
330
21CC
100
AcDbEntity
  8
0
100
AcDbLine
 10
206.0570470099855
 20
-12.0
 30
0.0
 11
216.1074270099852
 21
-12.0
 31
0.0
  0
LINE
  5
3A22
330
21CC
100
AcDbEntity
  8
0
100
AcDbLine
 10
220.3322170099854
 20
12.5999999999999
 30
0.0
 11
220.8322170099854
 21
12.5999999999999
 31
0.0
  0
LINE
  5
3A23
330
21CC
100
AcDbEntity
  8
0
100
AcDbLine
 10
220.3322170099854
 20
6.399989999999888
 30
0.0
 11
220.8322170099854
 21
6.399989999999888
 31
0.0
  0
LINE
  5
3A24
330
21CC
100
AcDbEntity
  8
0
100
AcDbLine
 10
213.9322270099855
 20
-51.0
 30
0.0
 11
213.9322270099855
 21
-31.20002000000022
 31
0.0
  0
LINE
  5
3A25
330
21CC
100
AcDbEntity
  8
0
100
AcDbLine
 10
219.3088470099855
 20
-15.0
 30
0.0
 11
220.3322170099854
 21
-15.0
 31
0.0
  0
LINE
  5
3A26
330
21CC
100
AcDbEntity
  8
0
100
AcDbLine
 10
215.3322170099854
 20
-4.0
 30
0.0
 11
220.3322170099854
 21
-4.0
 31
0.0
  0
LINE
  5
3A27
330
21CC
100
AcDbEntity
  8
0
100
AcDbLine
 10
215.3322170099854
 20
4.0
 30
0.0
 11
215.3322170099854
 21
15.0
 31
0.0
  0
LINE
  5
3A28
330
21CC
100
AcDbEntity
  8
0
100
AcDbLine
 10
215.3322170099854
 20
-10.62368999999989
 30
0.0
 11
215.3322170099854
 21
-4.0
 31
0.0
  0
LINE
  5
3A29
330
21CC
100
AcDbEntity
  8
0
100
AcDbLine
 10
215.0822170099854
 20
-12.0
 30
0.0
 11
215.0822170099854
 21
14.42819000000008
 31
0.0
  0
LINE
  5
3A2A
330
21CC
100
AcDbEntity
  8
0
100
AcDbLine
 10
215.0822170099854
 20
-39.42822999999998
 30
0.0
 11
215.0822170099854
 21
-29.38961999999992
 31
0.0
  0
LINE
  5
3A2B
330
21CC
100
AcDbEntity
  8
0
100
AcDbLine
 10
218.8322170099854
 20
-27.20002000000022
 30
0.0
 11
218.8322170099854
 21
-17.90000000000009
 31
0.0
  0
LINE
  5
3A2C
330
21CC
100
AcDbEntity
  8
0
100
AcDbLine
 10
218.4386370099855
 20
-28.39141999999992
 30
0.0
 11
218.4386370099855
 21
-65.39607999999998
 31
0.0
  0
LINE
  5
3A2D
330
21CC
100
AcDbEntity
  8
0
100
AcDbLine
 10
203.7258070099856
 20
-28.39141999999992
 30
0.0
 11
203.7258070099856
 21
-65.39607999999998
 31
0.0
  0
LINE
  5
3A2E
330
21CC
100
AcDbEntity
  8
0
100
AcDbLine
 10
67.38876000000027
 20
-15.0
 30
0.0
 11
80.9999700000003
 21
-15.00000000000045
 31
0.0
  0
LINE
  5
3A2F
330
21CC
100
AcDbEntity
  8
0
  6
CENTER
100
AcDbLine
 10
0.0
 20
77.14186999999992
 30
0.0
 11
0.0
 21
-77.14186999999992
 31
0.0
  0
LINE
  5
3A30
330
21CC
100
AcDbEntity
  8
0
100
AcDbLine
 10
221.3322170099854
 20
6.899989999999888
 30
0.0
 11
221.3322170099854
 21
12.09999999999991
 31
0.0
  0
LINE
  5
3A31
330
21CC
100
AcDbEntity
  8
0
100
AcDbLine
 10
221.5822170099854
 20
55.72604999999976
 30
0.0
 11
221.5822170099854
 21
60.92605999999978
 31
0.0
  0
LINE
  5
3A32
330
21CC
100
AcDbEntity
  8
0
100
AcDbLine
 10
220.0822170099854
 20
61.42605999999978
 30
0.0
 11
221.0822170099854
 21
61.42605999999978
 31
0.0
  0
LINE
  5
3A33
330
21CC
100
AcDbEntity
  8
0
100
AcDbLine
 10
220.5822170099854
 20
55.22604999999976
 30
0.0
 11
221.0822170099854
 21
55.22604999999976
 31
0.0
  0
LINE
  5
3A34
330
21CC
100
AcDbEntity
  8
0
100
AcDbLine
 10
221.5822170099854
 20
-55.72605999999996
 30
0.0
 11
221.5822170099854
 21
-60.92608000000018
 31
0.0
  0
LINE
  5
3A35
330
21CC
100
AcDbEntity
  8
0
100
AcDbLine
 10
220.5822170099854
 20
-55.22605999999996
 30
0.0
 11
221.0822170099854
 21
-55.22605999999996
 31
0.0
  0
LINE
  5
3A36
330
21CC
100
AcDbEntity
  8
0
100
AcDbLine
 10
220.0661370099855
 20
-61.42608000000018
 30
0.0
 11
221.0822170099854
 21
-61.42608000000018
 31
0.0
  0
LINE
  5
3A37
330
21CC
100
AcDbEntity
  8
0
100
AcDbLine
 10
201.8322170099854
 20
-15.0
 30
0.0
 11
201.8322170099854
 21
15.0
 31
0.0
  0
LINE
  5
3A38
330
21CC
100
AcDbEntity
  8
0
100
AcDbLine
 10
220.3322170099854
 20
-15.0
 30
0.0
 11
220.3322170099854
 21
15.0
 31
0.0
  0
LINE
  5
3A39
330
21CC
100
AcDbEntity
  8
0
100
AcDbLine
 10
201.5822170099854
 20
12.73369999999977
 30
0.0
 11
201.5822170099854
 21
59.36833999999999
 31
0.0
  0
LINE
  5
3A3A
330
21CC
100
AcDbEntity
  8
0
100
AcDbLine
 10
220.5822170099854
 20
12.5999999999999
 30
0.0
 11
220.5822170099854
 21
59.36833999999999
 31
0.0
  0
LINE
  5
3A3B
330
21CC
100
AcDbEntity
  8
0
100
AcDbLine
 10
201.5822170099854
 20
61.57605000000012
 30
0.0
 11
202.0822170099854
 21
61.57605000000012
 31
0.0
  0
LINE
  5
3A3C
330
21CC
100
AcDbEntity
  8
0
100
AcDbLine
 10
201.5822170099854
 20
-61.57607000000007
 30
0.0
 11
202.0822170099854
 21
-61.57607000000007
 31
0.0
  0
LINE
  5
3A3D
330
21CC
100
AcDbEntity
  8
0
100
AcDbLine
 10
202.5822170099854
 20
63.32605000000012
 30
0.0
 11
202.6074170099855
 21
63.32605000000012
 31
0.0
  0
LINE
  5
3A3E
330
21CC
100
AcDbEntity
  8
0
100
AcDbLine
 10
201.5822170099854
 20
61.57605000000012
 30
0.0
 11
201.5822170099854
 21
62.32605000000012
 31
0.0
  0
LINE
  5
3A3F
330
21CC
100
AcDbEntity
  8
0
100
AcDbLine
 10
220.5822170099854
 20
61.42605999999978
 30
0.0
 11
220.5822170099854
 21
62.32605000000012
 31
0.0
  0
LINE
  5
3A40
330
21CC
100
AcDbEntity
  8
0
100
AcDbLine
 10
203.1300170099853
 20
65.27644599999985
 30
0.0
 11
201.6162970099853
 21
59.62714000000005
 31
0.0
  0
LINE
  5
3A41
330
21CC
100
AcDbEntity
  8
0
100
AcDbLine
 10
201.5822170099854
 20
-61.57607000000007
 30
0.0
 11
201.5822170099854
 21
-62.32607000000007
 31
0.0
  0
LINE
  5
3A42
330
21CC
100
AcDbEntity
  8
0
100
AcDbLine
 10
220.5822170099854
 20
-61.42608000000018
 30
0.0
 11
220.5822170099854
 21
-62.32607000000007
 31
0.0
  0
LINE
  5
3A43
330
21CC
100
AcDbEntity
  8
0
100
AcDbLine
 10
-17.87428999999974
 20
57.53449999999975
 30
0.0
 11
-27.08286999999973
 21
61.82853999999998
 31
0.0
  0
LINE
  5
3A44
330
21CC
100
AcDbEntity
  8
0
100
AcDbLine
 10
-29.08663999999999
 20
51.79309999999986
 30
0.0
 11
-28.25472999999965
 21
61.30187999999998
 31
0.0
  0
LINE
  5
3A45
330
21CC
100
AcDbEntity
  8
0
100
AcDbLine
 10
-23.61801999999988
 20
63.71279000000004
 30
0.0
 11
-33.78809999999976
 21
64.60255599999982
 31
0.0
  0
LINE
  5
3A46
330
21CC
100
AcDbEntity
  8
0
100
AcDbLine
 10
62.06429000000025
 20
12.83612999999968
 30
0.0
 11
66.33357000000024
 21
15.30099999999993
 31
0.0
  0
LINE
  5
3A47
330
21CC
100
AcDbEntity
  8
0
100
AcDbLine
 10
-43.36792999999988
 20
52.31016
 30
0.0
 11
-39.05344999999988
 21
61.56259999999974
 31
0.0
  0
LINE
  5
3A48
330
21CC
100
AcDbEntity
  8
0
100
AcDbLine
 10
-29.79881999999998
 20
49.38969999999972
 30
0.0
 11
-28.97019999999974
 21
58.86081000000013
 31
0.0
  0
LINE
  5
3A49
330
21CC
100
AcDbEntity
  8
0
100
AcDbLine
 10
-37.22221999999965
 20
48.26784999999972
 30
0.0
 11
-43.8185599999997
 21
51.34377999999969
 31
0.0
  0
LINE
  5
3A4A
330
21CC
100
AcDbEntity
  8
0
100
AcDbLine
 10
-27.87336999999979
 20
50.5013399999998
 30
0.0
 11
-28.51305000000002
 21
50.79962999999998
 31
0.0
  0
ARC
  5
3A4B
330
21CC
100
AcDbEntity
  8
0
100
AcDbCircle
 10
80.9999700000003
 20
14.0
 30
0.0
 40
1.0
100
AcDbArc
 50
0.0
 51
90.0
  0
ARC
  5
3A4C
330
21CC
100
AcDbEntity
  8
0
100
AcDbCircle
 10
80.9999700000003
 20
5.0
 30
0.0
 40
1.0
100
AcDbArc
 50
269.9999970000153
 51
0.0
  0
ARC
  5
3A4D
330
21CC
100
AcDbEntity
  8
0
100
AcDbCircle
 10
80.9999700000003
 20
-5.0
 30
0.0
 40
1.0
100
AcDbArc
 50
0.0
 51
90.0
  0
ARC
  5
3A4E
330
21CC
100
AcDbEntity
  8
0
100
AcDbCircle
 10
74.9999700000003
 20
-32.50003000000015
 30
0.0
 40
8.0
100
AcDbArc
 50
240.0000000000006
 51
300.0000050000116
  0
ARC
  5
3A4F
330
21CC
100
AcDbEntity
  8
0
100
AcDbCircle
 10
77.9999700000003
 20
-31.20002000000022
 30
0.0
 40
2.0
100
AcDbArc
 50
359.9999913485851
 51
90.0
  0
ARC
  5
3A50
330
21CC
100
AcDbEntity
  8
0
100
AcDbCircle
 10
71.9999700000003
 20
-31.20002000000022
 30
0.0
 40
2.0
100
AcDbArc
 50
90.0
 51
179.9999899999989
  0
ARC
  5
3A51
330
21CC
100
AcDbEntity
  8
0
100
AcDbCircle
 10
74.9999700000003
 20
-43.00003000000015
 30
0.0
 40
5.0
100
AcDbArc
 50
179.9999899999989
 51
0.0000100000010064
  0
ARC
  5
3A52
330
21CC
100
AcDbEntity
  8
0
100
AcDbCircle
 10
56.0
 20
-48.00003000000015
 30
0.0
 40
35.0
100
AcDbArc
 50
356.5254056999958
 51
35.24751000001767
  0
ARC
  5
3A53
330
21CC
100
AcDbEntity
  8
0
100
AcDbCircle
 10
92.74997000000031
 20
-22.0300900000002
 30
0.0
 40
10.0
100
AcDbArc
 50
179.9999899999989
 51
215.2474999999989
  0
ARC
  5
3A54
330
21CC
100
AcDbEntity
  8
0
100
AcDbCircle
 10
57.25
 20
-22.0300900000002
 30
0.0
 40
10.0
100
AcDbArc
 50
324.752498000003
 51
0.0000100000010064
  0
ARC
  5
3A55
330
21CC
100
AcDbEntity
  8
0
100
AcDbCircle
 10
93.99997000000031
 20
-48.00003000000015
 30
0.0
 40
35.0
100
AcDbArc
 50
144.7524899999823
 51
183.4745900000165
  0
ARC
  5
3A56
330
21CC
100
AcDbEntity
  8
0
100
AcDbCircle
 10
74.9999700000003
 20
-17.90003000000024
 30
0.0
 40
7.75
100
AcDbArc
 50
158.02528285816
 51
179.9999899999989
  0
ARC
  5
3A57
330
21CC
100
AcDbEntity
  8
0
100
AcDbCircle
 10
74.9999700000003
 20
-17.90003000000024
 30
0.0
 40
7.75
100
AcDbArc
 50
0.0000100000010064
 51
26.83102656175668
  0
ARC
  5
3A58
330
21CC
100
AcDbEntity
  8
0
100
AcDbCircle
 10
74.9999700000003
 20
9.5
 30
0.0
 40
6.0
100
AcDbArc
 50
66.44353569091285
 51
113.55645999999
  0
ARC
  5
3A59
330
21CC
100
AcDbEntity
  8
0
100
AcDbCircle
 10
88.93930000000001
 20
-50.00003000000015
 30
0.0
 40
2.0
100
AcDbArc
 50
270.0000040000056
 51
356.5254056999958
  0
ARC
  5
3A5A
330
21CC
100
AcDbEntity
  8
0
100
AcDbCircle
 10
61.0606700000003
 20
-50.00003000000015
 30
0.0
 40
2.0
100
AcDbArc
 50
183.4745900000165
 51
270.0000040000056
  0
ARC
  5
3A5B
330
21CC
100
AcDbEntity
  8
0
100
AcDbCircle
 10
202.5822170099854
 20
-59.36837999999989
 30
0.0
 40
1.0
100
AcDbArc
 50
179.9999899999989
 51
195.000009999987
  0
ARC
  5
3A5C
330
21CC
100
AcDbEntity
  8
0
100
AcDbCircle
 10
219.5822170099854
 20
-59.36837999999989
 30
0.0
 40
1.0
100
AcDbArc
 50
345.0000000000055
 51
0.0
  0
ARC
  5
3A5D
330
21CC
100
AcDbEntity
  8
0
100
AcDbCircle
 10
202.5822170099854
 20
59.36833999999999
 30
0.0
 40
1.0
100
AcDbArc
 50
165.0000000000055
 51
180.0000100000009
  0
ARC
  5
3A5E
330
21CC
100
AcDbEntity
  8
0
100
AcDbCircle
 10
219.5822170099854
 20
59.36833999999999
 30
0.0
 40
1.0
100
AcDbArc
 50
0.0
 51
14.99999999999445
  0
ARC
  5
3A5F
330
21CC
100
AcDbEntity
  8
0
100
AcDbCircle
 10
206.0278070099852
 20
-64.50003000000015
 30
0.0
 40
3.0
100
AcDbArc
 50
195.000009999987
 51
269.9999970000153
  0
ARC
  5
3A60
330
21CC
100
AcDbEntity
  8
0
100
AcDbCircle
 10
216.1366370099853
 20
-64.50003000000015
 30
0.0
 40
3.0
100
AcDbArc
 50
269.9999970000153
 51
345.0000000000055
  0
ARC
  5
3A61
330
21CC
100
AcDbEntity
  8
0
100
AcDbCircle
 10
206.0278070099852
 20
64.49998899999991
 30
0.0
 40
3.0
100
AcDbArc
 50
90.0
 51
164.9999900000128
  0
ARC
  5
3A62
330
21CC
100
AcDbEntity
  8
0
100
AcDbCircle
 10
216.1366370099853
 20
64.49998899999991
 30
0.0
 40
3.0
100
AcDbArc
 50
14.99999999999445
 51
90.0
  0
ARC
  5
3A63
330
21CC
100
AcDbEntity
  8
0
100
AcDbCircle
 10
205.8322170099854
 20
-10.62368999999989
 30
0.0
 40
1.0
100
AcDbArc
 50
318.6000000000059
 51
0.0
  0
ARC
  5
3A64
330
21CC
100
AcDbEntity
  8
0
100
AcDbCircle
 10
216.3322170099854
 20
-10.62368999999989
 30
0.0
 40
1.0
100
AcDbArc
 50
179.9999899999989
 51
221.3999999999941
  0
ARC
  5
3A65
330
21CC
100
AcDbEntity
  8
0
100
AcDbCircle
 10
202.8555970099855
 20
-14.0
 30
0.0
 40
1.0
100
AcDbArc
 50
269.9999970000153
 51
318.6000000000059
  0
ARC
  5
3A66
330
21CC
100
AcDbEntity
  8
0
100
AcDbCircle
 10
205.3322170099854
 20
-27.20002000000022
 30
0.0
 40
2.0
100
AcDbArc
 50
179.9999899999989
 51
270.0000040000056
  0
ARC
  5
3A67
330
21CC
100
AcDbEntity
  8
0
100
AcDbCircle
 10
211.0822170099854
 20
-32.5
 30
0.0
 40
8.0
100
AcDbArc
 50
240.0000000000006
 51
249.1299299999913
  0
ARC
  5
3A68
330
21CC
100
AcDbEntity
  8
0
100
AcDbCircle
 10
211.0822170099854
 20
-17.90000000000009
 30
0.0
 40
7.75
100
AcDbArc
 50
130.4218999999886
 51
179.9999899999989
  0
ARC
  5
3A69
330
21CC
100
AcDbEntity
  8
0
100
AcDbCircle
 10
211.0822170099854
 20
7.5
 30
0.0
 40
8.0
100
AcDbArc
 50
60.00000000000068
 51
119.9999999999993
  0
ARC
  5
3A6A
330
21CC
100
AcDbEntity
  8
0
100
AcDbCircle
 10
206.2322470099857
 20
-31.20002000000022
 30
0.0
 40
2.0
100
AcDbArc
 50
359.9999949910625
 51
90.0
  0
ARC
  5
3A6B
330
21CC
100
AcDbEntity
  8
0
100
AcDbCircle
 10
209.2322470099857
 20
-51.0
 30
0.0
 40
1.0
100
AcDbArc
 50
179.9999899999989
 51
270.0000040000056
  0
ARC
  5
3A6C
330
21CC
100
AcDbEntity
  8
0
100
AcDbCircle
 10
212.9322270099855
 20
-51.0
 30
0.0
 40
1.0
100
AcDbArc
 50
269.9999970000153
 51
0.0
  0
ARC
  5
3A6D
330
21CC
100
AcDbEntity
  8
0
100
AcDbCircle
 10
215.9322270099855
 20
-31.20002000000022
 30
0.0
 40
2.0
100
AcDbArc
 50
90.0
 51
180.0000100000009
  0
ARC
  5
3A6E
330
21CC
100
AcDbEntity
  8
0
100
AcDbCircle
 10
216.8322170099854
 20
-27.20002000000022
 30
0.0
 40
2.0
100
AcDbArc
 50
269.9999970000153
 51
0.0
  0
ARC
  5
3A6F
330
21CC
100
AcDbEntity
  8
0
100
AcDbCircle
 10
211.0822170099854
 20
-32.5
 30
0.0
 40
8.0
100
AcDbArc
 50
290.8700710000053
 51
299.9999980000144
  0
ARC
  5
3A70
330
21CC
100
AcDbEntity
  8
0
100
AcDbCircle
 10
211.0822170099854
 20
-17.90000000000009
 30
0.0
 40
7.75
100
AcDbArc
 50
0.0
 51
49.57807999999683
  0
ARC
  5
3A71
330
21CC
100
AcDbEntity
  8
0
100
AcDbCircle
 10
220.8322170099854
 20
12.09999999999991
 30
0.0
 40
0.5
100
AcDbArc
 50
0.0
 51
90.0
  0
ARC
  5
3A72
330
21CC
100
AcDbEntity
  8
0
100
AcDbCircle
 10
220.8322170099854
 20
6.899989999999888
 30
0.0
 40
0.5
100
AcDbArc
 50
269.9999970000153
 51
0.0
  0
ARC
  5
3A73
330
21CC
100
AcDbEntity
  8
0
100
AcDbCircle
 10
219.3088470099855
 20
-14.0
 30
0.0
 40
1.0
100
AcDbArc
 50
221.3999999999941
 51
269.9999970000153
  0
ARC
  5
3A74
330
21CC
100
AcDbEntity
  8
0
100
AcDbCircle
 10
221.0822170099854
 20
55.72604999999976
 30
0.0
 40
0.5
100
AcDbArc
 50
269.9999970000153
 51
0.0
  0
ARC
  5
3A75
330
21CC
100
AcDbEntity
  8
0
100
AcDbCircle
 10
221.0822170099854
 20
60.92605999999978
 30
0.0
 40
0.5
100
AcDbArc
 50
0.0
 51
90.0
  0
ARC
  5
3A76
330
21CC
100
AcDbEntity
  8
0
100
AcDbCircle
 10
221.0822170099854
 20
-55.72605999999996
 30
0.0
 40
0.5
100
AcDbArc
 50
0.0
 51
90.0
  0
ARC
  5
3A77
330
21CC
100
AcDbEntity
  8
0
100
AcDbCircle
 10
221.0822170099854
 20
-60.92608000000018
 30
0.0
 40
0.5
100
AcDbArc
 50
269.9999970000153
 51
0.0
  0
ARC
  5
3A78
330
21CC
100
AcDbEntity
  8
0
100
AcDbCircle
 10
202.5822170099854
 20
62.32605000000012
 30
0.0
 40
1.0
100
AcDbArc
 50
90.0
 51
180.0000100000009
  0
ARC
  5
3A79
330
21CC
100
AcDbEntity
  8
0
100
AcDbCircle
 10
219.5822170099854
 20
62.32605000000012
 30
0.0
 40
1.0
100
AcDbArc
 50
0.0
 51
90.0
  0
ARC
  5
3A7A
330
21CC
100
AcDbEntity
  8
0
100
AcDbCircle
 10
202.5822170099854
 20
-62.32607000000007
 30
0.0
 40
1.0
100
AcDbArc
 50
179.9999899999989
 51
269.9999970000153
  0
ARC
  5
3A7B
330
21CC
100
AcDbEntity
  8
0
100
AcDbCircle
 10
219.5822170099854
 20
-62.32607000000007
 30
0.0
 40
1.0
100
AcDbArc
 50
269.9999970000153
 51
0.0
  0
ARC
  5
3A7C
330
21CC
100
AcDbEntity
  8
0
100
AcDbCircle
 10
0.0
 20
0.0
 30
0.0
 40
67.5
100
AcDbArc
 50
14.15845000000538
 51
114.7454699999917
  0
ARC
  5
3A7D
330
21CC
100
AcDbEntity
  8
0
100
AcDbCircle
 10
0.0
 20
0.0
 30
0.0
 40
56.5
100
AcDbArc
 50
6.756329999988858
 51
116.561039999986
  0
ARC
  5
3A7E
330
21CC
100
AcDbEntity
  8
0
100
AcDbCircle
 10
59.08679000000029
 20
7.0
 30
0.0
 40
3.0
100
AcDbArc
 50
186.7563200000059
 51
269.9999970000153
  0
ARC
  5
3A7F
330
21CC
100
AcDbEntity
  8
0
100
AcDbCircle
 10
0.0
 20
0.0
 30
0.0
 40
68.5
100
AcDbArc
 50
114.5256999999908
 51
126.8760800000011
  0
ARC
  5
3A80
330
21CC
100
AcDbEntity
  8
0
100
AcDbCircle
 10
0.0
 20
0.0
 30
0.0
 40
59.5
100
AcDbArc
 50
14.29694999999997
 51
105.408710000009
  0
ARC
  5
3A81
330
21CC
100
AcDbEntity
  8
0
100
AcDbCircle
 10
-16.60644999999976
 20
60.25342999999975
 30
0.0
 40
3.0
100
AcDbArc
 50
244.9999999999933
 51
285.4087129999858
  0
ARC
  5
3A82
330
21CC
100
AcDbEntity
  8
0
100
AcDbCircle
 10
-23.18221999999968
 20
68.69376800000009
 30
0.0
 40
5.0
100
AcDbArc
 50
264.9999980000079
 51
288.648087000007
  0
ARC
  5
3A83
330
21CC
100
AcDbEntity
  8
0
100
AcDbCircle
 10
60.5643
 20
15.43419999999969
 30
0.0
 40
3.0
100
AcDbArc
 50
194.2969499999999
 51
299.9999980000144
  0
ARC
  5
3A84
330
21CC
100
AcDbEntity
  8
0
100
AcDbCircle
 10
67.38876000000027
 20
17.0
 30
0.0
 40
2.0
100
AcDbArc
 50
194.1584600000003
 51
269.9999970000153
  0
ARC
  5
3A85
330
21CC
100
AcDbEntity
  8
0
100
AcDbCircle
 10
-47.89946999999983
 20
54.42326000000003
 30
0.0
 40
5.0
100
AcDbArc
 50
311.3519160000072
 51
334.9999999999961
  0
ARC
  5
3A86
330
21CC
100
AcDbEntity
  8
0
100
AcDbCircle
 10
-32.78737999999975
 20
49.65115999999989
 30
0.0
 40
3.0
100
AcDbArc
 50
303.438953999987
 51
355.0000001000157
  0
ARC
  5
3A87
330
21CC
100
AcDbEntity
  8
0
100
AcDbCircle
 10
-34.2500299999997
 20
59.32272999999987
 30
0.0
 40
5.3000002
100
AcDbArc
 50
355.0000001000157
 51
155.0000150035259
  0
ARC
  5
3A88
330
21CC
100
AcDbEntity
  8
0
100
AcDbCircle
 10
-37.64483999999993
 20
47.36155000000008
 30
0.0
 40
1.0
100
AcDbArc
 50
308.4790570000121
 51
64.99999999999338
  0
ARC
  5
3A89
330
21CC
100
AcDbEntity
  8
0
100
AcDbCircle
 10
-28.09041999999999
 20
51.70593999999983
 30
0.0
 40
1.0
100
AcDbArc
 50
174.9999999999999
 51
244.9999999999933
  0
ARC
  5
3A8A
330
21CC
100
AcDbEntity
  8
0
100
AcDbCircle
 10
-26.60549999999966
 20
53.22026000000005
 30
0.0
 40
3.0
100
AcDbArc
 50
244.9999999999933
 51
296.5610459999872
  0
ELLIPSE
  5
3A8B
330
21CC
100
AcDbEntity
  8
0
100
AcDbEllipse
 10
201.8322170099854
 20
9.500000000000454
 30
0.0
 11
0.0
 21
-3.250000099999999
 31
0.0
210
0.0
220
0.0
230
-1.0
 40
0.7692307400000001
 41
0.0
 42
3.1415927
  0
ELLIPSE
  5
3A8C
330
21CC
100
AcDbEntity
  8
0
100
AcDbEllipse
 10
201.5822170099863
 20
58.32605000000057
 30
0.0
 11
0.0
 21
-3.250000099999999
 31
0.0
210
0.0
220
0.0
230
-1.0
 40
0.7692307400000001
 41
0.0
 42
3.1415927
  0
ELLIPSE
  5
3A8D
330
21CC
100
AcDbEntity
  8
0
100
AcDbEllipse
 10
201.5822170099859
 20
-58.32607000000007
 30
0.0
 11
0.0
 21
3.250000099999999
 31
0.0
210
0.0
220
0.0
230
-1.0
 40
0.7692307400000001
 41
3.1415927
 42
6.283185299999999
  0
LINE
  5
3A8E
330
21CC
100
AcDbEntity
  8
0
100
AcDbLine
 10
-17.87428999999974
 20
-57.53450000000021
 30
0.0
 11
-27.08286999999973
 21
-61.82853999999998
 31
0.0
  0
LINE
  5
3A8F
330
21CC
100
AcDbEntity
  8
0
100
AcDbLine
 10
-29.08663999999999
 20
-51.79310000000032
 30
0.0
 11
-28.25472999999965
 21
-61.30187999999998
 31
0.0
  0
LINE
  5
3A90
330
21CC
100
AcDbEntity
  8
0
100
AcDbLine
 10
-23.61801999999988
 20
-63.71279000000004
 30
0.0
 11
-33.78809999999976
 21
-64.60255600000028
 31
0.0
  0
LINE
  5
3A91
330
21CC
100
AcDbEntity
  8
0
100
AcDbLine
 10
-43.36792999999988
 20
-52.31016
 30
0.0
 11
-39.05344999999988
 21
-61.5626000000002
 31
0.0
  0
LINE
  5
3A92
330
21CC
100
AcDbEntity
  8
0
100
AcDbLine
 10
-29.79881999999998
 20
-49.38970000000018
 30
0.0
 11
-28.97019999999974
 21
-58.86081000000013
 31
0.0
  0
LINE
  5
3A93
330
21CC
100
AcDbEntity
  8
0
100
AcDbLine
 10
-37.22221999999965
 20
-48.26785000000018
 30
0.0
 11
-43.8185599999997
 21
-51.34378000000015
 31
0.0
  0
LINE
  5
3A94
330
21CC
100
AcDbEntity
  8
0
100
AcDbLine
 10
-27.87336999999979
 20
-50.50134000000025
 30
0.0
 11
-28.51305000000002
 21
-50.79962999999998
 31
0.0
  0
ARC
  5
3A95
330
21CC
100
AcDbEntity
  8
0
100
AcDbCircle
 10
0.0
 20
0.0
 30
0.0
 40
67.5
100
AcDbArc
 50
245.2545300000082
 51
345.8415499999945
  0
ARC
  5
3A96
330
21CC
100
AcDbEntity
  8
0
100
AcDbCircle
 10
0.0
 20
0.0
 30
0.0
 40
56.5
100
AcDbArc
 50
243.4389600000139
 51
353.2436699999852
  0
ARC
  5
3A97
330
21CC
100
AcDbEntity
  8
0
100
AcDbCircle
 10
59.08679000000029
 20
-7.0
 30
0.0
 40
3.0
100
AcDbArc
 50
90.00000300001072
 51
173.2436799999941
  0
ARC
  5
3A98
330
21CC
100
AcDbEntity
  8
0
100
AcDbCircle
 10
0.0
 20
0.0
 30
0.0
 40
68.5
100
AcDbArc
 50
233.1239199999988
 51
245.4743000000092
  0
ARC
  5
3A99
330
21CC
100
AcDbEntity
  8
0
100
AcDbCircle
 10
0.0
 20
0.0
 30
0.0
 40
59.5
100
AcDbArc
 50
254.5912899999908
 51
345.70305
  0
ARC
  5
3A9A
330
21CC
100
AcDbEntity
  8
0
100
AcDbCircle
 10
-16.60644999999976
 20
-60.2534300000002
 30
0.0
 40
3.0
100
AcDbArc
 50
74.59128700001412
 51
115.0000000000066
  0
ARC
  5
3A9B
330
21CC
100
AcDbEntity
  8
0
100
AcDbCircle
 10
0.0
 20
0.0
 30
0.0
 40
67.5
100
AcDbArc
 50
131.3519199999819
 51
228.648080000018
  0
ARC
  5
3A9C
330
21CC
100
AcDbEntity
  8
0
100
AcDbCircle
 10
-23.18221999999968
 20
-68.69376800000009
 30
0.0
 40
5.0
100
AcDbArc
 50
71.35191299999299
 51
95.00000199999204
  0
ARC
  5
3A9D
330
21CC
100
AcDbEntity
  8
0
100
AcDbCircle
 10
60.5643
 20
-15.43420000000014
 30
0.0
 40
3.0
100
AcDbArc
 50
60.00000199998553
 51
165.70305
  0
ARC
  5
3A9E
330
21CC
100
AcDbEntity
  8
0
100
AcDbCircle
 10
67.38876000000027
 20
-17.0
 30
0.0
 40
2.0
100
AcDbArc
 50
90.00000300001072
 51
165.8415399999996
  0
ARC
  5
3A9F
330
21CC
100
AcDbEntity
  8
0
100
AcDbCircle
 10
-47.89946999999983
 20
-54.42326000000003
 30
0.0
 40
5.0
100
AcDbArc
 50
25.00000000000378
 51
48.64808399999271
  0
ARC
  5
3AA0
330
21CC
100
AcDbEntity
  8
0
100
AcDbCircle
 10
-32.78737999999975
 20
-49.65116000000034
 30
0.0
 40
3.0
100
AcDbArc
 50
4.999999900010805
 51
56.56104600001299
  0
ARC
  5
3AA1
330
21CC
100
AcDbEntity
  8
0
100
AcDbCircle
 10
-34.2500299999997
 20
-59.32273000000032
 30
0.0
 40
5.3000002
100
AcDbArc
 50
204.999984996474
 51
4.999999900010805
  0
ARC
  5
3AA2
330
21CC
100
AcDbEntity
  8
0
100
AcDbCircle
 10
0.0
 20
0.0
 30
0.0
 40
59.5
100
AcDbArc
 50
128.4790399999999
 51
231.52096
  0
ARC
  5
3AA3
330
21CC
100
AcDbEntity
  8
0
100
AcDbCircle
 10
-37.64483999999993
 20
-47.36155000000008
 30
0.0
 40
1.0
100
AcDbArc
 50
295.0000000000066
 51
51.52094299998783
  0
ARC
  5
3AA4
330
21CC
100
AcDbEntity
  8
0
100
AcDbCircle
 10
-28.09041999999999
 20
-51.70594000000028
 30
0.0
 40
1.0
100
AcDbArc
 50
115.0000000000066
 51
185.0
  0
ARC
  5
3AA5
330
21CC
100
AcDbEntity
  8
0
100
AcDbCircle
 10
-26.60549999999966
 20
-53.22026000000005
 30
0.0
 40
3.0
100
AcDbArc
 50
63.43895399998363
 51
115.0000000000066
  0
ARC
  5
3AA6
330
21CC
100
AcDbEntity
  8
0
100
AcDbCircle
 10
0.0
 20
0.0
 30
0.0
 40
56.5
100
AcDbArc
 50
123.438940000004
 51
236.561059999996
  0
LINE
  5
3AA7
330
21CC
100
AcDbEntity
  8
0
100
AcDbLine
 10
62.06429000000025
 20
-12.83613000000014
 30
0.0
 11
66.33357000000024
 21
-15.30100000000038
 31
0.0
  0
CIRCLE
  5
3AA8
330
21CC
100
AcDbEntity
  8
0
100
AcDbCircle
 10
-34.2500299999997
 20
59.32272999999987
 30
0.0
 40
2.599999899999999
  0
CIRCLE
  5
3AA9
330
21CC
100
AcDbEntity
  8
0
100
AcDbCircle
 10
-34.2500299999997
 20
-59.32273000000032
 30
0.0
 40
2.599999899999999
  0
LINE
  5
3AAA
330
21CC
100
AcDbEntity
  8
0
100
AcDbLine
 10
69.2499700000003
 20
-29.20002000000022
 30
0.0
 11
80.74997000000029
 21
-29.20002000000022
 31
0.0
  0
ARC
  5
3AAB
330
21CC
100
AcDbEntity
  8
0
100
AcDbCircle
 10
69.24996999999985
 20
-27.20002000000067
 30
0.0
 40
2.0
100
AcDbArc
 50
180.0
 51
270.0
  0
ARC
  5
3AAC
330
21CC
100
AcDbEntity
  8
0
100
AcDbCircle
 10
80.74997000000029
 20
-27.20002000000067
 30
0.0
 40
2.0
100
AcDbArc
 50
270.0
 51
0.0000000000260551
  0
CIRCLE
  5
3AAD
330
21CC
100
AcDbEntity
  8
0
100
AcDbCircle
 10
74.9999700000003
 20
9.5
 30
0.0
 40
3.250000100000079
  0
ARC
  5
3E56
330
21CC
100
AcDbEntity
  8
0
100
AcDbCircle
 10
198.0821870099857
 20
36.75
 30
0.0
 40
5.0
100
AcDbArc
 50
270.0
 51
314.4274853836221
  0
ARC
  5
3E57
330
21CC
100
AcDbEntity
  8
0
100
AcDbCircle
 10
198.0821870099857
 20
-36.75
 30
0.0
 40
5.0
100
AcDbArc
 50
45.57251461637781
 51
90.0
  0
LINE
  5
3E58
330
21CC
100
AcDbEntity
  8
0
100
AcDbLine
 10
175.8309073069883
 20
38.60532224427015
 30
0.0
 11
175.8309073069883
 21
-38.60532224426993
 31
0.0
  0
LINE
  5
3E59
330
21CC
100
AcDbEntity
  8
0
100
AcDbLine
 10
178.7332542802528
 20
-32.11169581131389
 30
0.0
 11
178.7332542802528
 21
32.11169581131412
 31
0.0
  0
ENDSEC
  0
SECTION
  2
OBJECTS
  0
DICTIONARY
  5
21BA
330
0
100
AcDbDictionary
281
     1
  3
ACAD_GROUP
350
21BB
  3
ACAD_LAYOUT
350
21C7
  3
ACAD_MLINESTYLE
350
21C4
  3
ACAD_PLOTSETTINGS
350
21C6
  3
ACAD_PLOTSTYLENAME
350
21BC
  3
AcDbVariableDictionary
350
2238
  0
DICTIONARY
  5
2244
330
21B0
100
AcDbDictionary
280
     1
281
     1
  3
ACAD_LAYERSTATES
360
2245
  0
DICTIONARY
  5
21F8
330
21CC
100
AcDbDictionary
280
     1
281
     1
  3
ACAD_LAYOUTSELFREF
360
2227
  0
DICTIONARY
  5
21FA
330
21C8
100
AcDbDictionary
280
     1
281
     1
  3
ACAD_LAYOUTSELFREF
360
2226
  0
DICTIONARY
  5
21BB
102
{ACAD_REACTORS
330
21BA
102
}
330
21BA
100
AcDbDictionary
281
     1
  0
DICTIONARY
  5
21C7
102
{ACAD_REACTORS
330
21BA
102
}
330
21BA
100
AcDbDictionary
281
     1
  3
Model
350
21CF
  3
ﾚｲｱｳﾄ1
350
21CB
  0
DICTIONARY
  5
21C4
102
{ACAD_REACTORS
330
21BA
102
}
330
21BA
100
AcDbDictionary
281
     1
  3
Standard
350
21C5
  0
DICTIONARY
  5
21C6
102
{ACAD_REACTORS
330
21BA
102
}
330
21BA
100
AcDbDictionary
281
     1
  0
ACDBDICTIONARYWDFLT
  5
21BC
102
{ACAD_REACTORS
330
21BA
102
}
330
21BA
100
AcDbDictionary
281
     1
  3
Normal
350
21BD
100
AcDbDictionaryWithDefault
340
21BD
  0
DICTIONARY
  5
2238
102
{ACAD_REACTORS
330
21BA
102
}
330
21BA
100
AcDbDictionary
281
     1
  3
DIMASSOC
350
2239
  0
DICTIONARY
  5
2245
102
{ACAD_REACTORS
330
2244
102
}
330
2244
100
AcDbDictionary
281
     1
  0
XRECORD
  5
2227
102
{ACAD_REACTORS
330
21F8
102
}
330
21F8
100
AcDbXrecord
280
     1
340
21CC
  0
XRECORD
  5
2226
102
{ACAD_REACTORS
330
21FA
102
}
330
21FA
100
AcDbXrecord
280
     1
340
21C8
  0
LAYOUT
  5
21CF
102
{ACAD_REACTORS
330
21C7
102
}
330
21C7
100
AcDbPlotSettings
  1

  2
SII LP-2150 (D-SCAN C2)
  4

  6

 40
0.0
 41
0.0
 42
0.0
 43
0.0
 44
0.0
 45
0.0
 46
0.0
 47
0.0
 48
0.0
 49
0.0
140
0.0
141
0.0
142
1.0
143
1.0
 70
  1712
 72
     0
 73
     0
 74
     0
  7

 75
     0
147
1.0
148
0.0
149
0.0
100
AcDbLayout
  1
Model
 70
     1
 71
     0
 10
0.0
 20
0.0
 11
12.0
 21
9.0
 12
0.0
 22
0.0
 32
0.0
 14
0.0
 24
0.0
 34
0.0
 15
0.0
 25
0.0
 35
0.0
146
0.0
 13
0.0
 23
0.0
 33
0.0
 16
1.0
 26
0.0
 36
0.0
 17
0.0
 27
1.0
 37
0.0
 76
     0
330
21CC
  0
LAYOUT
  5
21CB
102
{ACAD_REACTORS
330
21C7
102
}
330
21C7
100
AcDbPlotSettings
  1

  2
SII LP-2150 (D-SCAN C2)
  4

  6

 40
0.0
 41
0.0
 42
0.0
 43
0.0
 44
0.0
 45
0.0
 46
0.0
 47
0.0
 48
0.0
 49
0.0
140
0.0
141
0.0
142
1.0
143
1.0
 70
   688
 72
     0
 73
     0
 74
     5
  7

 75
    16
147
1.0
148
0.0
149
0.0
100
AcDbLayout
  1
ﾚｲｱｳﾄ1
 70
     1
 71
     1
 10
0.0
 20
0.0
 11
12.0
 21
9.0
 12
0.0
 22
0.0
 32
0.0
 14
1.000000000000000E+20
 24
1.000000000000000E+20
 34
1.000000000000000E+20
 15
-1.000000000000000E+20
 25
-1.000000000000000E+20
 35
-1.000000000000000E+20
146
0.0
 13
0.0
 23
0.0
 33
0.0
 16
1.0
 26
0.0
 36
0.0
 17
0.0
 27
1.0
 37
0.0
 76
     0
330
21C8
  0
MLINESTYLE
  5
21C5
102
{ACAD_REACTORS
330
21C4
102
}
330
21C4
100
AcDbMlineStyle
  2
STANDARD
 70
     0
  3

 62
   256
 51
90.0
 52
90.0
 71
     2
 49
0.5
 62
   256
  6
BYLAYER
 49
-0.5
 62
   256
  6
BYLAYER
  0
ACDBPLACEHOLDER
  5
21BD
102
{ACAD_REACTORS
330
21BC
102
}
330
21BC
  0
DICTIONARYVAR
  5
2239
102
{ACAD_REACTORS
330
2238
102
}
330
2238
100
DictionaryVariables
280
     0
  1
1
  0
ENDSEC
  0
EOF
