  0
SECTION
  2
HEADER
  9
$ACADVER
  1
AC1015
  9
$ACADMAINTVER
 70
    14
  9
$DWGCODEPAGE
  3
ANSI_932
  9
$INSBASE
 10
0.0
 20
0.0
 30
0.0
  9
$EXTMIN
 10
-75.1625354109749
 20
-65.09787967439297
 30
-0.0000000000112498
  9
$EXTMAX
 10
632.4617081304293
 20
198.0032859336117
 30
0.0000000000002956
  9
$LIMMIN
 10
0.0
 20
0.0
  9
$LIMMAX
 10
12.0
 20
9.0
  9
$ORTHOMODE
 70
     0
  9
$REGENMODE
 70
     1
  9
$FILLMODE
 70
     1
  9
$QTEXTMODE
 70
     0
  9
$MIRRTEXT
 70
     1
  9
$LTSCALE
 40
1.0
  9
$ATTMODE
 70
     1
  9
$TEXTSIZE
 40
0.2
  9
$TRACEWID
 40
0.05
  9
$TEXTSTYLE
  7
STANDARD
  9
$CLAYER
  8
0
  9
$CELTYPE
  6
CONTINUOUS
  9
$CECOLOR
 62
   256
  9
$CELTSCALE
 40
1.0
  9
$DISPSILH
 70
     0
  9
$DIMSCALE
 40
1.0
  9
$DIMASZ
 40
1.0
  9
$DIMEXO
 40
2.54
  9
$DIMDLI
 40
0.38
  9
$DIMRND
 40
0.0
  9
$DIMDLE
 40
0.0
  9
$DIMEXE
 40
2.54
  9
$DIMTP
 40
0.0
  9
$DIMTM
 40
0.0
  9
$DIMTXT
 40
3.2
  9
$DIMCEN
 40
0.09
  9
$DIMTSZ
 40
0.0
  9
$DIMTOL
 70
     0
  9
$DIMLIM
 70
     0
  9
$DIMTIH
 70
     0
  9
$DIMTOH
 70
     0
  9
$DIMSE1
 70
     0
  9
$DIMSE2
 70
     0
  9
$DIMTAD
 70
     1
  9
$DIMZIN
 70
     0
  9
$DIMBLK
  1

  9
$DIMASO
 70
     1
  9
$DIMSHO
 70
     0
  9
$DIMPOST
  1

  9
$DIMAPOST
  1

  9
$DIMALT
 70
     0
  9
$DIMALTD
 70
     2
  9
$DIMALTF
 40
25.4
  9
$DIMLFAC
 40
1.0
  9
$DIMTOFL
 70
     0
  9
$DIMTVP
 40
1.0
  9
$DIMTIX
 70
     0
  9
$DIMSOXD
 70
     0
  9
$DIMSAH
 70
     1
  9
$DIMBLK1
  1

  9
$DIMBLK2
  1

  9
$DIMSTYLE
  2
STANDARD
  9
$DIMCLRD
 70
     0
  9
$DIMCLRE
 70
     0
  9
$DIMCLRT
 70
     0
  9
$DIMTFAC
 40
1.0
  9
$DIMGAP
 40
1.6
  9
$DIMJUST
 70
     0
  9
$DIMSD1
 70
     0
  9
$DIMSD2
 70
     0
  9
$DIMTOLJ
 70
     1
  9
$DIMTZIN
 70
     0
  9
$DIMALTZ
 70
     0
  9
$DIMALTTZ
 70
     0
  9
$DIMUPT
 70
     0
  9
$DIMDEC
 70
     4
  9
$DIMTDEC
 70
     4
  9
$DIMALTU
 70
     2
  9
$DIMALTTD
 70
     2
  9
$DIMTXSTY
  7
STANDARD
  9
$DIMAUNIT
 70
     0
  9
$DIMADEC
 70
     0
  9
$DIMALTRND
 40
0.0
  9
$DIMAZIN
 70
     0
  9
$DIMDSEP
 70
    46
  9
$DIMATFIT
 70
     3
  9
$DIMFRAC
 70
     0
  9
$DIMLDRBLK
  1

  9
$DIMLUNIT
 70
     2
  9
$DIMLWD
 70
    -2
  9
$DIMLWE
 70
    -2
  9
$DIMTMOVE
 70
     0
  9
$LUNITS
 70
     2
  9
$LUPREC
 70
     4
  9
$SKETCHINC
 40
0.1
  9
$FILLETRAD
 40
0.0
  9
$AUNITS
 70
     0
  9
$AUPREC
 70
     0
  9
$MENU
  1
.
  9
$ELEVATION
 40
0.0
  9
$PELEVATION
 40
0.0
  9
$THICKNESS
 40
0.0
  9
$LIMCHECK
 70
     0
  9
$CHAMFERA
 40
0.0
  9
$CHAMFERB
 40
0.0
  9
$CHAMFERC
 40
0.0
  9
$CHAMFERD
 40
0.0
  9
$SKPOLY
 70
     0
  9
$TDCREATE
 40
2452488.423138738
  9
$TDUCREATE
 40
2452488.048138738
  9
$TDUPDATE
 40
2456906.720955104
  9
$TDUUPDATE
 40
2456906.345955104
  9
$TDINDWG
 40
0.2845861227
  9
$TDUSRTIMER
 40
0.2845859375
  9
$USRTIMER
 70
     1
  9
$ANGBASE
 50
0.0
  9
$ANGDIR
 70
     0
  9
$PDMODE
 70
     3
  9
$PDSIZE
 40
0.0
  9
$PLINEWID
 40
0.0
  9
$SPLFRAME
 70
     0
  9
$SPLINETYPE
 70
     6
  9
$SPLINESEGS
 70
     8
  9
$HANDSEED
  5
3E6B
  9
$SURFTAB1
 70
     6
  9
$SURFTAB2
 70
     6
  9
$SURFTYPE
 70
     6
  9
$SURFU
 70
     6
  9
$SURFV
 70
     6
  9
$UCSBASE
  2

  9
$UCSNAME
  2

  9
$UCSORG
 10
0.0
 20
0.0
 30
0.0
  9
$UCSXDIR
 10
1.0
 20
0.0
 30
0.0
  9
$UCSYDIR
 10
0.0
 20
1.0
 30
0.0
  9
$UCSORTHOREF
  2

  9
$UCSORTHOVIEW
 70
     0
  9
$UCSORGTOP
 10
0.0
 20
0.0
 30
0.0
  9
$UCSORGBOTTOM
 10
0.0
 20
0.0
 30
0.0
  9
$UCSORGLEFT
 10
0.0
 20
0.0
 30
0.0
  9
$UCSORGRIGHT
 10
0.0
 20
0.0
 30
0.0
  9
$UCSORGFRONT
 10
0.0
 20
0.0
 30
0.0
  9
$UCSORGBACK
 10
0.0
 20
0.0
 30
0.0
  9
$PUCSBASE
  2

  9
$PUCSNAME
  2

  9
$PUCSORG
 10
0.0
 20
0.0
 30
0.0
  9
$PUCSXDIR
 10
1.0
 20
0.0
 30
0.0
  9
$PUCSYDIR
 10
0.0
 20
1.0
 30
0.0
  9
$PUCSORTHOREF
  2

  9
$PUCSORTHOVIEW
 70
     0
  9
$PUCSORGTOP
 10
0.0
 20
0.0
 30
0.0
  9
$PUCSORGBOTTOM
 10
0.0
 20
0.0
 30
0.0
  9
$PUCSORGLEFT
 10
0.0
 20
0.0
 30
0.0
  9
$PUCSORGRIGHT
 10
0.0
 20
0.0
 30
0.0
  9
$PUCSORGFRONT
 10
0.0
 20
0.0
 30
0.0
  9
$PUCSORGBACK
 10
0.0
 20
0.0
 30
0.0
  9
$USERI1
 70
     0
  9
$USERI2
 70
     0
  9
$USERI3
 70
     0
  9
$USERI4
 70
     0
  9
$USERI5
 70
     0
  9
$USERR1
 40
0.0
  9
$USERR2
 40
0.0
  9
$USERR3
 40
0.0
  9
$USERR4
 40
0.0
  9
$USERR5
 40
0.0
  9
$WORLDVIEW
 70
     1
  9
$SHADEDGE
 70
     3
  9
$SHADEDIF
 70
    70
  9
$TILEMODE
 70
     1
  9
$MAXACTVP
 70
    48
  9
$PINSBASE
 10
0.0
 20
0.0
 30
0.0
  9
$PLIMCHECK
 70
     0
  9
$PEXTMIN
 10
1.000000000000000E+20
 20
1.000000000000000E+20
 30
1.000000000000000E+20
  9
$PEXTMAX
 10
-1.000000000000000E+20
 20
-1.000000000000000E+20
 30
-1.000000000000000E+20
  9
$PLIMMIN
 10
0.0
 20
0.0
  9
$PLIMMAX
 10
12.0
 20
9.0
  9
$UNITMODE
 70
     0
  9
$VISRETAIN
 70
     1
  9
$PLINEGEN
 70
     0
  9
$PSLTSCALE
 70
     1
  9
$TREEDEPTH
 70
  3020
  9
$CMLSTYLE
  2
Standard
  9
$CMLJUST
 70
     0
  9
$CMLSCALE
 40
1.0
  9
$PROXYGRAPHICS
 70
     1
  9
$MEASUREMENT
 70
     0
  9
$CELWEIGHT
370
    -1
  9
$ENDCAPS
280
     0
  9
$JOINSTYLE
280
     0
  9
$LWDISPLAY
290
     0
  9
$INSUNITS
 70
     0
  9
$HYPERLINKBASE
  1

  9
$STYLESHEET
  1

  9
$XEDIT
290
     1
  9
$CEPSNTYPE
380
     0
  9
$PSTYLEMODE
290
     1
  9
$FINGERPRINTGUID
  2
{FFE95C04-33D2-4560-80D0-1E2918E4EC86}
  9
$VERSIONGUID
  2
{F205CC9B-7DEE-44D5-B4DD-9A13DDA8DC03}
  9
$EXTNAMES
290
     1
  9
$PSVPSCALE
 40
0.0
  9
$OLESTARTUP
290
     0
  0
ENDSEC
  0
SECTION
  2
CLASSES
  0
CLASS
  1
ACDBDICTIONARYWDFLT
  2
AcDbDictionaryWithDefault
  3
AutoCAD 2000
 90
        0
280
     0
281
     0
  0
CLASS
  1
ACDBPLACEHOLDER
  2
AcDbPlaceHolder
  3
AutoCAD 2000
 90
        0
280
     0
281
     0
  0
CLASS
  1
LAYOUT
  2
AcDbLayout
  3
AutoCAD 2000
 90
        0
280
     0
281
     0
  0
CLASS
  1
DICTIONARYVAR
  2
AcDbDictionaryVar
  3
AutoCAD 2000
 90
        0
280
     0
281
     0
  0
CLASS
  1
LONG_TRANSACTION
  2
AcDbLongTransaction
  3
AutoCAD 2000
 90
    32768
280
     0
281
     0
  0
CLASS
  1
LWPOLYLINE
  2
AcDbPolyline
  3
AutoCAD 2000
 90
    32768
280
     0
281
     1
  0
CLASS
  1
HATCH
  2
AcDbHatch
  3
AutoCAD 2000
 90
    32768
280
     0
281
     1
  0
CLASS
  1
XRECORD
  2
AcDbXrecord
  3
AutoCAD 2000
 90
    32768
280
     0
281
     0
  0
ENDSEC
  0
SECTION
  2
TABLES
  0
TABLE
  2
VPORT
  5
21B6
330
0
100
AcDbSymbolTable
 70
     2
  0
VPORT
  5
3E6A
330
21B6
100
AcDbSymbolTableRecord
100
AcDbViewportTableRecord
  2
*Active
 70
     0
 10
0.0
 20
0.0
 11
1.0
 21
1.0
 12
278.6495863597272
 22
66.45270312960942
 13
0.0
 23
0.0
 14
1.0
 24
1.0
 15
0.0
 25
0.0
 16
0.0
 26
0.0
 36
1.0
 17
0.0
 27
0.0
 37
0.0
 40
363.4319483921881
 41
1.953389830508474
 42
50.0
 43
0.0
 44
0.0
 50
0.0
 51
0.0
 71
     0
 72
   100
 73
     1
 74
     3
 75
     0
 76
     0
 77
     0
 78
     0
281
     0
 65
     1
110
0.0
120
0.0
130
0.0
111
1.0
121
0.0
131
0.0
112
0.0
122
1.0
132
0.0
 79
     0
146
0.0
  0
ENDTAB
  0
TABLE
  2
LTYPE
  5
21B3
330
0
100
AcDbSymbolTable
 70
     2
  0
LTYPE
  5
21C1
330
21B3
100
AcDbSymbolTableRecord
100
AcDbLinetypeTableRecord
  2
ByBlock
 70
     0
  3

 72
    65
 73
     0
 40
0.0
  0
LTYPE
  5
21C2
330
21B3
100
AcDbSymbolTableRecord
100
AcDbLinetypeTableRecord
  2
ByLayer
 70
     0
  3

 72
    65
 73
     0
 40
0.0
  0
LTYPE
  5
21C3
330
21B3
100
AcDbSymbolTableRecord
100
AcDbLinetypeTableRecord
  2
CONTINUOUS
 70
     0
  3
Solid line
 72
    65
 73
     0
 40
0.0
  0
LTYPE
  5
21D1
330
21B3
100
AcDbSymbolTableRecord
100
AcDbLinetypeTableRecord
  2
CENTER
 70
     0
  3
__ . __
 72
    65
 73
     4
 40
7.0
 49
4.0
 74
     0
 49
-1.0
 74
     0
 49
1.0
 74
     0
 49
-1.0
 74
     0
  0
ENDTAB
  0
TABLE
  2
LAYER
  5
21B0
102
{ACAD_XDICTIONARY
360
2244
102
}
330
0
100
AcDbSymbolTable
 70
     1
  0
LAYER
  5
21BE
330
21B0
100
AcDbSymbolTableRecord
100
AcDbLayerTableRecord
  2
0
 70
     0
 62
     7
  6
CONTINUOUS
370
    -3
390
21BD
  0
ENDTAB
  0
TABLE
  2
STYLE
  5
21B1
330
0
100
AcDbSymbolTable
 70
     1
  0
STYLE
  5
21BF
330
21B1
100
AcDbSymbolTableRecord
100
AcDbTextStyleTableRecord
  2
STANDARD
 70
     0
 40
0.0
 41
1.0
 50
0.0
 71
     0
 42
0.2
  3
txt
  4
BIGFONT
  0
ENDTAB
  0
TABLE
  2
VIEW
  5
21B4
330
0
100
AcDbSymbolTable
 70
     1
  0
VIEW
  5
21DE
330
21B4
100
AcDbSymbolTableRecord
100
AcDbViewTableRecord
  2
OLE1
 70
     0
 40
3692.141019219747
 10
1914.591370701856
 20
1272.206200738182
 41
4595.022665841169
 11
0.0
 21
0.0
 31
1.0
 12
0.0
 22
0.0
 32
0.0
 42
50.0
 43
0.0
 44
0.0
 50
0.0
 71
     0
281
     0
 72
     1
110
0.0
120
0.0
130
0.0
111
1.0
121
0.0
131
0.0
112
0.0
122
1.0
132
0.0
 79
     0
146
0.0
  0
ENDTAB
  0
TABLE
  2
UCS
  5
21B5
330
0
100
AcDbSymbolTable
 70
     0
  0
ENDTAB
  0
TABLE
  2
APPID
  5
21B7
330
0
100
AcDbSymbolTable
 70
     8
  0
APPID
  5
21C0
330
21B7
100
AcDbSymbolTableRecord
100
AcDbRegAppTableRecord
  2
ACAD
 70
     0
  0
APPID
  5
21DF
330
21B7
100
AcDbSymbolTableRecord
100
AcDbRegAppTableRecord
  2
MCAD_NO_VIS
 70
     0
  0
APPID
  5
21E0
330
21B7
100
AcDbSymbolTableRecord
100
AcDbRegAppTableRecord
  2
ACAD_TEMP_GRAPHIC
 70
     0
  0
APPID
  5
21E1
330
21B7
100
AcDbSymbolTableRecord
100
AcDbRegAppTableRecord
  2
ACATTRIBSERVICES
 70
     0
  0
APPID
  5
21E2
330
21B7
100
AcDbSymbolTableRecord
100
AcDbRegAppTableRecord
  2
CONTENTBLOCKICON
 70
     0
  0
APPID
  5
2241
330
21B7
100
AcDbSymbolTableRecord
100
AcDbRegAppTableRecord
  2
ACAD_DSTYLE_DIMJAG
 70
     0
  0
APPID
  5
2242
330
21B7
100
AcDbSymbolTableRecord
100
AcDbRegAppTableRecord
  2
ACAD_DSTYLE_DIMTALN
 70
     0
  0
APPID
  5
2243
330
21B7
100
AcDbSymbolTableRecord
100
AcDbRegAppTableRecord
  2
ACAD_PSEXT
 70
     0
  0
ENDTAB
  0
TABLE
  2
DIMSTYLE
  5
21B8
330
0
100
AcDbSymbolTable
 70
     1
100
AcDbDimStyleTable
 71
     0
  0
DIMSTYLE
105
21E3
330
21B8
100
AcDbSymbolTableRecord
100
AcDbDimStyleTableRecord
  2
STANDARD
 70
     0
279
     2
340
21BF
  0
ENDTAB
  0
TABLE
  2
BLOCK_RECORD
  5
21AF
330
0
100
AcDbSymbolTable
 70
     0
  0
BLOCK_RECORD
  5
21CC
102
{ACAD_XDICTIONARY
360
21F8
102
}
330
21AF
100
AcDbSymbolTableRecord
100
AcDbBlockTableRecord
  2
*Model_Space
340
21CF
  0
BLOCK_RECORD
  5
21C8
102
{ACAD_XDICTIONARY
360
21FA
102
}
330
21AF
100
AcDbSymbolTableRecord
100
AcDbBlockTableRecord
  2
*Paper_Space
340
21CB
  0
ENDTAB
  0
ENDSEC
  0
SECTION
  2
BLOCKS
  0
BLOCK
  5
21CD
330
21CC
100
AcDbEntity
  8
0
100
AcDbBlockBegin
  2
*Model_Space
 70
     0
 10
0.0
 20
0.0
 30
0.0
  3
*Model_Space
  1

  0
ENDBLK
  5
21CE
330
21CC
100
AcDbEntity
  8
0
100
AcDbBlockEnd
  0
BLOCK
  5
21C9
330
21C8
100
AcDbEntity
 67
     1
  8
0
100
AcDbBlockBegin
  2
*Paper_Space
 70
     0
 10
0.0
 20
0.0
 30
0.0
  3
*Paper_Space
  1

  0
ENDBLK
  5
21CA
330
21C8
100
AcDbEntity
 67
     1
  8
0
100
AcDbBlockEnd
  0
ENDSEC
  0
SECTION
  2
ENTITIES
  0
TEXT
  5
F6E
330
21CC
100
AcDbEntity
  8
0
  6
Continuous
100
AcDbText
 10
0.0
 20
150.0
 30
0.0
 40
48.000002
  1
STS 2S
 41
1.32095
100
AcDbText
  0
LINE
  5
3932
330
21CC
100
AcDbEntity
  8
0
100
AcDbLine
 10
122.4161047124946
 20
-32.0
 30
0.0
 11
124.7059183902854
 21
-32.0
 31
0.0
  0
LINE
  5
3933
330
21CC
100
AcDbEntity
  8
0
100
AcDbLine
 10
129.0687236981486
 20
-25.39999000000034
 30
0.0
 11
147.4161047124946
 21
-25.39999000000034
 31
0.0
  0
LINE
  5
3934
330
21CC
100
AcDbEntity
  8
0
100
AcDbLine
 10
125.4576716228366
 20
-31.4736184886824
 30
0.0
 11
127.1893406167707
 21
-26.71594377829433
 31
0.0
  0
LINE
  5
3935
330
21CC
100
AcDbEntity
  8
0
100
AcDbLine
 10
620.1262748190897
 20
-32.00003000000015
 30
0.0
 11
622.4161087124944
 21
-32.00003000000015
 31
0.0
  0
LINE
  5
3936
330
21CC
100
AcDbEntity
  8
0
100
AcDbLine
 10
617.2002958491861
 20
25.07537867103792
 30
0.0
 11
617.2002958491861
 21
-25.07537867103838
 31
0.0
  0
LINE
  5
3937
330
21CC
100
AcDbEntity
  8
0
100
AcDbLine
 10
617.6792659115103
 20
-26.81596995304335
 30
0.0
 11
619.3745206875651
 21
-31.4736460187828
 31
0.0
  0
LINE
  5
3938
330
21CC
100
AcDbEntity
  8
0
100
AcDbLine
 10
169.1661047124946
 20
-38.15001000000029
 30
0.0
 11
540.5434947124945
 21
-38.15001000000029
 31
0.0
  0
LINE
  5
3939
330
21CC
100
AcDbEntity
  8
0
100
AcDbLine
 10
597.4161047124948
 20
-25.5000100000002
 30
0.0
 11
615.7998805826969
 21
-25.5000100000002
 31
0.0
  0
LINE
  5
393A
330
21CC
100
AcDbEntity
  8
0
100
AcDbLine
 10
540.4161447124947
 20
-38.15005000000019
 30
0.0
 11
597.4161447124948
 21
-25.5000500000001
 31
0.0
  0
LINE
  5
393B
330
21CC
100
AcDbEntity
  8
0
100
AcDbLine
 10
597.4161047124948
 20
25.50000999999975
 30
0.0
 11
597.4161047124948
 21
-25.5000100000002
 31
0.0
  0
LINE
  5
393C
330
21CC
100
AcDbEntity
  8
0
100
AcDbLine
 10
540.4161147124946
 20
38.15000999999984
 30
0.0
 11
540.4161147124946
 21
-38.15001000000029
 31
0.0
  0
LINE
  5
393D
330
21CC
100
AcDbEntity
  8
0
100
AcDbLine
 10
624.3656027124948
 20
-28.25
 30
0.0
 11
617.2746907124942
 21
-28.25
 31
0.0
  0
LINE
  5
393E
330
21CC
100
AcDbEntity
  8
0
100
AcDbLine
 10
122.4161047124946
 20
32.0
 30
0.0
 11
122.4161047124946
 21
-32.0
 31
0.0
  0
LINE
  5
393F
330
21CC
100
AcDbEntity
  8
0
100
AcDbLine
 10
127.6683133280296
 20
-24.97535642886805
 30
0.0
 11
127.6683133280296
 21
24.97535642886805
 31
0.0
  0
LINE
  5
3940
330
21CC
100
AcDbEntity
  8
0
100
AcDbLine
 10
125.2660825383329
 20
-29.66097677433299
 30
0.0
 11
125.2660825383329
 21
29.66097677433299
 31
0.0
  0
ARC
  5
3941
330
21CC
100
AcDbEntity
  8
0
100
AcDbCircle
 10
124.7059183902854
 20
-31.20000000000027
 30
0.0
 40
0.8
100
AcDbArc
 50
270.0
 51
339.9998190611619
  0
ARC
  5
3942
330
21CC
100
AcDbEntity
  8
0
100
AcDbCircle
 10
129.0687236981486
 20
-27.39999000000034
 30
0.0
 40
2.0
100
AcDbArc
 50
90.0
 51
159.9998190611619
  0
LINE
  5
3943
330
21CC
100
AcDbEntity
  8
0
100
AcDbLine
 10
619.5661087124949
 20
29.66098566024493
 30
0.0
 11
619.5661087124949
 21
-29.66098566024538
 31
0.0
  0
ARC
  5
3944
330
21CC
100
AcDbEntity
  8
0
100
AcDbCircle
 10
620.1262748190897
 20
-31.20002999999996
 30
0.0
 40
0.8
100
AcDbArc
 50
199.9999926925669
 51
270.0
  0
ARC
  5
3945
330
21CC
100
AcDbEntity
  8
0
100
AcDbCircle
 10
615.7998805826969
 20
-27.5000100000002
 30
0.0
 40
2.0
100
AcDbArc
 50
19.99999269256698
 51
90.0
  0
LINE
  5
3946
330
21CC
100
AcDbEntity
  8
0
100
AcDbLine
 10
622.4161087124944
 20
32.00002999999969
 30
0.0
 11
622.4161087124944
 21
-32.00003000000015
 31
0.0
  0
LINE
  5
3947
330
21CC
100
AcDbEntity
  8
0
  6
CENTER
100
AcDbLine
 10
112.4161047124946
 20
0.0
 30
0.0
 11
632.4161087124943
 21
0.0
 31
0.0
  0
LINE
  5
39C2
330
21CC
100
AcDbEntity
  8
0
100
AcDbLine
 10
122.4161047124946
 20
32.0
 30
0.0
 11
124.7059183902854
 21
32.0
 31
0.0
  0
LINE
  5
39C3
330
21CC
100
AcDbEntity
  8
0
100
AcDbLine
 10
129.0687236981486
 20
25.39998999999989
 30
0.0
 11
147.4161047124946
 21
25.39998999999989
 31
0.0
  0
LINE
  5
39C4
330
21CC
100
AcDbEntity
  8
0
100
AcDbLine
 10
125.4576716228366
 20
31.4736184886824
 30
0.0
 11
127.1893406167707
 21
26.71594377829433
 31
0.0
  0
LINE
  5
39C5
330
21CC
100
AcDbEntity
  8
0
100
AcDbLine
 10
620.1262748190897
 20
32.00002999999969
 30
0.0
 11
622.4161087124944
 21
32.00002999999969
 31
0.0
  0
LINE
  5
39C6
330
21CC
100
AcDbEntity
  8
0
100
AcDbLine
 10
617.6792659115103
 20
26.81596995304335
 30
0.0
 11
619.3745206875651
 21
31.47364601878234
 31
0.0
  0
LINE
  5
39C7
330
21CC
100
AcDbEntity
  8
0
100
AcDbLine
 10
169.1661047124946
 20
38.15000999999984
 30
0.0
 11
540.5434947124945
 21
38.15000999999984
 31
0.0
  0
LINE
  5
39C8
330
21CC
100
AcDbEntity
  8
0
100
AcDbLine
 10
597.4161047124948
 20
25.50000999999975
 30
0.0
 11
615.7998805826969
 21
25.50000999999975
 31
0.0
  0
LINE
  5
39C9
330
21CC
100
AcDbEntity
  8
0
100
AcDbLine
 10
540.4161447124947
 20
38.15004999999974
 30
0.0
 11
597.4161447124948
 21
25.5000500000001
 31
0.0
  0
LINE
  5
39CA
330
21CC
100
AcDbEntity
  8
0
100
AcDbLine
 10
624.3656027124948
 20
28.25
 30
0.0
 11
617.2746907124942
 21
28.25
 31
0.0
  0
ARC
  5
39CB
330
21CC
100
AcDbEntity
  8
0
100
AcDbCircle
 10
124.7059183902854
 20
31.19999999999981
 30
0.0
 40
0.8
100
AcDbArc
 50
20.00018093883807
 51
90.0
  0
ARC
  5
39CC
330
21CC
100
AcDbEntity
  8
0
100
AcDbCircle
 10
129.0687236981486
 20
27.39998999999988
 30
0.0
 40
2.0
100
AcDbArc
 50
200.000180938838
 51
270.0
  0
ARC
  5
39CD
330
21CC
100
AcDbEntity
  8
0
100
AcDbCircle
 10
620.1262748190897
 20
31.20002999999996
 30
0.0
 40
0.8
100
AcDbArc
 50
90.0
 51
160.000007307433
  0
ARC
  5
39CE
330
21CC
100
AcDbEntity
  8
0
100
AcDbCircle
 10
615.7998805826969
 20
27.50000999999974
 30
0.0
 40
2.0
100
AcDbArc
 50
270.0
 51
340.000007307433
  0
LINE
  5
3C2E
330
21CC
100
AcDbEntity
  8
0
100
AcDbLine
 10
67.99998000000005
 20
14.0
 30
0.0
 11
67.99998000000005
 21
5.0
 31
0.0
  0
LINE
  5
3C2F
330
21CC
100
AcDbEntity
  8
0
100
AcDbLine
 10
67.99998000000005
 20
-5.0
 30
0.0
 11
67.99998000000005
 21
-14.0
 31
0.0
  0
ARC
  5
3C30
330
21CC
100
AcDbEntity
  8
0
100
AcDbCircle
 10
66.99998000000005
 20
-14.0
 30
0.0
 40
1.0
100
AcDbArc
 50
270.0
 51
0.0
  0
LINE
  5
3C31
330
21CC
100
AcDbEntity
  8
0
100
AcDbLine
 10
64.99998000000005
 20
4.0
 30
0.0
 11
64.99998000000005
 21
-4.0
 31
0.0
  0
LINE
  5
3C32
330
21CC
100
AcDbEntity
  8
0
100
AcDbLine
 10
64.99998000000005
 20
-29.46795919243095
 30
0.0
 11
64.99998000000005
 21
-39.42822999999998
 31
0.0
  0
LINE
  5
3C33
330
21CC
100
AcDbEntity
  8
0
100
AcDbLine
 10
57.0
 20
4.0
 30
0.0
 11
57.0
 21
-4.0
 31
0.0
  0
LINE
  5
3C34
330
21CC
100
AcDbEntity
  8
0
100
AcDbLine
 10
57.0
 20
-29.46795919243095
 30
0.0
 11
57.0
 21
-39.42822999999998
 31
0.0
  0
LINE
  5
3C35
330
21CC
100
AcDbEntity
  8
0
100
AcDbLine
 10
56.0
 20
-43.00003000000015
 30
0.0
 11
56.0
 21
-31.20001000000002
 31
0.0
  0
LINE
  5
3C36
330
21CC
100
AcDbEntity
  8
0
100
AcDbLine
 10
65.99998000000005
 20
-43.00003000000015
 30
0.0
 11
65.99998000000005
 21
-31.20001000000002
 31
0.0
  0
LINE
  5
3C37
330
21CC
100
AcDbEntity
  8
0
100
AcDbLine
 10
53.25
 20
-27.20001000000002
 30
0.0
 11
53.25
 21
-17.90003000000024
 31
0.0
  0
ARC
  5
3C38
330
21CC
100
AcDbEntity
  8
0
100
AcDbCircle
 10
55.25
 20
-27.20001000000002
 30
0.0
 40
2.0
100
AcDbArc
 50
180.0
 51
270.0
  0
LINE
  5
3C39
330
21CC
100
AcDbEntity
  8
0
100
AcDbLine
 10
68.74998000000005
 20
-27.20001000000002
 30
0.0
 11
68.74998000000005
 21
-17.90003000000024
 31
0.0
  0
ARC
  5
3C3A
330
21CC
100
AcDbEntity
  8
0
100
AcDbCircle
 10
66.74998000000005
 20
-27.20001000000002
 30
0.0
 40
2.0
100
AcDbArc
 50
270.0
 51
0.0
  0
LINE
  5
3C3B
330
21CC
100
AcDbEntity
  8
0
100
AcDbLine
 10
74.93930999999998
 20
-52.00003000000015
 30
0.0
 11
47.06066000000009
 21
-52.00003000000015
 31
0.0
  0
LINE
  5
3C3C
330
21CC
100
AcDbEntity
  8
0
100
AcDbLine
 10
66.99998000000005
 20
-4.0
 30
0.0
 11
44.95830999999998
 21
-4.0
 31
0.0
  0
LINE
  5
3C3D
330
21CC
100
AcDbEntity
  8
0
  6
CENTER
100
AcDbLine
 10
-75.11321500000008
 20
0.0
 30
0.0
 11
75.11321500000008
 21
0.0
 31
0.0
  0
LINE
  5
3C3E
330
21CC
100
AcDbEntity
  8
0
100
AcDbLine
 10
169.1661047124946
 20
-45.36838000000034
 30
0.0
 11
169.1661047124946
 21
6.399989999999888
 31
0.0
  0
LINE
  5
3C3F
330
21CC
100
AcDbEntity
  8
0
100
AcDbLine
 10
151.6661047124946
 20
-45.36838000000034
 30
0.0
 11
151.6661047124946
 21
6.266290000000026
 31
0.0
  0
LINE
  5
3C40
330
21CC
100
AcDbEntity
  8
0
100
AcDbLine
 10
164.7205247124945
 20
53.5
 30
0.0
 11
156.1116947124946
 21
53.5
 31
0.0
  0
LINE
  5
3C41
330
21CC
100
AcDbEntity
  8
0
100
AcDbLine
 10
156.1661047124946
 20
4.0
 30
0.0
 11
151.9161047124946
 21
4.0
 31
0.0
  0
LINE
  5
3C42
330
21CC
100
AcDbEntity
  8
0
100
AcDbLine
 10
164.7205247124945
 20
-53.50003000000015
 30
0.0
 11
156.1116947124946
 21
-53.50003000000015
 31
0.0
  0
LINE
  5
3C43
330
21CC
100
AcDbEntity
  8
0
100
AcDbLine
 10
66.99998000000005
 20
4.0
 30
0.0
 11
44.95830999999998
 21
4.0
 31
0.0
  0
LINE
  5
3C44
330
21CC
100
AcDbEntity
  8
0
100
AcDbLine
 10
66.99998000000005
 20
15.0
 30
0.0
 11
52.8322700000001
 21
15.0
 31
0.0
  0
LINE
  5
3C45
330
21CC
100
AcDbEntity
  8
0
100
AcDbLine
 10
151.7001747124945
 20
-45.62718000000041
 30
0.0
 11
153.2138947124944
 21
-51.27647000000024
 31
0.0
  0
LINE
  5
3C46
330
21CC
100
AcDbEntity
  8
0
100
AcDbLine
 10
169.1320347124944
 20
-45.62718000000041
 30
0.0
 11
167.6183147124945
 21
-51.27647000000024
 31
0.0
  0
LINE
  5
3C47
330
21CC
100
AcDbEntity
  8
0
100
AcDbLine
 10
167.6183147124945
 20
51.27644999999984
 30
0.0
 11
169.1320347124944
 21
45.62716999999975
 31
0.0
  0
LINE
  5
3C48
330
21CC
100
AcDbEntity
  8
0
100
AcDbLine
 10
153.8096947124945
 20
15.0
 30
0.0
 11
153.8096947124945
 21
49.6885400000001
 31
0.0
  0
LINE
  5
3C49
330
21CC
100
AcDbEntity
  8
0
100
AcDbLine
 10
167.0225247124947
 20
15.0
 30
0.0
 11
167.0225247124947
 21
49.61061999999992
 31
0.0
  0
LINE
  5
3C4A
330
21CC
100
AcDbEntity
  8
0
100
AcDbLine
 10
155.9162247124945
 20
-11.2850000000003
 30
0.0
 11
152.9395947124946
 21
-14.6613299999999
 31
0.0
  0
LINE
  5
3C4B
330
21CC
100
AcDbEntity
  8
0
100
AcDbLine
 10
164.9159847124944
 20
-11.28503
 30
0.0
 11
167.8926047124946
 21
-14.66135000000031
 31
0.0
  0
LINE
  5
3C4C
330
21CC
100
AcDbEntity
  8
0
100
AcDbLine
 10
158.5661347124946
 20
-52.0
 30
0.0
 11
162.2661147124945
 21
-52.0
 31
0.0
  0
LINE
  5
3C4D
330
21CC
100
AcDbEntity
  8
0
100
AcDbLine
 10
157.5661347124946
 20
-51.0
 30
0.0
 11
157.5661347124946
 21
-31.20001000000002
 31
0.0
  0
LINE
  5
3C4E
330
21CC
100
AcDbEntity
  8
0
100
AcDbLine
 10
152.1894847124945
 20
-15.0
 30
0.0
 11
151.9161047124946
 21
-15.0
 31
0.0
  0
LINE
  5
3C4F
330
21CC
100
AcDbEntity
  8
0
100
AcDbLine
 10
156.1661047124946
 20
-4.0
 30
0.0
 11
151.9161047124946
 21
-4.0
 31
0.0
  0
LINE
  5
3C50
330
21CC
100
AcDbEntity
  8
0
100
AcDbLine
 10
156.1661047124946
 20
4.0
 30
0.0
 11
156.1661047124946
 21
15.0
 31
0.0
  0
LINE
  5
3C51
330
21CC
100
AcDbEntity
  8
0
100
AcDbLine
 10
156.1661047124946
 20
15.0
 30
0.0
 11
151.9161047124946
 21
15.0
 31
0.0
  0
LINE
  5
3C52
330
21CC
100
AcDbEntity
  8
0
100
AcDbLine
 10
156.1661047124946
 20
-10.62368999999989
 30
0.0
 11
156.1661047124946
 21
-4.0
 31
0.0
  0
LINE
  5
3C53
330
21CC
100
AcDbEntity
  8
0
100
AcDbLine
 10
156.4161047124946
 20
-12.0
 30
0.0
 11
156.4161047124946
 21
14.42819000000008
 31
0.0
  0
LINE
  5
3C54
330
21CC
100
AcDbEntity
  8
0
100
AcDbLine
 10
156.4161047124946
 20
-39.42822999999998
 30
0.0
 11
156.4161047124946
 21
-29.38962000000037
 31
0.0
  0
LINE
  5
3C55
330
21CC
100
AcDbEntity
  8
0
100
AcDbLine
 10
152.6661047124946
 20
-27.20001000000002
 30
0.0
 11
152.6661047124946
 21
-17.90000000000009
 31
0.0
  0
LINE
  5
3C56
330
21CC
100
AcDbEntity
  8
0
100
AcDbLine
 10
154.6661047124946
 20
-29.20001000000002
 30
0.0
 11
166.1661047124946
 21
-29.20001000000002
 31
0.0
  0
LINE
  5
3C57
330
21CC
100
AcDbEntity
  8
0
100
AcDbLine
 10
155.3909347124945
 20
-12.0
 30
0.0
 11
165.4413147124946
 21
-12.0
 31
0.0
  0
LINE
  5
3C58
330
21CC
100
AcDbEntity
  8
0
100
AcDbLine
 10
168.9161047124946
 20
12.5999999999999
 30
0.0
 11
169.4161047124946
 21
12.5999999999999
 31
0.0
  0
LINE
  5
3C59
330
21CC
100
AcDbEntity
  8
0
100
AcDbLine
 10
168.9161047124946
 20
6.399989999999888
 30
0.0
 11
169.4161047124946
 21
6.399989999999888
 31
0.0
  0
LINE
  5
3C5A
330
21CC
100
AcDbEntity
  8
0
100
AcDbLine
 10
163.2661147124945
 20
-51.0
 30
0.0
 11
163.2661147124945
 21
-31.20001000000002
 31
0.0
  0
LINE
  5
3C5B
330
21CC
100
AcDbEntity
  8
0
100
AcDbLine
 10
168.6427347124945
 20
-15.0
 30
0.0
 11
168.9161047124946
 21
-15.0
 31
0.0
  0
LINE
  5
3C5C
330
21CC
100
AcDbEntity
  8
0
100
AcDbLine
 10
164.6661047124946
 20
-4.0
 30
0.0
 11
168.9161047124946
 21
-4.0
 31
0.0
  0
LINE
  5
3C5D
330
21CC
100
AcDbEntity
  8
0
100
AcDbLine
 10
164.6661047124946
 20
4.0
 30
0.0
 11
164.6661047124946
 21
15.0
 31
0.0
  0
LINE
  5
3C5E
330
21CC
100
AcDbEntity
  8
0
100
AcDbLine
 10
164.6661047124946
 20
4.0
 30
0.0
 11
168.9161047124946
 21
4.0
 31
0.0
  0
LINE
  5
3C5F
330
21CC
100
AcDbEntity
  8
0
100
AcDbLine
 10
164.6661047124946
 20
15.0
 30
0.0
 11
168.9161047124946
 21
15.0
 31
0.0
  0
LINE
  5
3C60
330
21CC
100
AcDbEntity
  8
0
100
AcDbLine
 10
164.6661047124946
 20
-10.62368999999989
 30
0.0
 11
164.6661047124946
 21
-4.0
 31
0.0
  0
LINE
  5
3C61
330
21CC
100
AcDbEntity
  8
0
100
AcDbLine
 10
164.4161047124946
 20
-12.0
 30
0.0
 11
164.4161047124946
 21
14.42819000000008
 31
0.0
  0
LINE
  5
3C62
330
21CC
100
AcDbEntity
  8
0
100
AcDbLine
 10
164.4161047124946
 20
-39.42822999999998
 30
0.0
 11
164.4161047124946
 21
-29.38962000000037
 31
0.0
  0
LINE
  5
3C63
330
21CC
100
AcDbEntity
  8
0
100
AcDbLine
 10
168.1661047124946
 20
-27.20001000000002
 30
0.0
 11
168.1661047124946
 21
-17.90000000000009
 31
0.0
  0
LINE
  5
3C64
330
21CC
100
AcDbEntity
  8
0
100
AcDbLine
 10
167.0225247124947
 20
-29.00737000000026
 30
0.0
 11
167.0225247124947
 21
-50.63210000000026
 31
0.0
  0
LINE
  5
3C65
330
21CC
100
AcDbEntity
  8
0
100
AcDbLine
 10
153.8096947124945
 20
-29.00737000000026
 30
0.0
 11
153.8096947124945
 21
-50.21929
 31
0.0
  0
LINE
  5
3C66
330
21CC
100
AcDbEntity
  8
0
100
AcDbLine
 10
66.99998000000005
 20
-15.0
 30
0.0
 11
52.8322700000001
 21
-15.0
 31
0.0
  0
LINE
  5
3C67
330
21CC
100
AcDbEntity
  8
0
  6
CENTER
100
AcDbLine
 10
0.0000400000001264
 20
59.1601499999997
 30
0.0
 11
0.0000400000001264
 21
-59.16015000000015
 31
0.0
  0
LINE
  5
3C68
330
21CC
100
AcDbEntity
  8
0
100
AcDbLine
 10
169.9161047124946
 20
6.899989999999888
 30
0.0
 11
169.9161047124946
 21
12.09999999999991
 31
0.0
  0
LINE
  5
3C69
330
21CC
100
AcDbEntity
  8
0
100
AcDbLine
 10
170.1661047124946
 20
41.72605999999996
 30
0.0
 11
170.1661047124946
 21
46.92606999999997
 31
0.0
  0
LINE
  5
3C6A
330
21CC
100
AcDbEntity
  8
0
100
AcDbLine
 10
168.6661047124946
 20
47.42606999999998
 30
0.0
 11
169.6661047124946
 21
47.42606999999998
 31
0.0
  0
LINE
  5
3C6B
330
21CC
100
AcDbEntity
  8
0
100
AcDbLine
 10
169.1661047124946
 20
41.22605999999996
 30
0.0
 11
169.6661047124946
 21
41.22605999999996
 31
0.0
  0
LINE
  5
3C6C
330
21CC
100
AcDbEntity
  8
0
100
AcDbLine
 10
170.1661047124946
 20
-41.72605999999996
 30
0.0
 11
170.1661047124946
 21
-46.92606999999997
 31
0.0
  0
LINE
  5
3C6D
330
21CC
100
AcDbEntity
  8
0
100
AcDbLine
 10
169.1661047124946
 20
-41.22605999999996
 30
0.0
 11
169.6661047124946
 21
-41.22605999999996
 31
0.0
  0
LINE
  5
3C6E
330
21CC
100
AcDbEntity
  8
0
100
AcDbLine
 10
168.6500247124945
 20
-47.42606999999998
 30
0.0
 11
169.6661047124946
 21
-47.42606999999998
 31
0.0
  0
LINE
  5
3C6F
330
21CC
100
AcDbEntity
  8
0
100
AcDbLine
 10
151.9161047124946
 20
-15.0
 30
0.0
 11
151.9161047124946
 21
15.0
 31
0.0
  0
LINE
  5
3C70
330
21CC
100
AcDbEntity
  8
0
100
AcDbLine
 10
168.9161047124946
 20
-15.0
 30
0.0
 11
168.9161047124946
 21
15.0
 31
0.0
  0
LINE
  5
3C71
330
21CC
100
AcDbEntity
  8
0
100
AcDbLine
 10
151.6661047124946
 20
12.73369999999977
 30
0.0
 11
151.6661047124946
 21
45.36833999999998
 31
0.0
  0
LINE
  5
3C72
330
21CC
100
AcDbEntity
  8
0
100
AcDbLine
 10
169.1661047124946
 20
12.5999999999999
 30
0.0
 11
169.1661047124946
 21
45.36833999999998
 31
0.0
  0
LINE
  5
3C73
330
21CC
100
AcDbEntity
  8
0
100
AcDbLine
 10
151.6661047124946
 20
47.57605999999987
 30
0.0
 11
152.1661047124946
 21
47.57605999999987
 31
0.0
  0
LINE
  5
3C74
330
21CC
100
AcDbEntity
  8
0
100
AcDbLine
 10
151.6661047124946
 20
-47.57607000000007
 30
0.0
 11
152.1661047124946
 21
-47.57607000000007
 31
0.0
  0
LINE
  5
3C75
330
21CC
100
AcDbEntity
  8
0
100
AcDbLine
 10
152.6661047124946
 20
49.32605999999987
 30
0.0
 11
152.6913047124946
 21
49.32605999999987
 31
0.0
  0
LINE
  5
3C76
330
21CC
100
AcDbEntity
  8
0
100
AcDbLine
 10
151.6661047124946
 20
47.57605999999987
 30
0.0
 11
151.6661047124946
 21
48.32605999999987
 31
0.0
  0
LINE
  5
3C77
330
21CC
100
AcDbEntity
  8
0
100
AcDbLine
 10
169.1661047124946
 20
47.42606999999998
 30
0.0
 11
169.1661047124946
 21
48.32605999999987
 31
0.0
  0
LINE
  5
3C78
330
21CC
100
AcDbEntity
  8
0
100
AcDbLine
 10
153.2139047124944
 20
51.27646000000004
 30
0.0
 11
151.7001747124945
 21
45.62716
 31
0.0
  0
LINE
  5
3C79
330
21CC
100
AcDbEntity
  8
0
100
AcDbLine
 10
151.6661047124946
 20
-47.57607000000007
 30
0.0
 11
151.6661047124946
 21
-48.32607000000007
 31
0.0
  0
LINE
  5
3C7A
330
21CC
100
AcDbEntity
  8
0
100
AcDbLine
 10
169.1661047124946
 20
-47.42606999999998
 30
0.0
 11
169.1661047124946
 21
-48.32607000000007
 31
0.0
  0
LINE
  5
3C7B
330
21CC
100
AcDbEntity
  8
0
100
AcDbLine
 10
-22.08662000000003
 20
39.66872999999987
 30
0.0
 11
-21.26206000000002
 21
49.0935300000001
 31
0.0
  0
LINE
  5
3C7C
330
21CC
100
AcDbEntity
  8
0
100
AcDbLine
 10
-15.65628999999989
 20
51.50430000000006
 30
0.0
 11
-26.78810999999996
 21
52.47820999999976
 31
0.0
  0
LINE
  5
3C7D
330
21CC
100
AcDbEntity
  8
0
100
AcDbLine
 10
-20.83465999999998
 20
38.35892000000012
 30
0.0
 11
-21.51305999999999
 21
38.67526999999972
 31
0.0
  0
LINE
  5
3C7E
330
21CC
100
AcDbEntity
  8
0
100
AcDbLine
 10
-22.80252999999993
 20
37.22276999999985
 30
0.0
 11
-21.97019
 21
46.73644000000012
 31
0.0
  0
LINE
  5
3C7F
330
21CC
100
AcDbEntity
  8
0
100
AcDbLine
 10
-36.77593999999999
 20
39.31084999999984
 30
0.0
 11
-32.05346000000008
 21
49.43823999999995
 31
0.0
  0
LINE
  5
3C80
330
21CC
100
AcDbEntity
  8
0
100
AcDbLine
 10
-9.978540000000066
 20
44.99243999999999
 30
0.0
 11
-19.94883000000004
 21
49.64165999999977
 31
0.0
  0
LINE
  5
3C81
330
21CC
100
AcDbEntity
  8
0
100
AcDbLine
 10
-30.68319999999994
 20
35.47042999999985
 30
0.0
 11
-37.15869999999995
 21
38.49000999999998
 31
0.0
  0
LINE
  5
3C82
330
21CC
100
AcDbEntity
  8
0
100
AcDbLine
 10
47.49930000000017
 20
12.77439999999978
 30
0.0
 11
51.35412999999994
 21
14.99998999999979
 31
0.0
  0
ARC
  5
3C83
330
21CC
100
AcDbEntity
  8
0
100
AcDbCircle
 10
66.99998000000005
 20
14.0
 30
0.0
 40
1.0
100
AcDbArc
 50
0.0
 51
90.0
  0
ARC
  5
3C84
330
21CC
100
AcDbEntity
  8
0
100
AcDbCircle
 10
66.99998000000005
 20
5.0
 30
0.0
 40
1.0
100
AcDbArc
 50
269.9999970000023
 51
0.0
  0
ARC
  5
3C85
330
21CC
100
AcDbEntity
  8
0
100
AcDbCircle
 10
66.99998000000005
 20
-5.0
 30
0.0
 40
1.0
100
AcDbArc
 50
0.0
 51
90.0
  0
ARC
  5
3C86
330
21CC
100
AcDbEntity
  8
0
100
AcDbCircle
 10
61.0
 20
-32.50003000000015
 30
0.0
 40
8.0
100
AcDbArc
 50
240.0000000000006
 51
300.0000049999958
  0
ARC
  5
3C87
330
21CC
100
AcDbEntity
  8
0
100
AcDbCircle
 10
63.99998000000005
 20
-31.20001000000002
 30
0.0
 40
2.0
100
AcDbArc
 50
0.0
 51
90.0
  0
ARC
  5
3C88
330
21CC
100
AcDbEntity
  8
0
100
AcDbCircle
 10
58.0
 20
-31.20001000000002
 30
0.0
 40
2.0
100
AcDbArc
 50
90.0
 51
180.0
  0
ARC
  5
3C89
330
21CC
100
AcDbEntity
  8
0
100
AcDbCircle
 10
61.0
 20
-43.00003000000015
 30
0.0
 40
5.0
100
AcDbArc
 50
179.9999899999989
 51
0.0000100000010064
  0
ARC
  5
3C8A
330
21CC
100
AcDbEntity
  8
0
100
AcDbCircle
 10
42.0
 20
-48.00003000000015
 30
0.0
 40
35.0
100
AcDbArc
 50
356.5254056999958
 51
35.24751000000194
  0
ARC
  5
3C8B
330
21CC
100
AcDbEntity
  8
0
100
AcDbCircle
 10
78.74998000000005
 20
-22.0300900000002
 30
0.0
 40
10.0
100
AcDbArc
 50
179.9999899999989
 51
215.2474999999989
  0
ARC
  5
3C8C
330
21CC
100
AcDbEntity
  8
0
100
AcDbCircle
 10
43.25
 20
-22.0300900000002
 30
0.0
 40
10.0
100
AcDbArc
 50
324.752498000003
 51
0.0000100000010064
  0
ARC
  5
3C8D
330
21CC
100
AcDbEntity
  8
0
100
AcDbCircle
 10
79.99998000000005
 20
-48.00003000000015
 30
0.0
 40
35.0
100
AcDbArc
 50
144.752489999998
 51
183.4745900000035
  0
ARC
  5
3C8E
330
21CC
100
AcDbEntity
  8
0
100
AcDbCircle
 10
61.0
 20
-17.90003000000024
 30
0.0
 40
7.75
100
AcDbArc
 50
158.02528285816
 51
179.9999899999989
  0
ARC
  5
3C8F
330
21CC
100
AcDbEntity
  8
0
100
AcDbCircle
 10
61.0
 20
-17.90003000000024
 30
0.0
 40
7.75
100
AcDbArc
 50
0.0000100000010064
 51
26.83120193805581
  0
ARC
  5
3C90
330
21CC
100
AcDbEntity
  8
0
100
AcDbCircle
 10
61.0
 20
9.5
 30
0.0
 40
6.0
100
AcDbArc
 50
66.44353569089929
 51
113.5564600000039
  0
ARC
  5
3C91
330
21CC
100
AcDbEntity
  8
0
100
AcDbCircle
 10
74.93930999999998
 20
-50.00003000000015
 30
0.0
 40
2.0
100
AcDbArc
 50
270.0000040000056
 51
356.5254056999958
  0
ARC
  5
3C92
330
21CC
100
AcDbEntity
  8
0
100
AcDbCircle
 10
47.06066000000009
 20
-50.00003000000015
 30
0.0
 40
2.0
100
AcDbArc
 50
183.4745900000035
 51
270.0000040000056
  0
ARC
  5
3C93
330
21CC
100
AcDbEntity
  8
0
100
AcDbCircle
 10
152.6661047124946
 20
-45.36838000000034
 30
0.0
 40
1.0
100
AcDbArc
 50
179.9999899999989
 51
195.0000100000037
  0
ARC
  5
3C94
330
21CC
100
AcDbEntity
  8
0
100
AcDbCircle
 10
168.1661047124946
 20
-45.36838000000034
 30
0.0
 40
1.0
100
AcDbArc
 50
345.0000000000055
 51
0.0
  0
ARC
  5
3C95
330
21CC
100
AcDbEntity
  8
0
100
AcDbCircle
 10
152.6661047124946
 20
45.36833999999998
 30
0.0
 40
1.0
100
AcDbArc
 50
165.0000000000055
 51
180.0000100000009
  0
ARC
  5
3C96
330
21CC
100
AcDbEntity
  8
0
100
AcDbCircle
 10
168.1661047124946
 20
45.36833999999998
 30
0.0
 40
1.0
100
AcDbArc
 50
0.0
 51
14.99999999999445
  0
ARC
  5
3C97
330
21CC
100
AcDbEntity
  8
0
100
AcDbCircle
 10
156.1116947124946
 20
-50.50003000000015
 30
0.0
 40
3.0
100
AcDbArc
 50
195.0000100000037
 51
269.9999970000023
  0
ARC
  5
3C98
330
21CC
100
AcDbEntity
  8
0
100
AcDbCircle
 10
164.7205247124945
 20
-50.50003000000015
 30
0.0
 40
3.0
100
AcDbArc
 50
269.9999970000023
 51
345.0000000000055
  0
ARC
  5
3C99
330
21CC
100
AcDbEntity
  8
0
100
AcDbCircle
 10
156.1116947124946
 20
50.5
 30
0.0
 40
3.0
100
AcDbArc
 50
90.0
 51
164.9999899999962
  0
ARC
  5
3C9A
330
21CC
100
AcDbEntity
  8
0
100
AcDbCircle
 10
164.7205247124945
 20
50.5
 30
0.0
 40
3.0
100
AcDbArc
 50
14.99999999999445
 51
90.0
  0
ARC
  5
3C9B
330
21CC
100
AcDbEntity
  8
0
100
AcDbCircle
 10
155.1661047124946
 20
-10.62368999999989
 30
0.0
 40
1.0
100
AcDbArc
 50
318.6000000000059
 51
0.0
  0
ARC
  5
3C9C
330
21CC
100
AcDbEntity
  8
0
100
AcDbCircle
 10
165.6661047124946
 20
-10.62368999999989
 30
0.0
 40
1.0
100
AcDbArc
 50
179.9999899999989
 51
221.3999999999941
  0
ARC
  5
3C9D
330
21CC
100
AcDbEntity
  8
0
100
AcDbCircle
 10
152.1894847124945
 20
-14.0
 30
0.0
 40
1.0
100
AcDbArc
 50
269.9999970000023
 51
318.6000000000059
  0
ARC
  5
3C9E
330
21CC
100
AcDbEntity
  8
0
100
AcDbCircle
 10
154.6661047124946
 20
-27.20001000000002
 30
0.0
 40
2.0
100
AcDbArc
 50
179.9999899999989
 51
270.0000040000056
  0
ARC
  5
3C9F
330
21CC
100
AcDbEntity
  8
0
100
AcDbCircle
 10
160.4161047124946
 20
-32.5
 30
0.0
 40
8.0
100
AcDbArc
 50
240.0000000000006
 51
249.1299300000058
  0
ARC
  5
3CA0
330
21CC
100
AcDbEntity
  8
0
100
AcDbCircle
 10
160.4161047124946
 20
-17.90000000000009
 30
0.0
 40
7.75
100
AcDbArc
 50
130.4219000000027
 51
179.9999899999989
  0
ARC
  5
3CA1
330
21CC
100
AcDbEntity
  8
0
100
AcDbCircle
 10
160.4161047124946
 20
7.5
 30
0.0
 40
8.0
100
AcDbArc
 50
60.00000000000068
 51
119.9999999999993
  0
ARC
  5
3CA2
330
21CC
100
AcDbEntity
  8
0
100
AcDbCircle
 10
155.5661347124946
 20
-31.20001000000002
 30
0.0
 40
2.0
100
AcDbArc
 50
359.9999949910495
 51
90.0
  0
ARC
  5
3CA3
330
21CC
100
AcDbEntity
  8
0
100
AcDbCircle
 10
158.5661347124946
 20
-51.0
 30
0.0
 40
1.0
100
AcDbArc
 50
179.9999899999989
 51
270.0000040000056
  0
ARC
  5
3CA4
330
21CC
100
AcDbEntity
  8
0
100
AcDbCircle
 10
162.2661147124945
 20
-51.0
 30
0.0
 40
1.0
100
AcDbArc
 50
269.9999970000023
 51
0.0
  0
ARC
  5
3CA5
330
21CC
100
AcDbEntity
  8
0
100
AcDbCircle
 10
165.2661147124945
 20
-31.20001000000002
 30
0.0
 40
2.0
100
AcDbArc
 50
90.0
 51
180.0000100000009
  0
ARC
  5
3CA6
330
21CC
100
AcDbEntity
  8
0
100
AcDbCircle
 10
166.1661047124946
 20
-27.20001000000002
 30
0.0
 40
2.0
100
AcDbArc
 50
269.9999970000023
 51
0.0
  0
ARC
  5
3CA7
330
21CC
100
AcDbEntity
  8
0
100
AcDbCircle
 10
160.4161047124946
 20
-32.5
 30
0.0
 40
8.0
100
AcDbArc
 50
290.8700709999917
 51
299.9999979999987
  0
ARC
  5
3CA8
330
21CC
100
AcDbEntity
  8
0
100
AcDbCircle
 10
160.4161047124946
 20
-17.90000000000009
 30
0.0
 40
7.75
100
AcDbArc
 50
0.0
 51
49.57807999999683
  0
ARC
  5
3CA9
330
21CC
100
AcDbEntity
  8
0
100
AcDbCircle
 10
169.4161047124946
 20
12.09999999999991
 30
0.0
 40
0.5
100
AcDbArc
 50
0.0
 51
90.0
  0
ARC
  5
3CAA
330
21CC
100
AcDbEntity
  8
0
100
AcDbCircle
 10
169.4161047124946
 20
6.899989999999888
 30
0.0
 40
0.5
100
AcDbArc
 50
269.9999970000023
 51
0.0
  0
ARC
  5
3CAB
330
21CC
100
AcDbEntity
  8
0
100
AcDbCircle
 10
168.6427347124945
 20
-14.0
 30
0.0
 40
1.0
100
AcDbArc
 50
221.3999999999941
 51
269.9999970000023
  0
ARC
  5
3CAC
330
21CC
100
AcDbEntity
  8
0
100
AcDbCircle
 10
169.6661047124946
 20
41.72605999999996
 30
0.0
 40
0.5
100
AcDbArc
 50
269.9999970000023
 51
0.0
  0
ARC
  5
3CAD
330
21CC
100
AcDbEntity
  8
0
100
AcDbCircle
 10
169.6661047124946
 20
46.92606999999997
 30
0.0
 40
0.5
100
AcDbArc
 50
0.0
 51
90.0
  0
ARC
  5
3CAE
330
21CC
100
AcDbEntity
  8
0
100
AcDbCircle
 10
169.6661047124946
 20
-41.72605999999996
 30
0.0
 40
0.5
100
AcDbArc
 50
0.0
 51
90.0
  0
ARC
  5
3CAF
330
21CC
100
AcDbEntity
  8
0
100
AcDbCircle
 10
169.6661047124946
 20
-46.92606999999997
 30
0.0
 40
0.5
100
AcDbArc
 50
269.9999970000023
 51
0.0
  0
ARC
  5
3CB0
330
21CC
100
AcDbEntity
  8
0
100
AcDbCircle
 10
152.6661047124946
 20
48.32605999999987
 30
0.0
 40
1.0
100
AcDbArc
 50
90.0
 51
180.0000100000009
  0
ARC
  5
3CB1
330
21CC
100
AcDbEntity
  8
0
100
AcDbCircle
 10
168.1661047124946
 20
48.32605999999987
 30
0.0
 40
1.0
100
AcDbArc
 50
0.0
 51
90.0
  0
ARC
  5
3CB2
330
21CC
100
AcDbEntity
  8
0
100
AcDbCircle
 10
152.6661047124946
 20
-48.32607000000007
 30
0.0
 40
1.0
100
AcDbArc
 50
179.9999899999989
 51
269.9999970000023
  0
ARC
  5
3CB3
330
21CC
100
AcDbEntity
  8
0
100
AcDbCircle
 10
168.1661047124946
 20
-48.32607000000007
 30
0.0
 40
1.0
100
AcDbArc
 50
269.9999970000023
 51
0.0
  0
ARC
  5
3CB4
330
21CC
100
AcDbEntity
  8
0
100
AcDbCircle
 10
0.0
 20
0.0
 30
0.0
 40
54.5
100
AcDbArc
 50
108.5947299999967
 51
131.4053300000079
  0
ARC
  5
3CB5
330
21CC
100
AcDbEntity
  8
0
100
AcDbCircle
 10
44.95830999999998
 20
-7.0
 30
0.0
 40
3.0
100
AcDbArc
 50
90.0
 51
171.1501199999966
  0
ARC
  5
3CB6
330
21CC
100
AcDbEntity
  8
0
100
AcDbCircle
 10
44.95830999999998
 20
7.0
 30
0.0
 40
3.0
100
AcDbArc
 50
188.8498800000033
 51
269.9999970000023
  0
ARC
  5
3CB7
330
21CC
100
AcDbEntity
  8
0
100
AcDbCircle
 10
-21.09045999999989
 20
39.58158000000003
 30
0.0
 40
1.0
100
AcDbArc
 50
174.9999999999999
 51
245.0000000000072
  0
ARC
  5
3CB8
330
21CC
100
AcDbEntity
  8
0
100
AcDbCircle
 10
-19.56681000000003
 20
41.07785999999987
 30
0.0
 40
3.0
100
AcDbArc
 50
245.0000000000072
 51
295.4700670000093
  0
ARC
  5
3CB9
330
21CC
100
AcDbEntity
  8
0
100
AcDbCircle
 10
-41.30749999999989
 20
41.42392999999993
 30
0.0
 40
5.0
100
AcDbArc
 50
314.9193439999943
 51
335.0000000000058
  0
ARC
  5
3CBA
330
21CC
100
AcDbEntity
  8
0
100
AcDbCircle
 10
-15.22052000000007
 20
56.48527000000012
 30
0.0
 40
5.0
100
AcDbArc
 50
264.9999979999948
 51
285.0807270000037
  0
ARC
  5
3CBB
330
21CC
100
AcDbEntity
  8
0
100
AcDbCircle
 10
-25.79114000000004
 20
37.48423999999977
 30
0.0
 40
3.0
100
AcDbArc
 50
304.5299920000002
 51
355.0000001000022
  0
ARC
  5
3CBC
330
21CC
100
AcDbEntity
  8
0
100
AcDbCircle
 10
0.0
 20
0.0
 30
0.0
 40
45.49999999999999
100
AcDbArc
 50
18.47908000000242
 51
100.346540000003
  0
ARC
  5
3CBD
330
21CC
100
AcDbEntity
  8
0
100
AcDbCircle
 10
-8.710669999999936
 20
47.71135999999978
 30
0.0
 40
3.0
100
AcDbArc
 50
245.0000000000072
 51
280.3465320000008
  0
ARC
  5
3CBE
330
21CC
100
AcDbEntity
  8
0
100
AcDbCircle
 10
-31.10581000000002
 20
34.56412
 30
0.0
 40
1.0
100
AcDbArc
 50
311.9854609999918
 51
65.00000000000724
  0
ARC
  5
3CBF
330
21CC
100
AcDbEntity
  8
0
100
AcDbCircle
 10
0.0
 20
0.0
 30
0.0
 40
42.5
100
AcDbArc
 50
8.849880000003329
 51
115.470070000007
  0
ARC
  5
3CC0
330
21CC
100
AcDbEntity
  8
0
100
AcDbCircle
 10
52.8322700000001
 20
-17.0
 30
0.0
 40
2.0
100
AcDbArc
 50
90.0
 51
162.1632299999921
  0
ARC
  5
3CC1
330
21CC
100
AcDbEntity
  8
0
100
AcDbCircle
 10
0.0
 20
0.0
 30
0.0
 40
53.5
100
AcDbArc
 50
17.83677000000786
 51
113.4170900000059
  0
ARC
  5
3CC2
330
21CC
100
AcDbEntity
  8
0
100
AcDbCircle
 10
52.8322700000001
 20
17.0
 30
0.0
 40
2.0
100
AcDbArc
 50
197.8367700000078
 51
269.9999970000023
  0
ARC
  5
3CC3
330
21CC
100
AcDbEntity
  8
0
100
AcDbCircle
 10
45.99928999999997
 20
15.37247999999999
 30
0.0
 40
3.0
100
AcDbArc
 50
198.4790699999988
 51
299.9999979999987
  0
ELLIPSE
  5
3CC4
330
21CC
100
AcDbEntity
  8
0
100
AcDbEllipse
 10
151.9161047124946
 20
9.5
 30
0.0
 11
0.0
 21
-3.250000099999999
 31
0.0
210
0.0
220
0.0
230
-1.0
 40
0.7692307400000001
 41
0.0
 42
3.1415927
  0
ELLIPSE
  5
3CC5
330
21CC
100
AcDbEntity
  8
0
100
AcDbEllipse
 10
151.6661047124946
 20
44.32605999999987
 30
0.0
 11
0.0
 21
-3.250000099999999
 31
0.0
210
0.0
220
0.0
230
-1.0
 40
0.7692307400000001
 41
0.0
 42
3.1415927
  0
ELLIPSE
  5
3CC6
330
21CC
100
AcDbEntity
  8
0
100
AcDbEllipse
 10
151.6661047124946
 20
-44.32607000000007
 30
0.0
 11
0.0
 21
3.250000099999999
 31
0.0
210
0.0
220
0.0
230
-1.0
 40
0.7692307400000001
 41
3.1415927
 42
6.283185299999999
  0
ARC
  5
3CC7
330
21CC
100
AcDbEntity
  8
0
100
AcDbCircle
 10
-27.25002999999992
 20
47.19837000000007
 30
0.0
 40
5.300000200000001
100
AcDbArc
 50
354.9999584865588
 51
155.0594310298733
  0
LINE
  5
3CC8
330
21CC
100
AcDbEntity
  8
0
100
AcDbLine
 10
-22.08662000000003
 20
-39.66873000000032
 30
0.0
 11
-21.26206000000002
 21
-49.0935300000001
 31
0.0
  0
LINE
  5
3CC9
330
21CC
100
AcDbEntity
  8
0
100
AcDbLine
 10
-15.65628999999989
 20
-51.50430000000051
 30
0.0
 11
-26.78810999999996
 21
-52.47821000000022
 31
0.0
  0
LINE
  5
3CCA
330
21CC
100
AcDbEntity
  8
0
100
AcDbLine
 10
-20.83465999999998
 20
-38.35892000000058
 30
0.0
 11
-21.51305999999999
 21
-38.67527000000018
 31
0.0
  0
LINE
  5
3CCB
330
21CC
100
AcDbEntity
  8
0
100
AcDbLine
 10
-22.80252999999993
 20
-37.22277000000031
 30
0.0
 11
-21.97019
 21
-46.73644000000058
 31
0.0
  0
LINE
  5
3CCC
330
21CC
100
AcDbEntity
  8
0
100
AcDbLine
 10
-36.77593999999999
 20
-39.3108500000003
 30
0.0
 11
-32.05346000000008
 21
-49.43824000000041
 31
0.0
  0
LINE
  5
3CCD
330
21CC
100
AcDbEntity
  8
0
100
AcDbLine
 10
-9.978540000000066
 20
-44.99243999999999
 30
0.0
 11
-19.94883000000004
 21
-49.64166000000023
 31
0.0
  0
LINE
  5
3CCE
330
21CC
100
AcDbEntity
  8
0
100
AcDbLine
 10
-30.68319999999994
 20
-35.4704300000003
 30
0.0
 11
-37.15869999999995
 21
-38.49001000000043
 31
0.0
  0
LINE
  5
3CCF
330
21CC
100
AcDbEntity
  8
0
100
AcDbLine
 10
47.49930000000017
 20
-12.77440000000024
 30
0.0
 11
51.35412999999994
 21
-14.99999000000025
 31
0.0
  0
ARC
  5
3CD0
330
21CC
100
AcDbEntity
  8
0
100
AcDbCircle
 10
0.0
 20
0.0
 30
0.0
 40
53.5
100
AcDbArc
 50
134.9193400000039
 51
225.0806600000144
  0
ARC
  5
3CD1
330
21CC
100
AcDbEntity
  8
0
100
AcDbCircle
 10
0.0
 20
0.0
 30
0.0
 40
54.5
100
AcDbArc
 50
228.5946700000098
 51
251.4052700000032
  0
ARC
  5
3CD2
330
21CC
100
AcDbEntity
  8
0
100
AcDbCircle
 10
0.0
 20
0.0
 30
0.0
 40
42.5
100
AcDbArc
 50
124.5299900000005
 51
235.4700099999994
  0
ARC
  5
3CD3
330
21CC
100
AcDbEntity
  8
0
100
AcDbCircle
 10
-21.09045999999989
 20
-39.58158000000003
 30
0.0
 40
1.0
100
AcDbArc
 50
115.0000000000066
 51
185.0
  0
ARC
  5
3CD4
330
21CC
100
AcDbEntity
  8
0
100
AcDbCircle
 10
-19.56681000000003
 20
-41.07786000000032
 30
0.0
 40
3.0
100
AcDbArc
 50
64.52993299999064
 51
115.0000000000066
  0
ARC
  5
3CD5
330
21CC
100
AcDbEntity
  8
0
100
AcDbCircle
 10
-41.30749999999989
 20
-41.42393000000038
 30
0.0
 40
5.0
100
AcDbArc
 50
25.00000000000378
 51
45.08065600000568
  0
ARC
  5
3CD6
330
21CC
100
AcDbEntity
  8
0
100
AcDbCircle
 10
-15.22052000000007
 20
-56.48527000000012
 30
0.0
 40
5.0
100
AcDbArc
 50
74.9192729999963
 51
95.00000200000513
  0
ARC
  5
3CD7
330
21CC
100
AcDbEntity
  8
0
100
AcDbCircle
 10
-25.79114000000004
 20
-37.48424000000023
 30
0.0
 40
3.0
100
AcDbArc
 50
4.999999899984282
 51
55.47000799999981
  0
ARC
  5
3CD8
330
21CC
100
AcDbEntity
  8
0
100
AcDbCircle
 10
0.0
 20
0.0
 30
0.0
 40
45.49999999999999
100
AcDbArc
 50
131.9854599999945
 51
228.0145400000054
  0
ARC
  5
3CD9
330
21CC
100
AcDbEntity
  8
0
100
AcDbCircle
 10
0.0
 20
0.0
 30
0.0
 40
45.49999999999999
100
AcDbArc
 50
259.6534599999969
 51
341.5209199999975
  0
ARC
  5
3CDA
330
21CC
100
AcDbEntity
  8
0
100
AcDbCircle
 10
-8.710669999999936
 20
-47.71136000000024
 30
0.0
 40
3.0
100
AcDbArc
 50
79.65346799999913
 51
115.0000000000066
  0
ARC
  5
3CDB
330
21CC
100
AcDbEntity
  8
0
100
AcDbCircle
 10
-31.10581000000002
 20
-34.56412
 30
0.0
 40
1.0
100
AcDbArc
 50
295.0000000000066
 51
48.01453899998981
  0
ARC
  5
3CDC
330
21CC
100
AcDbEntity
  8
0
100
AcDbCircle
 10
0.0
 20
0.0
 30
0.0
 40
42.5
100
AcDbArc
 50
244.5299299999929
 51
351.1501200000097
  0
ARC
  5
3CDD
330
21CC
100
AcDbEntity
  8
0
100
AcDbCircle
 10
0.0
 20
0.0
 30
0.0
 40
53.5
100
AcDbArc
 50
246.582909999994
 51
342.1632299999921
  0
ARC
  5
3CDE
330
21CC
100
AcDbEntity
  8
0
100
AcDbCircle
 10
45.99928999999997
 20
-15.37247999999999
 30
0.0
 40
3.0
100
AcDbArc
 50
60.0000020000013
 51
161.520930000001
  0
ARC
  5
3CDF
330
21CC
100
AcDbEntity
  8
0
100
AcDbCircle
 10
-27.25002999999992
 20
-47.19837000000007
 30
0.0
 40
5.300000200000001
100
AcDbArc
 50
204.9405689701362
 51
5.000041513441103
  0
CIRCLE
  5
3CE0
330
21CC
100
AcDbEntity
  8
0
100
AcDbCircle
 10
-27.25002999999992
 20
47.19837000000007
 30
0.0
 40
2.599999899999999
  0
CIRCLE
  5
3CE1
330
21CC
100
AcDbEntity
  8
0
100
AcDbCircle
 10
-27.25002999999992
 20
-47.19837000000007
 30
0.0
 40
2.599999899999999
  0
LINE
  5
3CE2
330
21CC
100
AcDbEntity
  8
0
100
AcDbLine
 10
55.25
 20
-29.20001000000002
 30
0.0
 11
66.74998000000005
 21
-29.20001000000002
 31
0.0
  0
CIRCLE
  5
3CE3
330
21CC
100
AcDbEntity
  8
0
100
AcDbCircle
 10
61.0
 20
9.5
 30
0.0
 40
3.250000100000079
  0
ARC
  5
3E54
330
21CC
100
AcDbEntity
  8
0
100
AcDbCircle
 10
147.4161047124946
 20
30.39998999999989
 30
0.0
 40
5.0
100
AcDbArc
 50
270.0
 51
328.2116693829414
  0
ARC
  5
3E55
330
21CC
100
AcDbEntity
  8
0
100
AcDbCircle
 10
147.4161047124946
 20
-30.39999000000034
 30
0.0
 40
5.0
100
AcDbArc
 50
31.78833061705852
 51
90.0
  0
ENDSEC
  0
SECTION
  2
OBJECTS
  0
DICTIONARY
  5
21BA
330
0
100
AcDbDictionary
281
     1
  3
ACAD_GROUP
350
21BB
  3
ACAD_LAYOUT
350
21C7
  3
ACAD_MLINESTYLE
350
21C4
  3
ACAD_PLOTSETTINGS
350
21C6
  3
ACAD_PLOTSTYLENAME
350
21BC
  3
AcDbVariableDictionary
350
2238
  0
DICTIONARY
  5
2244
330
21B0
100
AcDbDictionary
280
     1
281
     1
  3
ACAD_LAYERSTATES
360
2245
  0
DICTIONARY
  5
21F8
330
21CC
100
AcDbDictionary
280
     1
281
     1
  3
ACAD_LAYOUTSELFREF
360
2227
  0
DICTIONARY
  5
21FA
330
21C8
100
AcDbDictionary
280
     1
281
     1
  3
ACAD_LAYOUTSELFREF
360
2226
  0
DICTIONARY
  5
21BB
102
{ACAD_REACTORS
330
21BA
102
}
330
21BA
100
AcDbDictionary
281
     1
  0
DICTIONARY
  5
21C7
102
{ACAD_REACTORS
330
21BA
102
}
330
21BA
100
AcDbDictionary
281
     1
  3
Model
350
21CF
  3
ﾚｲｱｳﾄ1
350
21CB
  0
DICTIONARY
  5
21C4
102
{ACAD_REACTORS
330
21BA
102
}
330
21BA
100
AcDbDictionary
281
     1
  3
Standard
350
21C5
  0
DICTIONARY
  5
21C6
102
{ACAD_REACTORS
330
21BA
102
}
330
21BA
100
AcDbDictionary
281
     1
  0
ACDBDICTIONARYWDFLT
  5
21BC
102
{ACAD_REACTORS
330
21BA
102
}
330
21BA
100
AcDbDictionary
281
     1
  3
Normal
350
21BD
100
AcDbDictionaryWithDefault
340
21BD
  0
DICTIONARY
  5
2238
102
{ACAD_REACTORS
330
21BA
102
}
330
21BA
100
AcDbDictionary
281
     1
  3
DIMASSOC
350
2239
  0
DICTIONARY
  5
2245
102
{ACAD_REACTORS
330
2244
102
}
330
2244
100
AcDbDictionary
281
     1
  0
XRECORD
  5
2227
102
{ACAD_REACTORS
330
21F8
102
}
330
21F8
100
AcDbXrecord
280
     1
340
21CC
  0
XRECORD
  5
2226
102
{ACAD_REACTORS
330
21FA
102
}
330
21FA
100
AcDbXrecord
280
     1
340
21C8
  0
LAYOUT
  5
21CF
102
{ACAD_REACTORS
330
21C7
102
}
330
21C7
100
AcDbPlotSettings
  1

  2
SII LP-2150 (D-SCAN C2)
  4

  6

 40
0.0
 41
0.0
 42
0.0
 43
0.0
 44
0.0
 45
0.0
 46
0.0
 47
0.0
 48
0.0
 49
0.0
140
0.0
141
0.0
142
1.0
143
1.0
 70
  1712
 72
     0
 73
     0
 74
     0
  7

 75
     0
147
1.0
148
0.0
149
0.0
100
AcDbLayout
  1
Model
 70
     1
 71
     0
 10
0.0
 20
0.0
 11
12.0
 21
9.0
 12
0.0
 22
0.0
 32
0.0
 14
0.0
 24
0.0
 34
0.0
 15
0.0
 25
0.0
 35
0.0
146
0.0
 13
0.0
 23
0.0
 33
0.0
 16
1.0
 26
0.0
 36
0.0
 17
0.0
 27
1.0
 37
0.0
 76
     0
330
21CC
  0
LAYOUT
  5
21CB
102
{ACAD_REACTORS
330
21C7
102
}
330
21C7
100
AcDbPlotSettings
  1

  2
SII LP-2150 (D-SCAN C2)
  4

  6

 40
0.0
 41
0.0
 42
0.0
 43
0.0
 44
0.0
 45
0.0
 46
0.0
 47
0.0
 48
0.0
 49
0.0
140
0.0
141
0.0
142
1.0
143
1.0
 70
   688
 72
     0
 73
     0
 74
     5
  7

 75
    16
147
1.0
148
0.0
149
0.0
100
AcDbLayout
  1
ﾚｲｱｳﾄ1
 70
     1
 71
     1
 10
0.0
 20
0.0
 11
12.0
 21
9.0
 12
0.0
 22
0.0
 32
0.0
 14
1.000000000000000E+20
 24
1.000000000000000E+20
 34
1.000000000000000E+20
 15
-1.000000000000000E+20
 25
-1.000000000000000E+20
 35
-1.000000000000000E+20
146
0.0
 13
0.0
 23
0.0
 33
0.0
 16
1.0
 26
0.0
 36
0.0
 17
0.0
 27
1.0
 37
0.0
 76
     0
330
21C8
  0
MLINESTYLE
  5
21C5
102
{ACAD_REACTORS
330
21C4
102
}
330
21C4
100
AcDbMlineStyle
  2
STANDARD
 70
     0
  3

 62
   256
 51
90.0
 52
90.0
 71
     2
 49
0.5
 62
   256
  6
BYLAYER
 49
-0.5
 62
   256
  6
BYLAYER
  0
ACDBPLACEHOLDER
  5
21BD
102
{ACAD_REACTORS
330
21BC
102
}
330
21BC
  0
DICTIONARYVAR
  5
2239
102
{ACAD_REACTORS
330
2238
102
}
330
2238
100
DictionaryVariables
280
     0
  1
1
  0
ENDSEC
  0
EOF
