  0
SECTION
  2
HEADER
  9
$ACADVER
  1
AC1015
  9
$ACADMAINTVER
 70
    14
  9
$DWGCODEPAGE
  3
ANSI_932
  9
$INSBASE
 10
0.0
 20
0.0
 30
0.0
  9
$EXTMIN
 10
-97.53541432995826
 20
-170.0231118367289
 30
-0.0000000000112498
  9
$EXTMAX
 10
956.8819643093005
 20
198.0077194219251
 30
0.0000000000002956
  9
$LIMMIN
 10
0.0
 20
0.0
  9
$LIMMAX
 10
12.0
 20
9.0
  9
$ORTHOMODE
 70
     0
  9
$REGENMODE
 70
     1
  9
$FILLMODE
 70
     1
  9
$QTEXTMODE
 70
     0
  9
$MIRRTEXT
 70
     1
  9
$LTSCALE
 40
1.0
  9
$ATTMODE
 70
     1
  9
$TEXTSIZE
 40
0.2
  9
$TRACEWID
 40
0.05
  9
$TEXTSTYLE
  7
STANDARD
  9
$CLAYER
  8
0
  9
$CELTYPE
  6
CONTINUOUS
  9
$CECOLOR
 62
   256
  9
$CELTSCALE
 40
1.0
  9
$DISPSILH
 70
     0
  9
$DIMSCALE
 40
1.0
  9
$DIMASZ
 40
1.0
  9
$DIMEXO
 40
2.54
  9
$DIMDLI
 40
0.38
  9
$DIMRND
 40
0.0
  9
$DIMDLE
 40
0.0
  9
$DIMEXE
 40
2.54
  9
$DIMTP
 40
0.0
  9
$DIMTM
 40
0.0
  9
$DIMTXT
 40
3.2
  9
$DIMCEN
 40
0.09
  9
$DIMTSZ
 40
0.0
  9
$DIMTOL
 70
     0
  9
$DIMLIM
 70
     0
  9
$DIMTIH
 70
     0
  9
$DIMTOH
 70
     0
  9
$DIMSE1
 70
     0
  9
$DIMSE2
 70
     0
  9
$DIMTAD
 70
     1
  9
$DIMZIN
 70
     0
  9
$DIMBLK
  1

  9
$DIMASO
 70
     1
  9
$DIMSHO
 70
     0
  9
$DIMPOST
  1

  9
$DIMAPOST
  1

  9
$DIMALT
 70
     0
  9
$DIMALTD
 70
     2
  9
$DIMALTF
 40
25.4
  9
$DIMLFAC
 40
1.0
  9
$DIMTOFL
 70
     0
  9
$DIMTVP
 40
1.0
  9
$DIMTIX
 70
     0
  9
$DIMSOXD
 70
     0
  9
$DIMSAH
 70
     1
  9
$DIMBLK1
  1

  9
$DIMBLK2
  1

  9
$DIMSTYLE
  2
STANDARD
  9
$DIMCLRD
 70
     0
  9
$DIMCLRE
 70
     0
  9
$DIMCLRT
 70
     0
  9
$DIMTFAC
 40
1.0
  9
$DIMGAP
 40
1.6
  9
$DIMJUST
 70
     0
  9
$DIMSD1
 70
     0
  9
$DIMSD2
 70
     0
  9
$DIMTOLJ
 70
     1
  9
$DIMTZIN
 70
     0
  9
$DIMALTZ
 70
     0
  9
$DIMALTTZ
 70
     0
  9
$DIMUPT
 70
     0
  9
$DIMDEC
 70
     4
  9
$DIMTDEC
 70
     4
  9
$DIMALTU
 70
     2
  9
$DIMALTTD
 70
     2
  9
$DIMTXSTY
  7
STANDARD
  9
$DIMAUNIT
 70
     0
  9
$DIMADEC
 70
     0
  9
$DIMALTRND
 40
0.0
  9
$DIMAZIN
 70
     0
  9
$DIMDSEP
 70
    46
  9
$DIMATFIT
 70
     3
  9
$DIMFRAC
 70
     0
  9
$DIMLDRBLK
  1

  9
$DIMLUNIT
 70
     2
  9
$DIMLWD
 70
    -2
  9
$DIMLWE
 70
    -2
  9
$DIMTMOVE
 70
     0
  9
$LUNITS
 70
     2
  9
$LUPREC
 70
     4
  9
$SKETCHINC
 40
0.1
  9
$FILLETRAD
 40
0.0
  9
$AUNITS
 70
     0
  9
$AUPREC
 70
     0
  9
$MENU
  1
.
  9
$ELEVATION
 40
0.0
  9
$PELEVATION
 40
0.0
  9
$THICKNESS
 40
0.0
  9
$LIMCHECK
 70
     0
  9
$CHAMFERA
 40
0.0
  9
$CHAMFERB
 40
0.0
  9
$CHAMFERC
 40
0.0
  9
$CHAMFERD
 40
0.0
  9
$SKPOLY
 70
     0
  9
$TDCREATE
 40
2452488.423138738
  9
$TDUCREATE
 40
2452488.048138738
  9
$TDUPDATE
 40
2456906.720981296
  9
$TDUUPDATE
 40
2456906.345981296
  9
$TDINDWG
 40
0.2835898264
  9
$TDUSRTIMER
 40
0.2835896412
  9
$USRTIMER
 70
     1
  9
$ANGBASE
 50
0.0
  9
$ANGDIR
 70
     0
  9
$PDMODE
 70
     3
  9
$PDSIZE
 40
0.0
  9
$PLINEWID
 40
0.0
  9
$SPLFRAME
 70
     0
  9
$SPLINETYPE
 70
     6
  9
$SPLINESEGS
 70
     8
  9
$HANDSEED
  5
33DE
  9
$SURFTAB1
 70
     6
  9
$SURFTAB2
 70
     6
  9
$SURFTYPE
 70
     6
  9
$SURFU
 70
     6
  9
$SURFV
 70
     6
  9
$UCSBASE
  2

  9
$UCSNAME
  2

  9
$UCSORG
 10
0.0
 20
0.0
 30
0.0
  9
$UCSXDIR
 10
1.0
 20
0.0
 30
0.0
  9
$UCSYDIR
 10
0.0
 20
1.0
 30
0.0
  9
$UCSORTHOREF
  2

  9
$UCSORTHOVIEW
 70
     0
  9
$UCSORGTOP
 10
0.0
 20
0.0
 30
0.0
  9
$UCSORGBOTTOM
 10
0.0
 20
0.0
 30
0.0
  9
$UCSORGLEFT
 10
0.0
 20
0.0
 30
0.0
  9
$UCSORGRIGHT
 10
0.0
 20
0.0
 30
0.0
  9
$UCSORGFRONT
 10
0.0
 20
0.0
 30
0.0
  9
$UCSORGBACK
 10
0.0
 20
0.0
 30
0.0
  9
$PUCSBASE
  2

  9
$PUCSNAME
  2

  9
$PUCSORG
 10
0.0
 20
0.0
 30
0.0
  9
$PUCSXDIR
 10
1.0
 20
0.0
 30
0.0
  9
$PUCSYDIR
 10
0.0
 20
1.0
 30
0.0
  9
$PUCSORTHOREF
  2

  9
$PUCSORTHOVIEW
 70
     0
  9
$PUCSORGTOP
 10
0.0
 20
0.0
 30
0.0
  9
$PUCSORGBOTTOM
 10
0.0
 20
0.0
 30
0.0
  9
$PUCSORGLEFT
 10
0.0
 20
0.0
 30
0.0
  9
$PUCSORGRIGHT
 10
0.0
 20
0.0
 30
0.0
  9
$PUCSORGFRONT
 10
0.0
 20
0.0
 30
0.0
  9
$PUCSORGBACK
 10
0.0
 20
0.0
 30
0.0
  9
$USERI1
 70
     0
  9
$USERI2
 70
     0
  9
$USERI3
 70
     0
  9
$USERI4
 70
     0
  9
$USERI5
 70
     0
  9
$USERR1
 40
0.0
  9
$USERR2
 40
0.0
  9
$USERR3
 40
0.0
  9
$USERR4
 40
0.0
  9
$USERR5
 40
0.0
  9
$WORLDVIEW
 70
     1
  9
$SHADEDGE
 70
     3
  9
$SHADEDIF
 70
    70
  9
$TILEMODE
 70
     1
  9
$MAXACTVP
 70
    48
  9
$PINSBASE
 10
0.0
 20
0.0
 30
0.0
  9
$PLIMCHECK
 70
     0
  9
$PEXTMIN
 10
1.000000000000000E+20
 20
1.000000000000000E+20
 30
1.000000000000000E+20
  9
$PEXTMAX
 10
-1.000000000000000E+20
 20
-1.000000000000000E+20
 30
-1.000000000000000E+20
  9
$PLIMMIN
 10
0.0
 20
0.0
  9
$PLIMMAX
 10
12.0
 20
9.0
  9
$UNITMODE
 70
     0
  9
$VISRETAIN
 70
     1
  9
$PLINEGEN
 70
     0
  9
$PSLTSCALE
 70
     1
  9
$TREEDEPTH
 70
  3020
  9
$CMLSTYLE
  2
Standard
  9
$CMLJUST
 70
     0
  9
$CMLSCALE
 40
1.0
  9
$PROXYGRAPHICS
 70
     1
  9
$MEASUREMENT
 70
     0
  9
$CELWEIGHT
370
    -1
  9
$ENDCAPS
280
     0
  9
$JOINSTYLE
280
     0
  9
$LWDISPLAY
290
     0
  9
$INSUNITS
 70
     0
  9
$HYPERLINKBASE
  1

  9
$STYLESHEET
  1

  9
$XEDIT
290
     1
  9
$CEPSNTYPE
380
     0
  9
$PSTYLEMODE
290
     1
  9
$FINGERPRINTGUID
  2
{FFE95C04-33D2-4560-80D0-1E2918E4EC86}
  9
$VERSIONGUID
  2
{DF34FDCB-BB7B-43B8-B350-DA58D07302BB}
  9
$EXTNAMES
290
     1
  9
$PSVPSCALE
 40
0.0
  9
$OLESTARTUP
290
     0
  0
ENDSEC
  0
SECTION
  2
CLASSES
  0
CLASS
  1
ACDBDICTIONARYWDFLT
  2
AcDbDictionaryWithDefault
  3
AutoCAD 2000
 90
        0
280
     0
281
     0
  0
CLASS
  1
ACDBPLACEHOLDER
  2
AcDbPlaceHolder
  3
AutoCAD 2000
 90
        0
280
     0
281
     0
  0
CLASS
  1
LAYOUT
  2
AcDbLayout
  3
AutoCAD 2000
 90
        0
280
     0
281
     0
  0
CLASS
  1
DICTIONARYVAR
  2
AcDbDictionaryVar
  3
AutoCAD 2000
 90
        0
280
     0
281
     0
  0
CLASS
  1
LONG_TRANSACTION
  2
AcDbLongTransaction
  3
AutoCAD 2000
 90
    32768
280
     0
281
     0
  0
CLASS
  1
LWPOLYLINE
  2
AcDbPolyline
  3
AutoCAD 2000
 90
    32768
280
     0
281
     1
  0
CLASS
  1
HATCH
  2
AcDbHatch
  3
AutoCAD 2000
 90
    32768
280
     0
281
     1
  0
CLASS
  1
XRECORD
  2
AcDbXrecord
  3
AutoCAD 2000
 90
    32768
280
     0
281
     0
  0
ENDSEC
  0
SECTION
  2
TABLES
  0
TABLE
  2
VPORT
  5
21B6
330
0
100
AcDbSymbolTable
 70
     2
  0
VPORT
  5
33DD
330
21B6
100
AcDbSymbolTableRecord
100
AcDbViewportTableRecord
  2
*Active
 70
     0
 10
0.0
 20
0.0
 11
1.0
 21
1.0
 12
429.6732749896712
 22
13.99230379259807
 13
0.0
 23
0.0
 14
1.0
 24
1.0
 15
0.0
 25
0.0
 16
0.0
 26
0.0
 36
1.0
 17
0.0
 27
0.0
 37
0.0
 40
541.5430093514415
 41
1.953389830508474
 42
50.0
 43
0.0
 44
0.0
 50
0.0
 51
0.0
 71
     0
 72
   100
 73
     1
 74
     3
 75
     0
 76
     0
 77
     0
 78
     0
281
     0
 65
     1
110
0.0
120
0.0
130
0.0
111
1.0
121
0.0
131
0.0
112
0.0
122
1.0
132
0.0
 79
     0
146
0.0
  0
ENDTAB
  0
TABLE
  2
LTYPE
  5
21B3
330
0
100
AcDbSymbolTable
 70
     2
  0
LTYPE
  5
21C1
330
21B3
100
AcDbSymbolTableRecord
100
AcDbLinetypeTableRecord
  2
ByBlock
 70
     0
  3

 72
    65
 73
     0
 40
0.0
  0
LTYPE
  5
21C2
330
21B3
100
AcDbSymbolTableRecord
100
AcDbLinetypeTableRecord
  2
ByLayer
 70
     0
  3

 72
    65
 73
     0
 40
0.0
  0
LTYPE
  5
21C3
330
21B3
100
AcDbSymbolTableRecord
100
AcDbLinetypeTableRecord
  2
CONTINUOUS
 70
     0
  3
Solid line
 72
    65
 73
     0
 40
0.0
  0
LTYPE
  5
21D1
330
21B3
100
AcDbSymbolTableRecord
100
AcDbLinetypeTableRecord
  2
CENTER
 70
     0
  3
__ . __
 72
    65
 73
     4
 40
7.0
 49
4.0
 74
     0
 49
-1.0
 74
     0
 49
1.0
 74
     0
 49
-1.0
 74
     0
  0
ENDTAB
  0
TABLE
  2
LAYER
  5
21B0
102
{ACAD_XDICTIONARY
360
2244
102
}
330
0
100
AcDbSymbolTable
 70
     1
  0
LAYER
  5
21BE
330
21B0
100
AcDbSymbolTableRecord
100
AcDbLayerTableRecord
  2
0
 70
     0
 62
     7
  6
CONTINUOUS
370
    -3
390
21BD
  0
ENDTAB
  0
TABLE
  2
STYLE
  5
21B1
330
0
100
AcDbSymbolTable
 70
     1
  0
STYLE
  5
21BF
330
21B1
100
AcDbSymbolTableRecord
100
AcDbTextStyleTableRecord
  2
STANDARD
 70
     0
 40
0.0
 41
1.0
 50
0.0
 71
     0
 42
0.2
  3
txt
  4
BIGFONT
  0
ENDTAB
  0
TABLE
  2
VIEW
  5
21B4
330
0
100
AcDbSymbolTable
 70
     1
  0
VIEW
  5
21DE
330
21B4
100
AcDbSymbolTableRecord
100
AcDbViewTableRecord
  2
OLE1
 70
     0
 40
3692.141019219747
 10
1914.591370701856
 20
1272.206200738182
 41
4595.022665841169
 11
0.0
 21
0.0
 31
1.0
 12
0.0
 22
0.0
 32
0.0
 42
50.0
 43
0.0
 44
0.0
 50
0.0
 71
     0
281
     0
 72
     1
110
0.0
120
0.0
130
0.0
111
1.0
121
0.0
131
0.0
112
0.0
122
1.0
132
0.0
 79
     0
146
0.0
  0
ENDTAB
  0
TABLE
  2
UCS
  5
21B5
330
0
100
AcDbSymbolTable
 70
     0
  0
ENDTAB
  0
TABLE
  2
APPID
  5
21B7
330
0
100
AcDbSymbolTable
 70
     8
  0
APPID
  5
21C0
330
21B7
100
AcDbSymbolTableRecord
100
AcDbRegAppTableRecord
  2
ACAD
 70
     0
  0
APPID
  5
21DF
330
21B7
100
AcDbSymbolTableRecord
100
AcDbRegAppTableRecord
  2
MCAD_NO_VIS
 70
     0
  0
APPID
  5
21E0
330
21B7
100
AcDbSymbolTableRecord
100
AcDbRegAppTableRecord
  2
ACAD_TEMP_GRAPHIC
 70
     0
  0
APPID
  5
21E1
330
21B7
100
AcDbSymbolTableRecord
100
AcDbRegAppTableRecord
  2
ACATTRIBSERVICES
 70
     0
  0
APPID
  5
21E2
330
21B7
100
AcDbSymbolTableRecord
100
AcDbRegAppTableRecord
  2
CONTENTBLOCKICON
 70
     0
  0
APPID
  5
2241
330
21B7
100
AcDbSymbolTableRecord
100
AcDbRegAppTableRecord
  2
ACAD_DSTYLE_DIMJAG
 70
     0
  0
APPID
  5
2242
330
21B7
100
AcDbSymbolTableRecord
100
AcDbRegAppTableRecord
  2
ACAD_DSTYLE_DIMTALN
 70
     0
  0
APPID
  5
2243
330
21B7
100
AcDbSymbolTableRecord
100
AcDbRegAppTableRecord
  2
ACAD_PSEXT
 70
     0
  0
ENDTAB
  0
TABLE
  2
DIMSTYLE
  5
21B8
330
0
100
AcDbSymbolTable
 70
     1
100
AcDbDimStyleTable
 71
     0
  0
DIMSTYLE
105
21E3
330
21B8
100
AcDbSymbolTableRecord
100
AcDbDimStyleTableRecord
  2
STANDARD
 70
     0
279
     2
340
21BF
  0
ENDTAB
  0
TABLE
  2
BLOCK_RECORD
  5
21AF
330
0
100
AcDbSymbolTable
 70
     0
  0
BLOCK_RECORD
  5
21CC
102
{ACAD_XDICTIONARY
360
21F8
102
}
330
21AF
100
AcDbSymbolTableRecord
100
AcDbBlockTableRecord
  2
*Model_Space
340
21CF
  0
BLOCK_RECORD
  5
21C8
102
{ACAD_XDICTIONARY
360
21FA
102
}
330
21AF
100
AcDbSymbolTableRecord
100
AcDbBlockTableRecord
  2
*Paper_Space
340
21CB
  0
ENDTAB
  0
ENDSEC
  0
SECTION
  2
BLOCKS
  0
BLOCK
  5
21CD
330
21CC
100
AcDbEntity
  8
0
100
AcDbBlockBegin
  2
*Model_Space
 70
     0
 10
0.0
 20
0.0
 30
0.0
  3
*Model_Space
  1

  0
ENDBLK
  5
21CE
330
21CC
100
AcDbEntity
  8
0
100
AcDbBlockEnd
  0
BLOCK
  5
21C9
330
21C8
100
AcDbEntity
 67
     1
  8
0
100
AcDbBlockBegin
  2
*Paper_Space
 70
     0
 10
0.0
 20
0.0
 30
0.0
  3
*Paper_Space
  1

  0
ENDBLK
  5
21CA
330
21C8
100
AcDbEntity
 67
     1
  8
0
100
AcDbBlockEnd
  0
ENDSEC
  0
SECTION
  2
ENTITIES
  0
TEXT
  5
F6E
330
21CC
100
AcDbEntity
  8
0
  6
Continuous
100
AcDbText
 10
0.0
 20
150.0
 30
0.0
 40
48.000002
  1
STE 4S
 41
1.32095
100
AcDbText
  0
LINE
  5
30B3
330
21CC
100
AcDbEntity
  8
0
100
AcDbLine
 10
895.1937289223842
 20
-50.79997319999893
 30
0.0
 11
933.0324289223845
 21
-50.79997319999893
 31
0.0
  0
LINE
  5
30B4
330
21CC
100
AcDbEntity
  8
0
100
AcDbLine
 10
285.6493249223849
 20
-69.89998319999904
 30
0.0
 11
287.6493049223845
 21
-69.89998319999904
 31
0.0
  0
LINE
  5
30B5
330
21CC
100
AcDbEntity
  8
0
100
AcDbLine
 10
289.6493749223846
 20
-152.5830731999985
 30
0.0
 11
289.6493749223846
 21
-71.90002319999894
 31
0.0
  0
LINE
  5
30B6
330
21CC
100
AcDbEntity
  8
0
100
AcDbLine
 10
395.4493549223852
 20
-163.000033199999
 30
0.0
 11
395.4493549223852
 21
-151.9678331999984
 31
0.0
  0
LINE
  5
30B7
330
21CC
100
AcDbEntity
  8
0
100
AcDbLine
 10
281.4758149223853
 20
-156.9584831999986
 30
0.0
 11
288.3333949223851
 21
-154.462483199999
 31
0.0
  0
LINE
  5
30B8
330
21CC
100
AcDbEntity
  8
0
100
AcDbLine
 10
391.2493849223856
 20
-152.5830731999985
 30
0.0
 11
391.2493849223856
 21
-71.90002319999894
 31
0.0
  0
LINE
  5
30B9
330
21CC
100
AcDbEntity
  8
0
100
AcDbLine
 10
399.9493549223852
 20
-160.000033199999
 30
0.0
 11
399.9493549223852
 21
-157.7101331999983
 31
0.0
  0
LINE
  5
30BA
330
21CC
100
AcDbEntity
  8
0
100
AcDbLine
 10
861.9320449223859
 20
-69.23008319999872
 30
0.0
 11
892.6937449223851
 21
-51.46981319999849
 31
0.0
  0
LINE
  5
30BB
330
21CC
100
AcDbEntity
  8
0
100
AcDbLine
 10
860.771764922385
 20
68.8805568000007
 30
0.0
 11
860.771764922385
 21
-68.88058319999891
 31
0.0
  0
LINE
  5
30BC
330
21CC
100
AcDbEntity
  8
0
100
AcDbLine
 10
934.4328439223845
 20
-50.79997319999893
 30
0.0
 11
934.4328439223845
 21
50.79994680000073
 31
0.0
  0
LINE
  5
30BD
330
21CC
100
AcDbEntity
  8
0
  6
CENTER
100
AcDbLine
 10
214.6492849223855
 20
0.0000018000012005
 30
0.0
 11
956.8766299223852
 21
-0.0000131999986479
 31
0.0
  0
LINE
  5
30BE
330
21CC
100
AcDbEntity
  8
0
  6
CENTER
100
AcDbLine
 10
340.4493349223848
 20
-170.0000231999984
 30
0.0
 11
340.4493349223848
 21
-0.0000131999986479
 31
0.0
  0
LINE
  5
30BF
330
21CC
100
AcDbEntity
  8
0
100
AcDbLine
 10
393.2493349223859
 20
-69.89998319999904
 30
0.0
 11
859.4320549223848
 21
-69.89998319999904
 31
0.0
  0
LINE
  5
30C0
330
21CC
100
AcDbEntity
  8
0
100
AcDbLine
 10
280.9493749223856
 20
-160.000033199999
 30
0.0
 11
280.9493749223856
 21
-157.7101331999983
 31
0.0
  0
LINE
  5
30C1
330
21CC
100
AcDbEntity
  8
0
100
AcDbLine
 10
940.4493919223851
 20
-59.49994319999859
 30
0.0
 11
938.1595429223844
 21
-59.49994319999859
 31
0.0
  0
LINE
  5
30C2
330
21CC
100
AcDbEntity
  8
0
100
AcDbLine
 10
893.8539709223842
 20
50.1568368000012
 30
0.0
 11
893.8539709223842
 21
-50.15686319999895
 31
0.0
  0
LINE
  5
30C3
330
21CC
100
AcDbEntity
  8
0
100
AcDbLine
 10
289.7202349223844
 20
-153.9835031999991
 30
0.0
 11
391.1784049223861
 21
-153.9835031999991
 31
0.0
  0
LINE
  5
30C4
330
21CC
100
AcDbEntity
  8
0
100
AcDbLine
 10
282.4113049223842
 20
-157.1500631999988
 30
0.0
 11
398.4874249223853
 21
-157.1500631999988
 31
0.0
  0
LINE
  5
30C5
330
21CC
100
AcDbEntity
  8
0
100
AcDbLine
 10
280.9493749223856
 20
-160.000033199999
 30
0.0
 11
399.9493549223852
 21
-160.000033199999
 31
0.0
  0
LINE
  5
30C6
330
21CC
100
AcDbEntity
  8
0
100
AcDbLine
 10
937.4078479223848
 20
-58.97353319999865
 30
0.0
 11
934.9118479223852
 21
-52.11586319999878
 31
0.0
  0
LINE
  5
30C7
330
21CC
100
AcDbEntity
  8
0
100
AcDbLine
 10
937.599376922386
 20
57.94270680000136
 30
0.0
 11
937.599376922386
 21
-57.94273319999866
 31
0.0
  0
LINE
  5
30C8
330
21CC
100
AcDbEntity
  8
0
100
AcDbLine
 10
285.4493749223856
 20
-163.000033199999
 30
0.0
 11
285.4493749223856
 21
-155.7852131999989
 31
0.0
  0
LINE
  5
30C9
330
21CC
100
AcDbEntity
  8
0
100
AcDbLine
 10
399.423004922386
 20
-156.9584831999986
 30
0.0
 11
392.565364922385
 21
-154.462483199999
 31
0.0
  0
LINE
  5
30CA
330
21CC
100
AcDbEntity
  8
0
100
AcDbLine
 10
216.6492349223844
 20
-6.000013199998647
 30
0.0
 11
259.6493749223845
 21
-6.000013199998647
 31
0.0
  0
LINE
  5
30CB
330
21CC
100
AcDbEntity
  8
0
100
AcDbLine
 10
216.6492349223844
 20
5.999986800001352
 30
0.0
 11
259.6493449223848
 21
5.999986800001352
 31
0.0
  0
LINE
  5
30CC
330
21CC
100
AcDbEntity
  8
0
  6
CENTER
100
AcDbLine
 10
214.6492849223855
 20
55.0000068000013
 30
0.0
 11
214.6492849223855
 21
-55.0000031999989
 31
0.0
  0
LINE
  5
30CD
330
21CC
100
AcDbEntity
  8
0
100
AcDbLine
 10
220.6492849223855
 20
-6.000013199998647
 30
0.0
 11
220.6492849223855
 21
-43.9999931999987
 31
0.0
  0
LINE
  5
30CE
330
21CC
100
AcDbEntity
  8
0
100
AcDbLine
 10
208.6492849223855
 20
-43.9999931999987
 30
0.0
 11
208.6492849223855
 21
43.99999680000109
 31
0.0
  0
LINE
  5
30CF
330
21CC
100
AcDbEntity
  8
0
100
AcDbLine
 10
220.6492849223855
 20
43.99999680000109
 30
0.0
 11
220.6492849223855
 21
5.999986800001352
 31
0.0
  0
ARC
  5
30D1
330
21CC
100
AcDbEntity
  8
0
100
AcDbCircle
 10
393.2493349223859
 20
-152.5830731999985
 30
0.0
 40
2.00000007
100
AcDbArc
 50
180.0
 51
249.998970000008
  0
ARC
  5
30D2
330
21CC
100
AcDbEntity
  8
0
100
AcDbCircle
 10
399.1493749223846
 20
-157.7101331999983
 30
0.0
 40
0.8000000400000001
100
AcDbArc
 50
0.0
 51
69.99728599999868
  0
ARC
  5
30D3
330
21CC
100
AcDbEntity
  8
0
100
AcDbCircle
 10
287.6493049223845
 20
-152.5830731999985
 30
0.0
 40
2.00000007
100
AcDbArc
 50
290.0010299999919
 51
0.0
  0
ARC
  5
30D4
330
21CC
100
AcDbEntity
  8
0
100
AcDbCircle
 10
933.0324289223845
 20
-52.80001319999882
 30
0.0
 40
2.00000007
100
AcDbArc
 50
19.99979999998879
 51
90.0
  0
ARC
  5
30D5
330
21CC
100
AcDbEntity
  8
0
100
AcDbCircle
 10
938.1595429223844
 20
-58.69996319999882
 30
0.0
 40
0.8000000400000001
100
AcDbArc
 50
199.9990699999906
 51
270.0
  0
ARC
  5
30D6
330
21CC
100
AcDbEntity
  8
0
100
AcDbCircle
 10
895.1937289223842
 20
-55.80001319999883
 30
0.0
 40
5.0000001
100
AcDbArc
 50
90.0
 51
120.0000899999961
  0
ARC
  5
30D7
330
21CC
100
AcDbEntity
  8
0
100
AcDbCircle
 10
859.4320549223848
 20
-64.90000319999854
 30
0.0
 40
5.0000001
100
AcDbArc
 50
270.0
 51
300.0000899999964
  0
ARC
  5
30D8
330
21CC
100
AcDbEntity
  8
0
100
AcDbCircle
 10
287.6493049223845
 20
-71.90002319999894
 30
0.0
 40
2.00000007
100
AcDbArc
 50
0.0
 51
90.0
  0
ARC
  5
30D9
330
21CC
100
AcDbEntity
  8
0
100
AcDbCircle
 10
393.2493349223859
 20
-71.90002319999894
 30
0.0
 40
2.00000007
100
AcDbArc
 50
90.0
 51
180.0
  0
ARC
  5
30DA
330
21CC
100
AcDbEntity
  8
0
100
AcDbCircle
 10
281.7493849223856
 20
-157.7101331999983
 30
0.0
 40
0.8000000400000001
100
AcDbArc
 50
110.0027099999976
 51
180.0
  0
ARC
  5
30DB
330
21CC
100
AcDbEntity
  8
0
100
AcDbCircle
 10
340.4494249223853
 20
-117.914383199999
 30
0.0
 40
69.900123
100
AcDbArc
 50
44.75558599998439
 51
135.2444900000067
  0
ARC
  5
30DC
330
21CC
100
AcDbEntity
  8
0
100
AcDbCircle
 10
214.6492849223855
 20
-43.9999931999987
 30
0.0
 40
6.0
100
AcDbArc
 50
180.0
 51
0.0
  0
ARC
  5
30DD
330
21CC
100
AcDbEntity
  8
0
100
AcDbCircle
 10
214.6492849223855
 20
43.99999680000109
 30
0.0
 40
6.0
100
AcDbArc
 50
0.0
 51
180.0
  0
LINE
  5
30DF
330
21CC
100
AcDbEntity
  8
0
100
AcDbLine
 10
-6.000000120001459
 20
-44.00000088000524
 30
0.0
 11
-6.000000120001459
 21
44.00000088000524
 31
0.0
  0
LINE
  5
30E0
330
21CC
100
AcDbEntity
  8
0
100
AcDbLine
 10
6.000000120001459
 20
44.00000088000524
 30
0.0
 11
6.000000120001459
 21
-44.00000088000524
 31
0.0
  0
LINE
  5
30E1
330
21CC
100
AcDbEntity
  8
0
100
AcDbLine
 10
107.3259621465317
 20
-29.27161458543605
 30
0.0
 11
105.86040211722
 21
-57.23616914473041
 31
0.0
  0
LINE
  5
30E2
330
21CC
100
AcDbEntity
  8
0
100
AcDbLine
 10
-50.79993501600529
 20
-152.5830730516791
 30
0.0
 11
-50.79993501600529
 21
-78.57879057158516
 31
0.0
  0
LINE
  5
30E3
330
21CC
100
AcDbEntity
  8
0
100
AcDbLine
 10
-58.97353517947749
 20
-156.9584731391878
 30
0.0
 11
-52.11592604232464
 21
-154.4624930892678
 31
0.0
  0
LINE
  5
30E4
330
21CC
100
AcDbEntity
  8
0
100
AcDbLine
 10
59.50005419000717
 20
-160.000033200019
 30
0.0
 11
59.50005419000717
 21
-157.7101131542208
 31
0.0
  0
LINE
  5
30E5
330
21CC
100
AcDbEntity
  8
0
100
AcDbLine
 10
50.80007301600699
 20
-152.5830730516791
 30
0.0
 11
50.80007301600699
 21
-71.24326442487381
 31
0.0
  0
LINE
  5
30E6
330
21CC
100
AcDbEntity
  8
0
100
AcDbLine
 10
-59.49991719000445
 20
-160.000033200019
 30
0.0
 11
-59.49991719000445
 21
-157.7101131542208
 31
0.0
  0
LINE
  5
30E7
330
21CC
100
AcDbEntity
  8
0
100
AcDbLine
 10
-59.49991719000445
 20
-160.000033200019
 30
0.0
 11
59.50005419000717
 21
-160.000033200019
 31
0.0
  0
LINE
  5
30E8
330
21CC
100
AcDbEntity
  8
0
100
AcDbLine
 10
58.97367217948022
 20
-156.9584731391878
 30
0.0
 11
52.11602104232679
 21
-154.4624830892676
 31
0.0
  0
LINE
  5
30E9
330
21CC
100
AcDbEntity
  8
0
100
AcDbLine
 10
94.50000189001139
 20
-4.000000080000518
 30
0.0
 11
94.50000189001139
 21
0.2790679955810447
 31
0.0
  0
LINE
  5
30EA
330
21CC
100
AcDbEntity
  8
0
100
AcDbLine
 10
-24.80167049603551
 20
74.26423748529305
 30
0.0
 11
-36.28814372576653
 21
79.62046959241797
 31
0.0
  0
LINE
  5
30EB
330
21CC
100
AcDbEntity
  8
0
100
AcDbLine
 10
103.5000020700122
 20
-4.000000080000518
 30
0.0
 11
103.5000020700122
 21
4.000000080000063
 31
0.0
  0
LINE
  5
30EC
330
21CC
100
AcDbEntity
  8
0
100
AcDbLine
 10
88.41024976821472
 20
-33.04143966083302
 30
0.0
 11
84.01922768039412
 21
-40.64691281294336
 31
0.0
  0
LINE
  5
30ED
330
21CC
100
AcDbEntity
  8
0
100
AcDbLine
 10
72.19577944392359
 20
10.80614021612382
 30
0.0
 11
85.5219367104487
 21
18.50000437000199
 31
0.0
  0
LINE
  5
30EE
330
21CC
100
AcDbEntity
  8
0
100
AcDbLine
 10
93.50000187001114
 20
-4.000000080000518
 30
0.0
 11
93.50000187001114
 21
4.000000080000063
 31
0.0
  0
LINE
  5
30EF
330
21CC
100
AcDbEntity
  8
0
100
AcDbLine
 10
-55.68524311371084
 20
68.10221236205189
 30
0.0
 11
-50.4441500088883
 21
79.34177558684405
 31
0.0
  0
LINE
  5
30F0
330
21CC
100
AcDbEntity
  8
0
  6
CENTER
100
AcDbLine
 10
-97.50000195001076
 20
0.0
 30
0.0
 11
117.0000023400134
 21
0.0
 31
0.0
  0
LINE
  5
30F1
330
21CC
100
AcDbEntity
  8
0
100
AcDbLine
 10
80.00000160000855
 20
-65.72093331442648
 30
0.0
 11
80.00000160000855
 21
-55.64691311294518
 31
0.0
  0
LINE
  5
30F2
330
21CC
100
AcDbEntity
  8
0
100
AcDbLine
 10
-37.45465974909802
 20
66.28703432574821
 30
0.0
 11
-36.2881327257669
 21
79.62047759241887
 31
0.0
  0
LINE
  5
30F3
330
21CC
100
AcDbEntity
  8
0
100
AcDbLine
 10
112.0000022400136
 20
-70.72093341442678
 30
0.0
 11
85.00000170000976
 21
-70.72093341442678
 31
0.0
  0
LINE
  5
30F4
330
21CC
100
AcDbEntity
  8
0
100
AcDbLine
 10
102.5000120500126
 20
0.2790578655813078
 30
0.0
 11
103.5000120700115
 21
2.011108640222118
 31
0.0
  0
LINE
  5
30F5
330
21CC
100
AcDbEntity
  8
0
100
AcDbLine
 10
117.0000023400134
 20
-65.72093331442648
 30
0.0
 11
117.0000023400134
 21
-55.64691311294518
 31
0.0
  0
LINE
  5
30F6
330
21CC
100
AcDbEntity
  8
0
100
AcDbLine
 10
-35.99772671995924
 20
64.88164629764014
 30
0.0
 11
-36.88107773762613
 21
65.29355730587849
 31
0.0
  0
LINE
  5
30F7
330
21CC
100
AcDbEntity
  8
0
100
AcDbLine
 10
-38.19028976381014
 20
-63.61576627232262
 30
0.0
 11
-38.10533976211127
 21
-64.58673229174201
 31
0.0
  0
LINE
  5
30F8
330
21CC
100
AcDbEntity
  8
0
100
AcDbLine
 10
72.19577944392359
 20
-10.80614021612382
 30
0.0
 11
85.5219367104487
 21
-18.50000437000289
 31
0.0
  0
LINE
  5
30F9
330
21CC
100
AcDbEntity
  8
0
100
AcDbLine
 10
-31.13562262271625
 20
-82.27594164552874
 30
0.0
 11
-43.48991886980274
 21
-83.35680566714609
 31
0.0
  0
LINE
  5
30FA
330
21CC
100
AcDbEntity
  8
0
100
AcDbLine
 10
-51.91388403828296
 20
-58.61099717222669
 30
0.0
 11
-50.80927801619146
 21
-71.23668842474216
 31
0.0
  0
LINE
  5
30FB
330
21CC
100
AcDbEntity
  8
0
100
AcDbLine
 10
-30.87509361750472
 20
-72.67850645357885
 30
0.0
 11
-30.04378360087867
 21
-82.1804216436185
 31
0.0
  0
LINE
  5
30FC
330
21CC
100
AcDbEntity
  8
0
100
AcDbLine
 10
-43.66800787336432
 20
-68.45833736917484
 30
0.0
 11
-47.05833894117176
 21
-70.03927740079416
 31
0.0
  0
LINE
  5
30FD
330
21CC
100
AcDbEntity
  8
0
100
AcDbLine
 10
-38.67892577358316
 20
-65.58020131161175
 30
0.0
 11
-50.80928901619245
 21
-71.23668842474216
 31
0.0
  0
LINE
  5
30FE
330
21CC
100
AcDbEntity
  8
0
100
AcDbLine
 10
-50.72906601458635
 20
-153.9835130796882
 30
0.0
 11
50.72911201458828
 21
-153.9835130796882
 31
0.0
  0
LINE
  5
30FF
330
21CC
100
AcDbEntity
  8
0
100
AcDbLine
 10
-58.03801416076703
 20
-157.150043143019
 30
0.0
 11
58.03813316076912
 21
-157.150043143019
 31
0.0
  0
LINE
  5
3100
330
21CC
100
AcDbEntity
  8
0
100
AcDbLine
 10
108.5897721718079
 20
-33.04143966083302
 30
0.0
 11
112.9807822596285
 21
-40.64690481294292
 31
0.0
  0
LINE
  5
3101
330
21CC
100
AcDbEntity
  8
0
100
AcDbLine
 10
87.90904375819172
 20
-18.50000037000245
 30
0.0
 11
106.0000021200121
 21
-18.50000037000245
 31
0.0
  0
LINE
  5
3102
330
21CC
100
AcDbEntity
  8
0
  6
CENTER
100
AcDbLine
 10
0.0
 20
-170.0000334000205
 30
0.0
 11
0.0
 21
97.50000195001121
 31
0.0
  0
LINE
  5
3103
330
21CC
100
AcDbEntity
  8
0
100
AcDbLine
 10
94.50001689001101
 20
0.2790493455804608
 30
0.0
 11
93.50001687001077
 21
2.011100140221969
 31
0.0
  0
LINE
  5
3104
330
21CC
100
AcDbEntity
  8
0
100
AcDbLine
 10
107.0000021400123
 20
5.000000100000306
 30
0.0
 11
107.0000021400123
 21
17.50000035000175
 31
0.0
  0
LINE
  5
3105
330
21CC
100
AcDbEntity
  8
0
100
AcDbLine
 10
-31.13562662271624
 20
82.27594164552829
 30
0.0
 11
-43.48992586980375
 21
83.35680566714563
 31
0.0
  0
LINE
  5
3106
330
21CC
100
AcDbEntity
  8
0
100
AcDbLine
 10
75.67694251354805
 20
4.000000080000063
 30
0.0
 11
106.0000021200121
 21
4.000000080000063
 31
0.0
  0
LINE
  5
3107
330
21CC
100
AcDbEntity
  8
0
100
AcDbLine
 10
-38.19027376381018
 20
63.61576227232217
 30
0.0
 11
-37.12662174253682
 21
75.77335551547548
 31
0.0
  0
LINE
  5
3108
330
21CC
100
AcDbEntity
  8
0
100
AcDbLine
 10
102.5000020500119
 20
-4.000000080000518
 30
0.0
 11
102.5000020500119
 21
0.27905273558099
 31
0.0
  0
LINE
  5
3109
330
21CC
100
AcDbEntity
  8
0
100
AcDbLine
 10
107.2500021450127
 20
-28.38433856769006
 30
0.0
 11
107.2500021450127
 21
-22.08979844179884
 31
0.0
  0
LINE
  5
310A
330
21CC
100
AcDbEntity
  8
0
100
AcDbLine
 10
89.75000179501057
 20
-28.38433856769006
 30
0.0
 11
89.75000179501057
 21
-22.08979844179884
 31
0.0
  0
LINE
  5
310B
330
21CC
100
AcDbEntity
  8
0
100
AcDbLine
 10
-55.68524311371084
 20
-68.10221236205234
 30
0.0
 11
-50.44414600888831
 21
-79.34178358684494
 31
0.0
  0
LINE
  5
310C
330
21CC
100
AcDbEntity
  8
0
100
AcDbLine
 10
-35.99772671995924
 20
-64.88163129764052
 30
0.0
 11
-43.66800787336432
 21
-68.45833736917484
 31
0.0
  0
LINE
  5
310D
330
21CC
100
AcDbEntity
  8
0
100
AcDbLine
 10
89.6740437934909
 20
-29.27161458543605
 30
0.0
 11
91.13960482280299
 21
-57.23617314472995
 31
0.0
  0
LINE
  5
310E
330
21CC
100
AcDbEntity
  8
0
100
AcDbLine
 10
93.50000187001114
 20
0.2790471355806403
 30
0.0
 11
103.5000020700122
 21
0.2790471355806403
 31
0.0
  0
LINE
  5
310F
330
21CC
100
AcDbEntity
  8
0
100
AcDbLine
 10
87.90904375819172
 20
18.50000037000154
 30
0.0
 11
106.0000021200121
 21
18.50000037000154
 31
0.0
  0
LINE
  5
3110
330
21CC
100
AcDbEntity
  8
0
100
AcDbLine
 10
107.0000021400123
 20
-17.50000035000266
 30
0.0
 11
107.0000021400123
 21
-5.000000100000761
 31
0.0
  0
LINE
  5
3111
330
21CC
100
AcDbEntity
  8
0
100
AcDbLine
 10
75.67694251354805
 20
-4.000000080000518
 30
0.0
 11
106.0000021200121
 21
-4.000000080000518
 31
0.0
  0
LINE
  5
3112
330
21CC
100
AcDbEntity
  8
0
100
AcDbLine
 10
-47.50388395008394
 20
63.07786726156428
 30
0.0
 11
-56.1484391229751
 21
67.10888834218531
 31
0.0
  0
ARC
  5
3113
330
21CC
100
AcDbEntity
  8
0
100
AcDbCircle
 10
0.0
 20
-44.00000088000524
 30
0.0
 40
6.000000120000692
100
AcDbArc
 50
180.0
 51
0.0
  0
ARC
  5
3114
330
21CC
100
AcDbEntity
  8
0
100
AcDbCircle
 10
0.0
 20
44.00000088000524
 30
0.0
 40
6.000000120000692
100
AcDbArc
 50
0.0
 51
180.0
  0
ARC
  5
3115
330
21CC
100
AcDbEntity
  8
0
100
AcDbCircle
 10
0.0
 20
0.0
 30
0.0
 40
35.00004270000488
100
AcDbArc
 50
281.5369399999948
 51
78.46305499999981
  0
ARC
  5
3116
330
21CC
100
AcDbEntity
  8
0
100
AcDbCircle
 10
0.0
 20
0.0
 30
0.0
 40
9.000000180001038
100
AcDbArc
 50
311.810319999989
 51
48.18968500000865
  0
ARC
  5
3117
330
21CC
100
AcDbEntity
  8
0
100
AcDbCircle
 10
0.0
 20
0.0
 30
0.0
 40
35.00004270000488
100
AcDbArc
 50
101.5369399999948
 51
258.4630500000078
  0
CIRCLE
  5
3118
330
21CC
100
AcDbEntity
  8
0
100
AcDbCircle
 10
0.0
 20
0.0
 30
0.0
 40
60.00002820000746
  0
ARC
  5
3119
330
21CC
100
AcDbEntity
  8
0
100
AcDbCircle
 10
0.0
 20
0.0
 30
0.0
 40
9.000000180001038
100
AcDbArc
 50
131.810319999989
 51
228.1896800000109
  0
ARC
  5
311A
330
21CC
100
AcDbEntity
  8
0
100
AcDbCircle
 10
52.80004205600653
 20
-152.5830730516791
 30
0.0
 40
2.00000004000023
100
AcDbArc
 50
180.0
 51
249.9999499999916
  0
ARC
  5
311B
330
21CC
100
AcDbEntity
  8
0
100
AcDbCircle
 10
58.70006717400838
 20
-157.7101131542208
 30
0.0
 40
0.8000000860000938
100
AcDbArc
 50
0.0
 51
69.9999710000082
  0
ARC
  5
311C
330
21CC
100
AcDbEntity
  8
0
100
AcDbCircle
 10
-52.79999605600597
 20
-152.5830730516791
 30
0.0
 40
2.00000004000023
100
AcDbArc
 50
290.0000500000083
 51
0.0
  0
ARC
  5
311D
330
21CC
100
AcDbEntity
  8
0
100
AcDbCircle
 10
-58.69992917400532
 20
-157.7101131542208
 30
0.0
 40
0.8000000860000938
100
AcDbArc
 50
110.0000299999964
 51
180.0
  0
CIRCLE
  5
311E
330
21CC
100
AcDbEntity
  8
0
100
AcDbCircle
 10
0.0
 20
0.0
 30
0.0
 40
67.60913935219057
  0
ARC
  5
311F
330
21CC
100
AcDbEntity
  8
0
100
AcDbCircle
 10
0.0
 20
0.0
 30
0.0
 40
77.50003255000956
100
AcDbArc
 50
357.0414900000134
 51
2.958514900004607
  0
ARC
  5
3120
330
21CC
100
AcDbEntity
  8
0
100
AcDbCircle
 10
98.50000197001101
 20
-22.08979844179884
 30
0.0
 40
8.750000175001009
100
AcDbArc
 50
0.0
 51
24.93593099999206
  0
ARC
  5
3121
330
21CC
100
AcDbEntity
  8
0
100
AcDbCircle
 10
78.48442256969793
 20
-17.90100135802231
 30
0.0
 40
3.000000060000346
100
AcDbArc
 50
59.99999699999025
 51
167.1515799999915
  0
ARC
  5
3122
330
21CC
100
AcDbEntity
  8
0
100
AcDbCircle
 10
0.0
 20
0.0
 30
0.0
 40
77.50000155000893
100
AcDbArc
 50
247.6302999999914
 51
347.1515699999977
  0
ARC
  5
3123
330
21CC
100
AcDbEntity
  8
0
100
AcDbCircle
 10
-54.90248209805668
 20
-58.87246817745654
 30
0.0
 40
3.000000060000346
100
AcDbArc
 50
4.999997700013764
 51
46.9984219999872
  0
ARC
  5
3124
330
21CC
100
AcDbEntity
  8
0
100
AcDbCircle
 10
-44.0999958820048
 20
-76.38344752767807
 30
0.0
 40
7.000000140000807
100
AcDbArc
 50
115.0000000000062
 51
275.019741662795
  0
ARC
  5
3125
330
21CC
100
AcDbEntity
  8
0
100
AcDbCircle
 10
-39.1015407820355
 20
-64.67389829348576
 30
0.0
 40
1.000000020000115
100
AcDbArc
 50
294.9999499999965
 51
5.000149300009427
  0
ARC
  5
3126
330
21CC
100
AcDbEntity
  8
0
100
AcDbCircle
 10
-41.17887582358252
 20
-63.87722127755205
 30
0.0
 40
3.000000060000346
100
AcDbArc
 50
4.999997700013764
 51
57.19189799999143
  0
ARC
  5
3127
330
21CC
100
AcDbEntity
  8
0
100
AcDbCircle
 10
-29.87889759758218
 20
-72.59132545183502
 30
0.0
 40
1.000000020000115
100
AcDbArc
 50
67.62768800000005
 51
185.0001399999961
  0
ARC
  5
3128
330
21CC
100
AcDbEntity
  8
0
100
AcDbCircle
 10
98.50000197001101
 20
-56.85043113701522
 30
0.0
 40
7.370503047410909
100
AcDbArc
 50
183.0000000000057
 51
356.9999999999942
  0
CIRCLE
  5
3129
330
21CC
100
AcDbEntity
  8
0
100
AcDbCircle
 10
-44.0999958820048
 20
-76.38344752767807
 30
0.0
 40
3.099999962000355
  0
ARC
  5
312A
330
21CC
100
AcDbEntity
  8
0
100
AcDbCircle
 10
-30.69983761400044
 20
-87.2569287451488
 30
0.0
 40
5.000000100000576
100
AcDbArc
 50
70.61646500000293
 51
95.00001100000313
  0
ARC
  5
312B
330
21CC
100
AcDbEntity
  8
0
100
AcDbCircle
 10
-60.21679420434338
 20
-70.21529540431401
 30
0.0
 40
5.000000100000576
100
AcDbArc
 50
24.99998699999369
 51
49.38355699999317
  0
ARC
  5
312C
330
21CC
100
AcDbEntity
  8
0
100
AcDbCircle
 10
-34.72987069460123
 20
-67.60055635201888
 30
0.0
 40
3.000000060000346
100
AcDbArc
 50
62.80812500000615
 51
115.0000099999938
  0
ARC
  5
312D
330
21CC
100
AcDbEntity
  8
0
100
AcDbCircle
 10
0.0
 20
0.0
 30
0.0
 40
81.19999862400931
100
AcDbArc
 50
237.0499300000072
 51
237.4671299999971
  0
ARC
  5
312E
330
21CC
100
AcDbEntity
  8
0
100
AcDbCircle
 10
98.50000197001101
 20
-22.08979844179884
 30
0.0
 40
8.750000175001009
100
AcDbArc
 50
155.0640699999958
 51
180.0
  0
ARC
  5
312F
330
21CC
100
AcDbEntity
  8
0
100
AcDbCircle
 10
0.0
 20
0.0
 30
0.0
 40
73.00000146000842
100
AcDbArc
 50
5.284733000012749
 51
117.1962200000053
  0
ARC
  5
3130
330
21CC
100
AcDbEntity
  8
0
100
AcDbCircle
 10
106.0000021200121
 20
-17.50000035000266
 30
0.0
 40
1.000000020000115
100
AcDbArc
 50
270.0
 51
0.0
  0
ARC
  5
3131
330
21CC
100
AcDbEntity
  8
0
100
AcDbCircle
 10
-30.69982961400046
 20
87.25692174514824
 30
0.0
 40
5.000000100000576
100
AcDbArc
 50
264.9999899999996
 51
289.3835399999992
  0
ARC
  5
3132
330
21CC
100
AcDbEntity
  8
0
100
AcDbCircle
 10
106.0000021200121
 20
-5.000000100000761
 30
0.0
 40
1.000000020000115
100
AcDbArc
 50
0.0
 51
90.0
  0
ARC
  5
3133
330
21CC
100
AcDbEntity
  8
0
100
AcDbCircle
 10
78.48442256969793
 20
17.90100135802186
 30
0.0
 40
3.000000060000346
100
AcDbArc
 50
192.8484200000085
 51
299.9999999999932
  0
ARC
  5
3134
330
21CC
100
AcDbEntity
  8
0
100
AcDbCircle
 10
106.0000021200121
 20
17.50000035000175
 30
0.0
 40
1.000000020000115
100
AcDbArc
 50
0.0
 51
90.0
  0
CIRCLE
  5
3135
330
21CC
100
AcDbEntity
  8
0
100
AcDbCircle
 10
-44.1000068820058
 20
76.38343952767718
 30
0.0
 40
3.099999962000355
  0
ARC
  5
3136
330
21CC
100
AcDbEntity
  8
0
100
AcDbCircle
 10
106.0000021200121
 20
5.000000100000306
 30
0.0
 40
1.000000020000115
100
AcDbArc
 50
270.0
 51
0.0
  0
ARC
  5
3137
330
21CC
100
AcDbEntity
  8
0
100
AcDbCircle
 10
-60.21679820434338
 20
70.215303404314
 30
0.0
 40
5.000000100000576
100
AcDbArc
 50
310.6164399999967
 51
335.000010000002
  0
ARC
  5
3138
330
21CC
100
AcDbEntity
  8
0
100
AcDbCircle
 10
85.00000170000976
 20
-65.72093331442648
 30
0.0
 40
5.000000100000576
100
AcDbArc
 50
180.0
 51
270.0
  0
ARC
  5
3139
330
21CC
100
AcDbEntity
  8
0
100
AcDbCircle
 10
112.0000022400136
 20
-65.72093331442648
 30
0.0
 40
5.000000100000576
100
AcDbArc
 50
270.0
 51
0.0
  0
ARC
  5
313A
330
21CC
100
AcDbEntity
  8
0
100
AcDbCircle
 10
-41.17886482358153
 20
63.87722927755203
 30
0.0
 40
3.000000060000346
100
AcDbArc
 50
302.808100000003
 51
354.9999999999999
  0
ARC
  5
313B
330
21CC
100
AcDbEntity
  8
0
100
AcDbCircle
 10
0.0
 20
0.0
 30
0.0
 40
87.50000175001009
100
AcDbArc
 50
130.5591900000086
 51
229.3835400000025
  0
ARC
  5
313C
330
21CC
100
AcDbEntity
  8
0
100
AcDbCircle
 10
98.50000197001101
 20
11.2500002250008
 30
0.0
 40
7.500000150000865
100
AcDbArc
 50
75.16487600000869
 51
104.8351199999961
  0
ARC
  5
313D
330
21CC
100
AcDbEntity
  8
0
100
AcDbCircle
 10
0.0
 20
0.0
 30
0.0
 40
73.00000146000842
100
AcDbArc
 50
242.8081199999933
 51
354.7152700000089
  0
ARC
  5
313E
330
21CC
100
AcDbEntity
  8
0
100
AcDbCircle
 10
117.2500023450138
 20
-28.0414435608327
 30
0.0
 40
10.00000020000115
100
AcDbArc
 50
179.9999899999989
 51
210.0000000000004
  0
ARC
  5
313F
330
21CC
100
AcDbEntity
  8
0
100
AcDbCircle
 10
110.0000022000131
 20
-55.64691311294518
 30
0.0
 40
30.00000060000346
100
AcDbArc
 50
149.9999999999994
 51
180.0000100000009
  0
ARC
  5
3140
330
21CC
100
AcDbEntity
  8
0
100
AcDbCircle
 10
87.00000174001024
 20
-55.64691311294518
 30
0.0
 40
30.00000060000346
100
AcDbArc
 50
0.0
 51
30.00000299998219
  0
ARC
  5
3141
330
21CC
100
AcDbEntity
  8
0
100
AcDbCircle
 10
0.0
 20
0.0
 30
0.0
 40
81.19999862400931
100
AcDbArc
 50
117.0499200000031
 51
117.467120000012
  0
CIRCLE
  5
3142
330
21CC
100
AcDbEntity
  8
0
100
AcDbCircle
 10
98.50000197001101
 20
11.2500002250008
 30
0.0
 40
5.000000100000576
  0
ARC
  5
3143
330
21CC
100
AcDbEntity
  8
0
100
AcDbCircle
 10
-23.53381347067852
 20
76.98317853967182
 30
0.0
 40
3.000000060000346
100
AcDbArc
 50
245.0000200000086
 51
286.9984600000073
  0
ARC
  5
3144
330
21CC
100
AcDbEntity
  8
0
100
AcDbCircle
 10
75.67694251354805
 20
7.000000140000793
 30
0.0
 40
3.000000060000346
100
AcDbArc
 50
185.284720000005
 51
270.0
  0
ARC
  5
3145
330
21CC
100
AcDbEntity
  8
0
100
AcDbCircle
 10
75.67694251354805
 20
-7.000000140001247
 30
0.0
 40
3.000000060000346
100
AcDbArc
 50
90.0
 51
174.7152799999949
  0
ARC
  5
3146
330
21CC
100
AcDbEntity
  8
0
100
AcDbCircle
 10
0.0
 20
0.0
 30
0.0
 40
73.00000146000842
100
AcDbArc
 50
122.803359999989
 51
237.1918999999969
  0
ARC
  5
3147
330
21CC
100
AcDbEntity
  8
0
100
AcDbCircle
 10
87.90904375819172
 20
21.50000043000227
 30
0.0
 40
3.000000060000346
100
AcDbArc
 50
193.7431299999987
 51
270.0
  0
ARC
  5
3148
330
21CC
100
AcDbEntity
  8
0
100
AcDbCircle
 10
87.90904375819172
 20
-21.50000043000273
 30
0.0
 40
3.000000060000346
100
AcDbArc
 50
90.0
 51
166.2568700000013
  0
ARC
  5
3149
330
21CC
100
AcDbEntity
  8
0
100
AcDbCircle
 10
0.0
 20
0.0
 30
0.0
 40
87.50000175001009
100
AcDbArc
 50
13.74310799999045
 51
114.5017900000051
  0
ARC
  5
314A
330
21CC
100
AcDbEntity
  8
0
100
AcDbCircle
 10
0.0
 20
0.0
 30
0.0
 40
87.50000175001009
100
AcDbArc
 50
250.6164600000007
 51
346.2568900000036
  0
ARC
  5
314B
330
21CC
100
AcDbEntity
  8
0
100
AcDbCircle
 10
0.0
 20
0.0
 30
0.0
 40
77.50000155000893
100
AcDbArc
 50
12.84842500000541
 51
106.9984400000098
  0
ARC
  5
314C
330
21CC
100
AcDbEntity
  8
0
100
AcDbCircle
 10
-44.1000068820058
 20
76.38343952767718
 30
0.0
 40
7.000000140000807
100
AcDbArc
 50
354.9999799999985
 51
154.9744662635806
  0
ARC
  5
314D
330
21CC
100
AcDbEntity
  8
0
100
AcDbCircle
 10
0.0
 20
0.0
 30
0.0
 40
77.50000155000893
100
AcDbArc
 50
127.6277300000126
 51
226.999450000013
  0
ARC
  5
314E
330
21CC
100
AcDbEntity
  8
0
100
AcDbCircle
 10
-47.9264839585353
 20
62.17154824343833
 30
0.0
 40
1.000000020000115
100
AcDbArc
 50
307.6275999999945
 51
64.99995499999707
  0
ARC
  5
314F
330
21CC
100
AcDbEntity
  8
0
100
AcDbCircle
 10
-36.45846672917377
 20
66.19987632400534
 30
0.0
 40
1.000000020000115
100
AcDbArc
 50
174.9998500000141
 51
245.0000500000035
  0
ARC
  5
3150
330
21CC
100
AcDbEntity
  8
0
100
AcDbCircle
 10
-34.72985869460126
 20
67.60056435201841
 30
0.0
 40
3.000000060000346
100
AcDbArc
 50
244.9999900000062
 51
297.1918699999894
  0
ARC
  5
3151
330
21CC
100
AcDbEntity
  8
0
100
AcDbCircle
 10
79.7500015950095
 20
-28.0414435608327
 30
0.0
 40
10.00000020000115
100
AcDbArc
 50
329.9999999999994
 51
0.0
  0
LWPOLYLINE
  5
3152
330
21CC
100
AcDbEntity
  8
0
100
AcDbPolyline
 90
        3
 70
     0
 43
0.0
 10
-6.000000120002368
 20
6.92821273856498
 10
-9.000000179999915
 20
5.196167103923471
 10
-9.000000179999915
 20
-5.196136603923605
  0
LWPOLYLINE
  5
3153
330
21CC
100
AcDbEntity
  8
0
100
AcDbPolyline
 90
        2
 70
     0
 43
0.0
 10
-9.000000179999915
 20
-5.196136603923605
 10
-6.000000120002368
 20
-6.928192238564861
  0
LWPOLYLINE
  5
3154
330
21CC
100
AcDbEntity
  8
0
100
AcDbPolyline
 90
        4
 70
     0
 43
0.0
 10
6.000000120002368
 20
-6.928192238564861
 10
9.000000179999915
 20
-5.196136603923605
 10
9.000000179999915
 20
5.196167103923471
 10
6.000000120002368
 20
6.92821273856498
  0
LINE
  5
3155
330
21CC
100
AcDbEntity
  8
0
100
AcDbLine
 10
895.1937289223842
 20
50.79994680000073
 30
0.0
 11
933.0324289223845
 21
50.79994680000073
 31
0.0
  0
LINE
  5
3156
330
21CC
100
AcDbEntity
  8
0
100
AcDbLine
 10
861.9320449223859
 20
69.23005680000096
 30
0.0
 11
892.6937449223851
 21
51.4697868000012
 31
0.0
  0
LINE
  5
3157
330
21CC
100
AcDbEntity
  8
0
100
AcDbLine
 10
285.6493549223848
 20
69.89995680000084
 30
0.0
 11
859.4320549223848
 21
69.89995680000084
 31
0.0
  0
LINE
  5
3158
330
21CC
100
AcDbEntity
  8
0
100
AcDbLine
 10
940.4493919223851
 20
59.4999168000013
 30
0.0
 11
938.1595429223844
 21
59.4999168000013
 31
0.0
  0
LINE
  5
3159
330
21CC
100
AcDbEntity
  8
0
100
AcDbLine
 10
937.4078479223848
 20
58.97350680000091
 30
0.0
 11
934.9118479223852
 21
52.11583680000058
 31
0.0
  0
ARC
  5
315A
330
21CC
100
AcDbEntity
  8
0
100
AcDbCircle
 10
933.0324289223845
 20
52.79998680000108
 30
0.0
 40
2.00000007
100
AcDbArc
 50
270.0
 51
340.0002000000112
  0
ARC
  5
315B
330
21CC
100
AcDbEntity
  8
0
100
AcDbCircle
 10
938.1595429223844
 20
58.69993680000061
 30
0.0
 40
0.8000000400000001
100
AcDbArc
 50
90.0
 51
160.0009300000093
  0
ARC
  5
315C
330
21CC
100
AcDbEntity
  8
0
100
AcDbCircle
 10
895.1937289223842
 20
55.79998680000108
 30
0.0
 40
5.0000001
100
AcDbArc
 50
239.9999100000031
 51
270.0
  0
ARC
  5
315D
330
21CC
100
AcDbEntity
  8
0
100
AcDbCircle
 10
859.4320549223848
 20
64.89997680000124
 30
0.0
 40
5.0000001
100
AcDbArc
 50
59.99991000001156
 51
90.0
  0
LINE
  5
315E
330
21CC
100
AcDbEntity
  8
0
100
AcDbLine
 10
940.4493919223851
 20
59.5000068000013
 30
0.0
 11
940.4493919223851
 21
-59.49994319999859
 31
0.0
  0
LINE
  5
3365
330
21CC
100
AcDbEntity
  8
0
100
AcDbLine
 10
260.649349922385
 20
18.49998180000102
 30
0.0
 11
265.4493499223849
 21
18.49998180000102
 31
0.0
  0
LINE
  5
3366
330
21CC
100
AcDbEntity
  8
0
100
AcDbLine
 10
260.649349922385
 20
-18.50000819999877
 30
0.0
 11
263.6978299223849
 21
-18.50000819999877
 31
0.0
  0
LINE
  5
3367
330
21CC
100
AcDbEntity
  8
0
100
AcDbLine
 10
260.649349922385
 20
-4.000018199998976
 30
0.0
 11
265.4493499223849
 21
-4.000018199998976
 31
0.0
  0
LINE
  5
3368
330
21CC
100
AcDbEntity
  8
0
100
AcDbLine
 10
260.649349922385
 20
3.999991800001225
 30
0.0
 11
265.4493499223849
 21
3.999991800001225
 31
0.0
  0
LINE
  5
3369
330
21CC
100
AcDbEntity
  8
0
100
AcDbLine
 10
281.6008699223848
 20
-18.50000819999877
 30
0.0
 11
284.649349922385
 21
-18.50000819999877
 31
0.0
  0
LINE
  5
336A
330
21CC
100
AcDbEntity
  8
0
100
AcDbLine
 10
279.8493499223848
 20
-4.000018199998976
 30
0.0
 11
284.649349922385
 21
-4.000018199998976
 31
0.0
  0
LINE
  5
336B
330
21CC
100
AcDbEntity
  8
0
100
AcDbLine
 10
279.8493499223848
 20
3.999991800001225
 30
0.0
 11
284.649349922385
 21
3.999991800001225
 31
0.0
  0
LINE
  5
336C
330
21CC
100
AcDbEntity
  8
0
100
AcDbLine
 10
279.8493499223848
 20
18.49998180000102
 30
0.0
 11
284.649349922385
 21
18.49998180000102
 31
0.0
  0
LINE
  5
336D
330
21CC
100
AcDbEntity
  8
0
100
AcDbLine
 10
267.6493549223848
 20
-15.72094319999905
 30
0.0
 11
267.6493549223848
 21
16.84015680000084
 31
0.0
  0
LINE
  5
336E
330
21CC
100
AcDbEntity
  8
0
100
AcDbLine
 10
277.6493449223849
 20
-15.72094319999905
 30
0.0
 11
277.6493449223849
 21
16.84015680000084
 31
0.0
  0
LINE
  5
336F
330
21CC
100
AcDbEntity
  8
0
100
AcDbLine
 10
266.4493549223848
 20
7.749991800001225
 30
0.0
 11
267.6493549223848
 21
7.749991800001225
 31
0.0
  0
LINE
  5
3370
330
21CC
100
AcDbEntity
  8
0
100
AcDbLine
 10
266.4493549223848
 20
14.74998180000102
 30
0.0
 11
267.6493549223848
 21
14.74998180000102
 31
0.0
  0
LINE
  5
3371
330
21CC
100
AcDbEntity
  8
0
100
AcDbLine
 10
258.6493549223848
 20
6.249991800001225
 30
0.0
 11
259.6493449223848
 21
6.249991800001225
 31
0.0
  0
LINE
  5
3372
330
21CC
100
AcDbEntity
  8
0
100
AcDbLine
 10
258.6493549223848
 20
16.24998180000102
 30
0.0
 11
259.6493449223848
 21
16.24998180000102
 31
0.0
  0
LINE
  5
3373
330
21CC
100
AcDbEntity
  8
0
100
AcDbLine
 10
265.3896799223848
 20
-87.50000819999877
 30
0.0
 11
279.9090499223848
 21
-87.50000819999877
 31
0.0
  0
LINE
  5
3374
330
21CC
100
AcDbEntity
  8
0
100
AcDbLine
 10
259.6493449223848
 20
-83.74231319999898
 30
0.0
 11
259.6493449223848
 21
83.74227180000117
 31
0.0
  0
LINE
  5
3375
330
21CC
100
AcDbEntity
  8
0
100
AcDbLine
 10
285.6493549223848
 20
-83.74231319999898
 30
0.0
 11
285.6493549223848
 21
83.74227180000117
 31
0.0
  0
LINE
  5
3376
330
21CC
100
AcDbEntity
  8
0
100
AcDbLine
 10
259.7096749223849
 20
-77.66569319999871
 30
0.0
 11
262.5706249223849
 21
-85.52606819999892
 31
0.0
  0
LINE
  5
3377
330
21CC
100
AcDbEntity
  8
0
100
AcDbLine
 10
285.5890549223847
 20
-77.66570819999924
 30
0.0
 11
282.728104922385
 21
-85.52609819999906
 31
0.0
  0
LINE
  5
3378
330
21CC
100
AcDbEntity
  8
0
100
AcDbLine
 10
266.4493549223848
 20
-15.51329819999864
 30
0.0
 11
266.4493549223848
 21
-5.000008199998774
 31
0.0
  0
LINE
  5
3379
330
21CC
100
AcDbEntity
  8
0
100
AcDbLine
 10
266.4493549223848
 20
4.999981800001023
 30
0.0
 11
266.4493549223848
 21
17.49999180000122
 31
0.0
  0
LINE
  5
337A
330
21CC
100
AcDbEntity
  8
0
100
AcDbLine
 10
278.8493749223848
 20
4.999981800001023
 30
0.0
 11
278.8493749223848
 21
17.49999180000122
 31
0.0
  0
LINE
  5
337B
330
21CC
100
AcDbEntity
  8
0
100
AcDbLine
 10
278.8493749223848
 20
-15.51332819999879
 30
0.0
 11
278.8493749223848
 21
-5.000008199998774
 31
0.0
  0
LINE
  5
337C
330
21CC
100
AcDbEntity
  8
0
100
AcDbLine
 10
263.289064922385
 20
-82.51307819999874
 30
0.0
 11
263.289064922385
 21
-18.50000819999877
 31
0.0
  0
LINE
  5
337D
330
21CC
100
AcDbEntity
  8
0
100
AcDbLine
 10
282.0096499223848
 20
-83.17849319999913
 30
0.0
 11
282.0096499223848
 21
-18.50000819999877
 31
0.0
  0
LINE
  5
337E
330
21CC
100
AcDbEntity
  8
0
100
AcDbLine
 10
258.6493549223848
 20
-82.94230319999906
 30
0.0
 11
259.6493449223848
 21
-82.94230319999906
 31
0.0
  0
LINE
  5
337F
330
21CC
100
AcDbEntity
  8
0
100
AcDbLine
 10
258.6493549223848
 20
-72.94229819999873
 30
0.0
 11
259.6493449223848
 21
-72.94229819999873
 31
0.0
  0
LINE
  5
3380
330
21CC
100
AcDbEntity
  8
0
100
AcDbLine
 10
262.6493449223849
 20
-86.74231319999899
 30
0.0
 11
263.3966449223848
 21
-86.74231319999899
 31
0.0
  0
LINE
  5
3381
330
21CC
100
AcDbEntity
  8
0
100
AcDbLine
 10
281.9020549223848
 20
-86.74231319999899
 30
0.0
 11
282.6493549223848
 21
-86.74231319999899
 31
0.0
  0
LINE
  5
3382
330
21CC
100
AcDbEntity
  8
0
100
AcDbLine
 10
258.6493549223848
 20
72.94227180000098
 30
0.0
 11
259.6493449223848
 21
72.94227180000098
 31
0.0
  0
LINE
  5
3383
330
21CC
100
AcDbEntity
  8
0
100
AcDbLine
 10
282.0096499223848
 20
83.07993180000085
 30
0.0
 11
282.0096499223848
 21
18.49998180000102
 31
0.0
  0
LINE
  5
3384
330
21CC
100
AcDbEntity
  8
0
100
AcDbLine
 10
263.289064922385
 20
83.42731680000088
 30
0.0
 11
263.289064922385
 21
18.49998180000102
 31
0.0
  0
LINE
  5
3385
330
21CC
100
AcDbEntity
  8
0
100
AcDbLine
 10
281.9020549223848
 20
86.74227180000116
 30
0.0
 11
282.6493549223848
 21
86.74227180000116
 31
0.0
  0
LINE
  5
3386
330
21CC
100
AcDbEntity
  8
0
100
AcDbLine
 10
262.6493449223849
 20
86.74227180000116
 30
0.0
 11
263.3966449223848
 21
86.74227180000116
 31
0.0
  0
LINE
  5
3387
330
21CC
100
AcDbEntity
  8
0
100
AcDbLine
 10
265.3896799223848
 20
87.4999968000011
 30
0.0
 11
279.9090499223848
 21
87.4999968000011
 31
0.0
  0
LINE
  5
3388
330
21CC
100
AcDbEntity
  8
0
100
AcDbLine
 10
259.7096749223849
 20
77.66568180000104
 30
0.0
 11
262.5706099223848
 21
85.52605680000125
 31
0.0
  0
LINE
  5
3389
330
21CC
100
AcDbEntity
  8
0
100
AcDbLine
 10
285.5890549223847
 20
77.66568180000104
 30
0.0
 11
282.7281199223848
 21
85.52604180000116
 31
0.0
  0
LINE
  5
338A
330
21CC
100
AcDbEntity
  8
0
100
AcDbLine
 10
258.6493549223848
 20
82.94226180000078
 30
0.0
 11
259.6493449223848
 21
82.94226180000078
 31
0.0
  0
LINE
  5
338B
330
21CC
100
AcDbEntity
  8
0
100
AcDbLine
 10
277.6493449223849
 20
14.74998180000102
 30
0.0
 11
278.8493749223848
 21
14.74998180000102
 31
0.0
  0
LINE
  5
338C
330
21CC
100
AcDbEntity
  8
0
100
AcDbLine
 10
277.6493449223849
 20
7.749991800001225
 30
0.0
 11
278.8493749223848
 21
7.749991800001225
 31
0.0
  0
LINE
  5
338D
330
21CC
100
AcDbEntity
  8
0
100
AcDbLine
 10
279.0992599223848
 20
-16.17463319999887
 30
0.0
 11
280.8507649223849
 21
-18.16132319999906
 31
0.0
  0
LINE
  5
338E
330
21CC
100
AcDbEntity
  8
0
100
AcDbLine
 10
266.1994699223849
 20
-16.17460319999918
 30
0.0
 11
264.4479499223848
 21
-18.16132319999906
 31
0.0
  0
ARC
  5
338F
330
21CC
100
AcDbEntity
  8
0
100
AcDbCircle
 10
272.6493499223849
 20
11.24998680000135
 30
0.0
 40
7.5
100
AcDbArc
 50
48.18969000000961
 51
131.8103199999971
  0
ARC
  5
3390
330
21CC
100
AcDbEntity
  8
0
100
AcDbCircle
 10
264.7564999223848
 20
11.24998680000135
 30
0.0
 40
7.892857049999999
100
AcDbArc
 50
140.692349999994
 51
219.3076500000059
  0
ARC
  5
3391
330
21CC
100
AcDbEntity
  8
0
100
AcDbCircle
 10
265.3896799223848
 20
-84.50000819999877
 30
0.0
 40
3.0
100
AcDbArc
 50
199.9999999999892
 51
269.9999970000023
  0
ARC
  5
3392
330
21CC
100
AcDbEntity
  8
0
100
AcDbCircle
 10
279.9090499223848
 20
-84.50000819999877
 30
0.0
 40
3.0
100
AcDbArc
 50
269.9999970000023
 51
340.0000009999936
  0
ARC
  5
3393
330
21CC
100
AcDbEntity
  8
0
100
AcDbCircle
 10
260.649349922385
 20
-77.32369319999907
 30
0.0
 40
1.000000035
100
AcDbArc
 50
179.9999899999989
 51
199.9999999999892
  0
ARC
  5
3394
330
21CC
100
AcDbEntity
  8
0
100
AcDbCircle
 10
284.649349922385
 20
-77.32369319999907
 30
0.0
 40
1.000000035
100
AcDbArc
 50
340.0000009999936
 51
0.0
  0
ARC
  5
3395
330
21CC
100
AcDbEntity
  8
0
100
AcDbCircle
 10
284.649349922385
 20
-17.50001819999897
 30
0.0
 40
1.000000035
100
AcDbArc
 50
269.9999970000023
 51
0.0
  0
ARC
  5
3396
330
21CC
100
AcDbEntity
  8
0
100
AcDbCircle
 10
284.649349922385
 20
-5.000008199998774
 30
0.0
 40
1.000000035
100
AcDbArc
 50
0.0
 51
90.0
  0
ARC
  5
3397
330
21CC
100
AcDbEntity
  8
0
100
AcDbCircle
 10
265.4493499223849
 20
-5.000008199998774
 30
0.0
 40
1.000000035
100
AcDbArc
 50
0.0
 51
90.0
  0
ARC
  5
3398
330
21CC
100
AcDbEntity
  8
0
100
AcDbCircle
 10
260.649349922385
 20
-5.000008199998774
 30
0.0
 40
1.000000035
100
AcDbArc
 50
90.0
 51
180.0000100000009
  0
ARC
  5
3399
330
21CC
100
AcDbEntity
  8
0
100
AcDbCircle
 10
260.649349922385
 20
-17.50001819999897
 30
0.0
 40
1.000000035
100
AcDbArc
 50
179.9999899999989
 51
269.9999970000023
  0
ARC
  5
339A
330
21CC
100
AcDbEntity
  8
0
100
AcDbCircle
 10
279.8493499223848
 20
-5.000008199998774
 30
0.0
 40
1.000000035
100
AcDbArc
 50
90.0
 51
180.0000100000009
  0
ARC
  5
339B
330
21CC
100
AcDbEntity
  8
0
100
AcDbCircle
 10
260.649349922385
 20
4.999981800001023
 30
0.0
 40
1.000000035
100
AcDbArc
 50
179.9999899999989
 51
269.9999970000023
  0
ARC
  5
339C
330
21CC
100
AcDbEntity
  8
0
100
AcDbCircle
 10
265.4493499223849
 20
4.999981800001023
 30
0.0
 40
1.000000035
100
AcDbArc
 50
269.9999970000023
 51
0.0
  0
ARC
  5
339D
330
21CC
100
AcDbEntity
  8
0
100
AcDbCircle
 10
279.8493499223848
 20
4.999981800001023
 30
0.0
 40
1.000000035
100
AcDbArc
 50
179.9999899999989
 51
269.9999970000023
  0
ARC
  5
339E
330
21CC
100
AcDbEntity
  8
0
100
AcDbCircle
 10
284.649349922385
 20
4.999981800001023
 30
0.0
 40
1.000000035
100
AcDbArc
 50
269.9999970000023
 51
0.0
  0
ARC
  5
339F
330
21CC
100
AcDbEntity
  8
0
100
AcDbCircle
 10
284.649349922385
 20
17.49999180000122
 30
0.0
 40
1.000000035
100
AcDbArc
 50
0.0
 51
90.0
  0
ARC
  5
33A0
330
21CC
100
AcDbEntity
  8
0
100
AcDbCircle
 10
279.8493499223848
 20
17.49999180000122
 30
0.0
 40
1.000000035
100
AcDbArc
 50
90.0
 51
180.0000100000009
  0
ARC
  5
33A1
330
21CC
100
AcDbEntity
  8
0
100
AcDbCircle
 10
265.4493499223849
 20
17.49999180000122
 30
0.0
 40
1.000000035
100
AcDbArc
 50
0.0
 51
90.0
  0
ARC
  5
33A2
330
21CC
100
AcDbEntity
  8
0
100
AcDbCircle
 10
260.649349922385
 20
17.49999180000122
 30
0.0
 40
1.000000035
100
AcDbArc
 50
90.0
 51
180.0000100000009
  0
ARC
  5
33A3
330
21CC
100
AcDbEntity
  8
0
100
AcDbCircle
 10
264.7564999223848
 20
-77.94230819999893
 30
0.0
 40
7.892857049999999
100
AcDbArc
 50
140.692349999994
 51
219.3076500000059
  0
ARC
  5
33A4
330
21CC
100
AcDbEntity
  8
0
100
AcDbCircle
 10
262.6493449223849
 20
-83.74231319999898
 30
0.0
 40
3.0
100
AcDbArc
 50
179.9999899999989
 51
269.9999970000023
  0
ARC
  5
33A5
330
21CC
100
AcDbEntity
  8
0
100
AcDbCircle
 10
282.6493549223848
 20
-83.74231319999898
 30
0.0
 40
3.0
100
AcDbArc
 50
269.9999970000023
 51
0.0
  0
ARC
  5
33A6
330
21CC
100
AcDbEntity
  8
0
100
AcDbCircle
 10
262.6493449223849
 20
83.74227180000117
 30
0.0
 40
3.0
100
AcDbArc
 50
90.0
 51
180.0000100000009
  0
ARC
  5
33A7
330
21CC
100
AcDbEntity
  8
0
100
AcDbCircle
 10
282.6493549223848
 20
83.74227180000117
 30
0.0
 40
3.0
100
AcDbArc
 50
0.0
 51
90.0
  0
ARC
  5
33A8
330
21CC
100
AcDbEntity
  8
0
100
AcDbCircle
 10
265.3896799223848
 20
84.49999680000109
 30
0.0
 40
3.0
100
AcDbArc
 50
90.0
 51
160.0000000000107
  0
ARC
  5
33A9
330
21CC
100
AcDbEntity
  8
0
100
AcDbCircle
 10
279.9090499223848
 20
84.49999680000109
 30
0.0
 40
3.0
100
AcDbArc
 50
19.99999999998923
 51
90.0
  0
ARC
  5
33AA
330
21CC
100
AcDbEntity
  8
0
100
AcDbCircle
 10
264.7564999223848
 20
77.94226680000111
 30
0.0
 40
7.892857049999999
100
AcDbArc
 50
140.692349999994
 51
219.3076500000059
  0
ARC
  5
33AB
330
21CC
100
AcDbEntity
  8
0
100
AcDbCircle
 10
260.649349922385
 20
77.32365180000124
 30
0.0
 40
1.000000035
100
AcDbArc
 50
160.0000000000107
 51
180.0000100000009
  0
ARC
  5
33AC
330
21CC
100
AcDbEntity
  8
0
100
AcDbCircle
 10
284.649349922385
 20
77.32365180000124
 30
0.0
 40
1.000000035
100
AcDbArc
 50
0.0
 51
19.99999999998923
  0
ARC
  5
33AD
330
21CC
100
AcDbEntity
  8
0
100
AcDbCircle
 10
263.6978299223849
 20
-17.50001819999897
 30
0.0
 40
1.000000035
100
AcDbArc
 50
269.9999970000023
 51
318.6000000000059
  0
ARC
  5
33AE
330
21CC
100
AcDbEntity
  8
0
100
AcDbCircle
 10
265.4493499223849
 20
-15.51329819999864
 30
0.0
 40
1.000000035
100
AcDbArc
 50
318.6000000000059
 51
0.0
  0
ARC
  5
33AF
330
21CC
100
AcDbEntity
  8
0
100
AcDbCircle
 10
279.8493499223848
 20
-15.51332819999879
 30
0.0
 40
1.000000035
100
AcDbArc
 50
179.9999899999989
 51
221.3999999999941
  0
ARC
  5
33B0
330
21CC
100
AcDbEntity
  8
0
100
AcDbCircle
 10
281.6008699223848
 20
-17.50001819999897
 30
0.0
 40
1.000000035
100
AcDbArc
 50
221.3999999999941
 51
269.9999970000023
  0
LINE
  5
33B1
330
21CC
100
AcDbEntity
  8
0
100
AcDbLine
 10
266.650551522385
 20
-15.72094319999905
 30
0.0
 11
278.648152122385
 21
-15.72094319999905
 31
0.0
  0
LINE
  5
33B2
330
21CC
100
AcDbEntity
  8
0
100
AcDbLine
 10
263.8993499223849
 20
-22.09094589999904
 30
0.0
 11
263.8993499223849
 21
-27.72089719999894
 31
0.0
  0
LINE
  5
33B3
330
21CC
100
AcDbEntity
  8
0
100
AcDbLine
 10
281.399349922385
 20
-22.09094589999904
 30
0.0
 11
281.399349922385
 21
-27.72095819999913
 31
0.0
  0
LINE
  5
33B4
330
21CC
100
AcDbEntity
  8
0
100
AcDbLine
 10
263.899353722385
 20
-27.72094819999892
 30
0.0
 11
264.4781705223849
 21
-38.76543219999894
 31
0.0
  0
LINE
  5
33B5
330
21CC
100
AcDbEntity
  8
0
100
AcDbLine
 10
269.7993514223849
 20
-30.57094119999874
 30
0.0
 11
269.7993514223849
 21
-60.31401419999929
 31
0.0
  0
LINE
  5
33B6
330
21CC
100
AcDbEntity
  8
0
100
AcDbLine
 10
281.399349422385
 20
-27.72094119999929
 30
0.0
 11
280.8205321223849
 21
-38.76543219999894
 31
0.0
  0
LINE
  5
33B7
330
21CC
100
AcDbEntity
  8
0
100
AcDbLine
 10
267.4740569223849
 20
-41.60842519999914
 30
0.0
 11
269.7993514223849
 21
-41.60842519999914
 31
0.0
  0
LINE
  5
33B8
330
21CC
100
AcDbEntity
  8
0
100
AcDbLine
 10
275.4993484223851
 20
-41.60842519999914
 30
0.0
 11
277.824646722385
 21
-41.60842519999914
 31
0.0
  0
LINE
  5
33B9
330
21CC
100
AcDbEntity
  8
0
100
AcDbLine
 10
271.7869880123851
 20
-63.43649619999905
 30
0.0
 11
273.5117118323848
 21
-63.43649619999905
 31
0.0
  0
LINE
  5
33BA
330
21CC
100
AcDbEntity
  8
0
100
AcDbLine
 10
275.4059970223849
 20
-60.73590319999903
 30
0.0
 11
274.418358522385
 21
-62.85838719999901
 31
0.0
  0
LINE
  5
33BB
330
21CC
100
AcDbEntity
  8
0
100
AcDbLine
 10
269.8927013223849
 20
-60.73589519999905
 30
0.0
 11
270.8803398223849
 21
-62.85837919999903
 31
0.0
  0
LINE
  5
33BC
330
21CC
100
AcDbEntity
  8
0
100
AcDbLine
 10
275.4993484223851
 20
-30.57094119999874
 30
0.0
 11
275.4993484223851
 21
-60.31401419999929
 31
0.0
  0
ARC
  5
33BD
330
21CC
100
AcDbEntity
  8
0
100
AcDbCircle
 10
272.6493499223849
 20
-22.09094589999904
 30
0.0
 40
8.75
100
AcDbArc
 50
0.0
 51
46.71898000000425
  0
ARC
  5
33BE
330
21CC
100
AcDbEntity
  8
0
100
AcDbCircle
 10
272.6493499223849
 20
-22.09094589999904
 30
0.0
 40
8.75
100
AcDbArc
 50
133.2810199999957
 51
179.9999899999989
  0
ARC
  5
33BF
330
21CC
100
AcDbEntity
  8
0
100
AcDbCircle
 10
272.6493499223849
 20
-30.57094119999874
 30
0.0
 40
2.849999899999999
100
AcDbArc
 50
359.9999956743055
 51
180.0000100000009
  0
ARC
  5
33C0
330
21CC
100
AcDbEntity
  8
0
100
AcDbCircle
 10
272.6493499223849
 20
-24.07094549999874
 30
0.0
 40
6.0
100
AcDbArc
 50
199.4712299999884
 51
228.1896800000028
  0
ARC
  5
33C1
330
21CC
100
AcDbEntity
  8
0
100
AcDbCircle
 10
267.4740569223849
 20
-38.60842519999915
 30
0.0
 40
3.0
100
AcDbArc
 50
183.0000100000062
 51
269.9999970000023
  0
ARC
  5
33C2
330
21CC
100
AcDbEntity
  8
0
100
AcDbCircle
 10
277.824646722385
 20
-38.60842519999915
 30
0.0
 40
3.0
100
AcDbArc
 50
269.9999970000023
 51
356.99999909999
  0
ARC
  5
33C3
330
21CC
100
AcDbEntity
  8
0
100
AcDbCircle
 10
270.7993514223849
 20
-60.31401419999929
 30
0.0
 40
1.0
100
AcDbArc
 50
179.9999899999989
 51
204.9536000000111
  0
ARC
  5
33C4
330
21CC
100
AcDbEntity
  8
0
100
AcDbCircle
 10
271.7869880123851
 20
-62.43649619999906
 30
0.0
 40
1.0
100
AcDbArc
 50
204.9536000000111
 51
269.9999970000023
  0
ARC
  5
33C5
330
21CC
100
AcDbEntity
  8
0
100
AcDbCircle
 10
273.5117118323848
 20
-62.43649619999906
 30
0.0
 40
1.0
100
AcDbArc
 50
269.9999970000023
 51
335.0464039999981
  0
ARC
  5
33C6
330
21CC
100
AcDbEntity
  8
0
100
AcDbCircle
 10
274.499348422385
 20
-60.31401419999929
 30
0.0
 40
1.0
100
AcDbArc
 50
335.0464039999981
 51
0.0
  0
ARC
  5
33C7
330
21CC
100
AcDbEntity
  8
0
100
AcDbCircle
 10
272.6493499223849
 20
-24.07094549999874
 30
0.0
 40
6.0
100
AcDbArc
 50
311.8103169999981
 51
340.528777999996
  0
ENDSEC
  0
SECTION
  2
OBJECTS
  0
DICTIONARY
  5
21BA
330
0
100
AcDbDictionary
281
     1
  3
ACAD_GROUP
350
21BB
  3
ACAD_LAYOUT
350
21C7
  3
ACAD_MLINESTYLE
350
21C4
  3
ACAD_PLOTSETTINGS
350
21C6
  3
ACAD_PLOTSTYLENAME
350
21BC
  3
AcDbVariableDictionary
350
2238
  0
DICTIONARY
  5
2244
330
21B0
100
AcDbDictionary
280
     1
281
     1
  3
ACAD_LAYERSTATES
360
2245
  0
DICTIONARY
  5
21F8
330
21CC
100
AcDbDictionary
280
     1
281
     1
  3
ACAD_LAYOUTSELFREF
360
2227
  0
DICTIONARY
  5
21FA
330
21C8
100
AcDbDictionary
280
     1
281
     1
  3
ACAD_LAYOUTSELFREF
360
2226
  0
DICTIONARY
  5
21BB
102
{ACAD_REACTORS
330
21BA
102
}
330
21BA
100
AcDbDictionary
281
     1
  0
DICTIONARY
  5
21C7
102
{ACAD_REACTORS
330
21BA
102
}
330
21BA
100
AcDbDictionary
281
     1
  3
Model
350
21CF
  3
ﾚｲｱｳﾄ1
350
21CB
  0
DICTIONARY
  5
21C4
102
{ACAD_REACTORS
330
21BA
102
}
330
21BA
100
AcDbDictionary
281
     1
  3
Standard
350
21C5
  0
DICTIONARY
  5
21C6
102
{ACAD_REACTORS
330
21BA
102
}
330
21BA
100
AcDbDictionary
281
     1
  0
ACDBDICTIONARYWDFLT
  5
21BC
102
{ACAD_REACTORS
330
21BA
102
}
330
21BA
100
AcDbDictionary
281
     1
  3
Normal
350
21BD
100
AcDbDictionaryWithDefault
340
21BD
  0
DICTIONARY
  5
2238
102
{ACAD_REACTORS
330
21BA
102
}
330
21BA
100
AcDbDictionary
281
     1
  3
DIMASSOC
350
2239
  0
DICTIONARY
  5
2245
102
{ACAD_REACTORS
330
2244
102
}
330
2244
100
AcDbDictionary
281
     1
  0
XRECORD
  5
2227
102
{ACAD_REACTORS
330
21F8
102
}
330
21F8
100
AcDbXrecord
280
     1
340
21CC
  0
XRECORD
  5
2226
102
{ACAD_REACTORS
330
21FA
102
}
330
21FA
100
AcDbXrecord
280
     1
340
21C8
  0
LAYOUT
  5
21CF
102
{ACAD_REACTORS
330
21C7
102
}
330
21C7
100
AcDbPlotSettings
  1

  2
SII LP-2150 (D-SCAN C2)
  4

  6

 40
0.0
 41
0.0
 42
0.0
 43
0.0
 44
0.0
 45
0.0
 46
0.0
 47
0.0
 48
0.0
 49
0.0
140
0.0
141
0.0
142
1.0
143
1.0
 70
  1712
 72
     0
 73
     0
 74
     0
  7

 75
     0
147
1.0
148
0.0
149
0.0
100
AcDbLayout
  1
Model
 70
     1
 71
     0
 10
0.0
 20
0.0
 11
12.0
 21
9.0
 12
0.0
 22
0.0
 32
0.0
 14
0.0
 24
0.0
 34
0.0
 15
0.0
 25
0.0
 35
0.0
146
0.0
 13
0.0
 23
0.0
 33
0.0
 16
1.0
 26
0.0
 36
0.0
 17
0.0
 27
1.0
 37
0.0
 76
     0
330
21CC
  0
LAYOUT
  5
21CB
102
{ACAD_REACTORS
330
21C7
102
}
330
21C7
100
AcDbPlotSettings
  1

  2
SII LP-2150 (D-SCAN C2)
  4

  6

 40
0.0
 41
0.0
 42
0.0
 43
0.0
 44
0.0
 45
0.0
 46
0.0
 47
0.0
 48
0.0
 49
0.0
140
0.0
141
0.0
142
1.0
143
1.0
 70
   688
 72
     0
 73
     0
 74
     5
  7

 75
    16
147
1.0
148
0.0
149
0.0
100
AcDbLayout
  1
ﾚｲｱｳﾄ1
 70
     1
 71
     1
 10
0.0
 20
0.0
 11
12.0
 21
9.0
 12
0.0
 22
0.0
 32
0.0
 14
1.000000000000000E+20
 24
1.000000000000000E+20
 34
1.000000000000000E+20
 15
-1.000000000000000E+20
 25
-1.000000000000000E+20
 35
-1.000000000000000E+20
146
0.0
 13
0.0
 23
0.0
 33
0.0
 16
1.0
 26
0.0
 36
0.0
 17
0.0
 27
1.0
 37
0.0
 76
     0
330
21C8
  0
MLINESTYLE
  5
21C5
102
{ACAD_REACTORS
330
21C4
102
}
330
21C4
100
AcDbMlineStyle
  2
STANDARD
 70
     0
  3

 62
   256
 51
90.0
 52
90.0
 71
     2
 49
0.5
 62
   256
  6
BYLAYER
 49
-0.5
 62
   256
  6
BYLAYER
  0
ACDBPLACEHOLDER
  5
21BD
102
{ACAD_REACTORS
330
21BC
102
}
330
21BC
  0
DICTIONARYVAR
  5
2239
102
{ACAD_REACTORS
330
2238
102
}
330
2238
100
DictionaryVariables
280
     0
  1
1
  0
ENDSEC
  0
EOF
