  0
SECTION
  2
HEADER
  9
$ACADVER
  1
AC1015
  9
$ACADMAINTVER
 70
    14
  9
$DWGCODEPAGE
  3
ANSI_932
  9
$INSBASE
 10
0.0
 20
0.0
 30
0.0
  9
$EXTMIN
 10
-10.51106203516849
 20
-499.7622637089241
 30
-0.0000000349181948
  9
$EXTMAX
 10
450.5141236463209
 20
248.0507799365432
 30
0.0000000814935746
  9
$LIMMIN
 10
0.0
 20
0.0
  9
$LIMMAX
 10
12.0
 20
9.0
  9
$ORTHOMODE
 70
     0
  9
$REGENMODE
 70
     1
  9
$FILLMODE
 70
     1
  9
$QTEXTMODE
 70
     0
  9
$MIRRTEXT
 70
     1
  9
$LTSCALE
 40
1.0
  9
$ATTMODE
 70
     1
  9
$TEXTSIZE
 40
0.2
  9
$TRACEWID
 40
0.05
  9
$TEXTSTYLE
  7
STANDARD
  9
$CLAYER
  8
0
  9
$CELTYPE
  6
CONTINUOUS
  9
$CECOLOR
 62
   256
  9
$CELTSCALE
 40
1.0
  9
$DISPSILH
 70
     0
  9
$DIMSCALE
 40
1.0
  9
$DIMASZ
 40
1.0
  9
$DIMEXO
 40
2.54
  9
$DIMDLI
 40
0.38
  9
$DIMRND
 40
0.0
  9
$DIMDLE
 40
0.0
  9
$DIMEXE
 40
2.54
  9
$DIMTP
 40
0.0
  9
$DIMTM
 40
0.0
  9
$DIMTXT
 40
3.2
  9
$DIMCEN
 40
0.09
  9
$DIMTSZ
 40
0.0
  9
$DIMTOL
 70
     0
  9
$DIMLIM
 70
     0
  9
$DIMTIH
 70
     0
  9
$DIMTOH
 70
     0
  9
$DIMSE1
 70
     0
  9
$DIMSE2
 70
     0
  9
$DIMTAD
 70
     1
  9
$DIMZIN
 70
     0
  9
$DIMBLK
  1

  9
$DIMASO
 70
     1
  9
$DIMSHO
 70
     0
  9
$DIMPOST
  1

  9
$DIMAPOST
  1

  9
$DIMALT
 70
     0
  9
$DIMALTD
 70
     2
  9
$DIMALTF
 40
25.4
  9
$DIMLFAC
 40
1.0
  9
$DIMTOFL
 70
     0
  9
$DIMTVP
 40
1.0
  9
$DIMTIX
 70
     0
  9
$DIMSOXD
 70
     0
  9
$DIMSAH
 70
     1
  9
$DIMBLK1
  1

  9
$DIMBLK2
  1

  9
$DIMSTYLE
  2
STANDARD
  9
$DIMCLRD
 70
     0
  9
$DIMCLRE
 70
     0
  9
$DIMCLRT
 70
     0
  9
$DIMTFAC
 40
1.0
  9
$DIMGAP
 40
1.6
  9
$DIMJUST
 70
     0
  9
$DIMSD1
 70
     0
  9
$DIMSD2
 70
     0
  9
$DIMTOLJ
 70
     1
  9
$DIMTZIN
 70
     0
  9
$DIMALTZ
 70
     0
  9
$DIMALTTZ
 70
     0
  9
$DIMUPT
 70
     0
  9
$DIMDEC
 70
     4
  9
$DIMTDEC
 70
     4
  9
$DIMALTU
 70
     2
  9
$DIMALTTD
 70
     2
  9
$DIMTXSTY
  7
STANDARD
  9
$DIMAUNIT
 70
     0
  9
$DIMADEC
 70
     0
  9
$DIMALTRND
 40
0.0
  9
$DIMAZIN
 70
     0
  9
$DIMDSEP
 70
    46
  9
$DIMATFIT
 70
     3
  9
$DIMFRAC
 70
     0
  9
$DIMLDRBLK
  1

  9
$DIMLUNIT
 70
     2
  9
$DIMLWD
 70
    -2
  9
$DIMLWE
 70
    -2
  9
$DIMTMOVE
 70
     0
  9
$LUNITS
 70
     2
  9
$LUPREC
 70
     4
  9
$SKETCHINC
 40
0.1
  9
$FILLETRAD
 40
0.0
  9
$AUNITS
 70
     0
  9
$AUPREC
 70
     0
  9
$MENU
  1
.
  9
$ELEVATION
 40
0.0
  9
$PELEVATION
 40
0.0
  9
$THICKNESS
 40
0.0
  9
$LIMCHECK
 70
     0
  9
$CHAMFERA
 40
0.0
  9
$CHAMFERB
 40
0.0
  9
$CHAMFERC
 40
0.0
  9
$CHAMFERD
 40
0.0
  9
$SKPOLY
 70
     0
  9
$TDCREATE
 40
2452488.423138738
  9
$TDUCREATE
 40
2452488.048138738
  9
$TDUPDATE
 40
2456906.721029710
  9
$TDUUPDATE
 40
2456906.346029710
  9
$TDINDWG
 40
0.2867601620
  9
$TDUSRTIMER
 40
0.2867599769
  9
$USRTIMER
 70
     1
  9
$ANGBASE
 50
0.0
  9
$ANGDIR
 70
     0
  9
$PDMODE
 70
     3
  9
$PDSIZE
 40
0.0
  9
$PLINEWID
 40
0.0
  9
$SPLFRAME
 70
     0
  9
$SPLINETYPE
 70
     6
  9
$SPLINESEGS
 70
     8
  9
$HANDSEED
  5
4F39
  9
$SURFTAB1
 70
     6
  9
$SURFTAB2
 70
     6
  9
$SURFTYPE
 70
     6
  9
$SURFU
 70
     6
  9
$SURFV
 70
     6
  9
$UCSBASE
  2

  9
$UCSNAME
  2

  9
$UCSORG
 10
0.0
 20
0.0
 30
0.0
  9
$UCSXDIR
 10
1.0
 20
0.0
 30
0.0
  9
$UCSYDIR
 10
0.0
 20
1.0
 30
0.0
  9
$UCSORTHOREF
  2

  9
$UCSORTHOVIEW
 70
     0
  9
$UCSORGTOP
 10
0.0
 20
0.0
 30
0.0
  9
$UCSORGBOTTOM
 10
0.0
 20
0.0
 30
0.0
  9
$UCSORGLEFT
 10
0.0
 20
0.0
 30
0.0
  9
$UCSORGRIGHT
 10
0.0
 20
0.0
 30
0.0
  9
$UCSORGFRONT
 10
0.0
 20
0.0
 30
0.0
  9
$UCSORGBACK
 10
0.0
 20
0.0
 30
0.0
  9
$PUCSBASE
  2

  9
$PUCSNAME
  2

  9
$PUCSORG
 10
0.0
 20
0.0
 30
0.0
  9
$PUCSXDIR
 10
1.0
 20
0.0
 30
0.0
  9
$PUCSYDIR
 10
0.0
 20
1.0
 30
0.0
  9
$PUCSORTHOREF
  2

  9
$PUCSORTHOVIEW
 70
     0
  9
$PUCSORGTOP
 10
0.0
 20
0.0
 30
0.0
  9
$PUCSORGBOTTOM
 10
0.0
 20
0.0
 30
0.0
  9
$PUCSORGLEFT
 10
0.0
 20
0.0
 30
0.0
  9
$PUCSORGRIGHT
 10
0.0
 20
0.0
 30
0.0
  9
$PUCSORGFRONT
 10
0.0
 20
0.0
 30
0.0
  9
$PUCSORGBACK
 10
0.0
 20
0.0
 30
0.0
  9
$USERI1
 70
     0
  9
$USERI2
 70
     0
  9
$USERI3
 70
     0
  9
$USERI4
 70
     0
  9
$USERI5
 70
     0
  9
$USERR1
 40
0.0
  9
$USERR2
 40
0.0
  9
$USERR3
 40
0.0
  9
$USERR4
 40
0.0
  9
$USERR5
 40
0.0
  9
$WORLDVIEW
 70
     1
  9
$SHADEDGE
 70
     3
  9
$SHADEDIF
 70
    70
  9
$TILEMODE
 70
     1
  9
$MAXACTVP
 70
    48
  9
$PINSBASE
 10
0.0
 20
0.0
 30
0.0
  9
$PLIMCHECK
 70
     0
  9
$PEXTMIN
 10
1.000000000000000E+20
 20
1.000000000000000E+20
 30
1.000000000000000E+20
  9
$PEXTMAX
 10
-1.000000000000000E+20
 20
-1.000000000000000E+20
 30
-1.000000000000000E+20
  9
$PLIMMIN
 10
0.0
 20
0.0
  9
$PLIMMAX
 10
12.0
 20
9.0
  9
$UNITMODE
 70
     0
  9
$VISRETAIN
 70
     1
  9
$PLINEGEN
 70
     0
  9
$PSLTSCALE
 70
     1
  9
$TREEDEPTH
 70
  3020
  9
$CMLSTYLE
  2
Standard
  9
$CMLJUST
 70
     0
  9
$CMLSCALE
 40
1.0
  9
$PROXYGRAPHICS
 70
     1
  9
$MEASUREMENT
 70
     0
  9
$CELWEIGHT
370
    -1
  9
$ENDCAPS
280
     0
  9
$JOINSTYLE
280
     0
  9
$LWDISPLAY
290
     0
  9
$INSUNITS
 70
     0
  9
$HYPERLINKBASE
  1

  9
$STYLESHEET
  1

  9
$XEDIT
290
     1
  9
$CEPSNTYPE
380
     0
  9
$PSTYLEMODE
290
     1
  9
$FINGERPRINTGUID
  2
{FFE95C04-33D2-4560-80D0-1E2918E4EC86}
  9
$VERSIONGUID
  2
{5D11A5CF-F1C4-4C6B-BFA8-7A588DA0A5FE}
  9
$EXTNAMES
290
     1
  9
$PSVPSCALE
 40
0.0
  9
$OLESTARTUP
290
     0
  0
ENDSEC
  0
SECTION
  2
CLASSES
  0
CLASS
  1
ACDBDICTIONARYWDFLT
  2
AcDbDictionaryWithDefault
  3
AutoCAD 2000
 90
        0
280
     0
281
     0
  0
CLASS
  1
ACDBPLACEHOLDER
  2
AcDbPlaceHolder
  3
AutoCAD 2000
 90
        0
280
     0
281
     0
  0
CLASS
  1
LAYOUT
  2
AcDbLayout
  3
AutoCAD 2000
 90
        0
280
     0
281
     0
  0
CLASS
  1
DICTIONARYVAR
  2
AcDbDictionaryVar
  3
AutoCAD 2000
 90
        0
280
     0
281
     0
  0
CLASS
  1
LONG_TRANSACTION
  2
AcDbLongTransaction
  3
AutoCAD 2000
 90
    32768
280
     0
281
     0
  0
CLASS
  1
LWPOLYLINE
  2
AcDbPolyline
  3
AutoCAD 2000
 90
    32768
280
     0
281
     1
  0
CLASS
  1
HATCH
  2
AcDbHatch
  3
AutoCAD 2000
 90
    32768
280
     0
281
     1
  0
CLASS
  1
XRECORD
  2
AcDbXrecord
  3
AutoCAD 2000
 90
    32768
280
     0
281
     0
  0
ENDSEC
  0
SECTION
  2
TABLES
  0
TABLE
  2
VPORT
  5
21B6
330
0
100
AcDbSymbolTable
 70
     2
  0
VPORT
  5
4F38
330
21B6
100
AcDbSymbolTableRecord
100
AcDbViewportTableRecord
  2
*Active
 70
     0
 10
0.0
 20
0.0
 11
1.0
 21
1.0
 12
220.0015308055762
 22
-125.8557418861904
 13
0.0
 23
0.0
 14
1.0
 24
1.0
 15
0.0
 25
0.0
 16
0.0
 26
0.0
 36
1.0
 17
0.0
 27
0.0
 37
0.0
 40
752.5610629702005
 41
1.953389830508474
 42
50.0
 43
0.0
 44
0.0
 50
0.0
 51
0.0
 71
     0
 72
   100
 73
     1
 74
     3
 75
     0
 76
     0
 77
     0
 78
     0
281
     0
 65
     1
110
0.0
120
0.0
130
0.0
111
1.0
121
0.0
131
0.0
112
0.0
122
1.0
132
0.0
 79
     0
146
0.0
  0
ENDTAB
  0
TABLE
  2
LTYPE
  5
21B3
330
0
100
AcDbSymbolTable
 70
     2
  0
LTYPE
  5
21C1
330
21B3
100
AcDbSymbolTableRecord
100
AcDbLinetypeTableRecord
  2
ByBlock
 70
     0
  3

 72
    65
 73
     0
 40
0.0
  0
LTYPE
  5
21C2
330
21B3
100
AcDbSymbolTableRecord
100
AcDbLinetypeTableRecord
  2
ByLayer
 70
     0
  3

 72
    65
 73
     0
 40
0.0
  0
LTYPE
  5
21C3
330
21B3
100
AcDbSymbolTableRecord
100
AcDbLinetypeTableRecord
  2
CONTINUOUS
 70
     0
  3
Solid line
 72
    65
 73
     0
 40
0.0
  0
LTYPE
  5
21D1
330
21B3
100
AcDbSymbolTableRecord
100
AcDbLinetypeTableRecord
  2
CENTER
 70
     0
  3
__ . __
 72
    65
 73
     4
 40
7.0
 49
4.0
 74
     0
 49
-1.0
 74
     0
 49
1.0
 74
     0
 49
-1.0
 74
     0
  0
ENDTAB
  0
TABLE
  2
LAYER
  5
21B0
102
{ACAD_XDICTIONARY
360
2244
102
}
330
0
100
AcDbSymbolTable
 70
     1
  0
LAYER
  5
21BE
330
21B0
100
AcDbSymbolTableRecord
100
AcDbLayerTableRecord
  2
0
 70
     0
 62
     7
  6
CONTINUOUS
370
    -3
390
21BD
  0
ENDTAB
  0
TABLE
  2
STYLE
  5
21B1
330
0
100
AcDbSymbolTable
 70
     1
  0
STYLE
  5
21BF
330
21B1
100
AcDbSymbolTableRecord
100
AcDbTextStyleTableRecord
  2
STANDARD
 70
     0
 40
0.0
 41
1.0
 50
0.0
 71
     0
 42
0.2
  3
txt
  4
BIGFONT
  0
ENDTAB
  0
TABLE
  2
VIEW
  5
21B4
330
0
100
AcDbSymbolTable
 70
     1
  0
VIEW
  5
21DE
330
21B4
100
AcDbSymbolTableRecord
100
AcDbViewTableRecord
  2
OLE1
 70
     0
 40
3692.141019219747
 10
1914.591370701856
 20
1272.206200738182
 41
4595.022665841169
 11
0.0
 21
0.0
 31
1.0
 12
0.0
 22
0.0
 32
0.0
 42
50.0
 43
0.0
 44
0.0
 50
0.0
 71
     0
281
     0
 72
     1
110
0.0
120
0.0
130
0.0
111
1.0
121
0.0
131
0.0
112
0.0
122
1.0
132
0.0
 79
     0
146
0.0
  0
ENDTAB
  0
TABLE
  2
UCS
  5
21B5
330
0
100
AcDbSymbolTable
 70
     0
  0
ENDTAB
  0
TABLE
  2
APPID
  5
21B7
330
0
100
AcDbSymbolTable
 70
     8
  0
APPID
  5
21C0
330
21B7
100
AcDbSymbolTableRecord
100
AcDbRegAppTableRecord
  2
ACAD
 70
     0
  0
APPID
  5
21DF
330
21B7
100
AcDbSymbolTableRecord
100
AcDbRegAppTableRecord
  2
MCAD_NO_VIS
 70
     0
  0
APPID
  5
21E0
330
21B7
100
AcDbSymbolTableRecord
100
AcDbRegAppTableRecord
  2
ACAD_TEMP_GRAPHIC
 70
     0
  0
APPID
  5
21E1
330
21B7
100
AcDbSymbolTableRecord
100
AcDbRegAppTableRecord
  2
ACATTRIBSERVICES
 70
     0
  0
APPID
  5
21E2
330
21B7
100
AcDbSymbolTableRecord
100
AcDbRegAppTableRecord
  2
CONTENTBLOCKICON
 70
     0
  0
APPID
  5
2241
330
21B7
100
AcDbSymbolTableRecord
100
AcDbRegAppTableRecord
  2
ACAD_DSTYLE_DIMJAG
 70
     0
  0
APPID
  5
2242
330
21B7
100
AcDbSymbolTableRecord
100
AcDbRegAppTableRecord
  2
ACAD_DSTYLE_DIMTALN
 70
     0
  0
APPID
  5
2243
330
21B7
100
AcDbSymbolTableRecord
100
AcDbRegAppTableRecord
  2
ACAD_PSEXT
 70
     0
  0
ENDTAB
  0
TABLE
  2
DIMSTYLE
  5
21B8
330
0
100
AcDbSymbolTable
 70
     1
100
AcDbDimStyleTable
 71
     0
  0
DIMSTYLE
105
21E3
330
21B8
100
AcDbSymbolTableRecord
100
AcDbDimStyleTableRecord
  2
STANDARD
 70
     0
279
     2
340
21BF
  0
ENDTAB
  0
TABLE
  2
BLOCK_RECORD
  5
21AF
330
0
100
AcDbSymbolTable
 70
     0
  0
BLOCK_RECORD
  5
21CC
102
{ACAD_XDICTIONARY
360
21F8
102
}
330
21AF
100
AcDbSymbolTableRecord
100
AcDbBlockTableRecord
  2
*Model_Space
340
21CF
  0
BLOCK_RECORD
  5
21C8
102
{ACAD_XDICTIONARY
360
21FA
102
}
330
21AF
100
AcDbSymbolTableRecord
100
AcDbBlockTableRecord
  2
*Paper_Space
340
21CB
  0
ENDTAB
  0
ENDSEC
  0
SECTION
  2
BLOCKS
  0
BLOCK
  5
21CD
330
21CC
100
AcDbEntity
  8
0
100
AcDbBlockBegin
  2
*Model_Space
 70
     0
 10
0.0
 20
0.0
 30
0.0
  3
*Model_Space
  1

  0
ENDBLK
  5
21CE
330
21CC
100
AcDbEntity
  8
0
100
AcDbBlockEnd
  0
BLOCK
  5
21C9
330
21C8
100
AcDbEntity
 67
     1
  8
0
100
AcDbBlockBegin
  2
*Paper_Space
 70
     0
 10
0.0
 20
0.0
 30
0.0
  3
*Paper_Space
  1

  0
ENDBLK
  5
21CA
330
21C8
100
AcDbEntity
 67
     1
  8
0
100
AcDbBlockEnd
  0
ENDSEC
  0
SECTION
  2
ENTITIES
  0
TEXT
  5
F6E
330
21CC
100
AcDbEntity
  8
0
  6
Continuous
100
AcDbText
 10
0.0
 20
200.0
 30
0.0
 40
48.000002
  1
SGQ 6S
 41
1.32095
100
AcDbText
  0
POINT
  5
4AB6
330
21CC
100
AcDbEntity
  8
0
  6
CENTER
100
AcDbPoint
 10
220.0000032186544
 20
-379.380806331831
 30
0.0
  0
LINE
  5
4AB7
330
21CC
100
AcDbEntity
  8
0
  6
CENTER
100
AcDbLine
 10
-10.000000059601
 20
-379.380806331831
 30
0.0
 11
450.0000064969099
 21
-379.3808063318315
 31
0.0
  0
LINE
  5
4AB8
330
21CC
100
AcDbEntity
  8
0
  6
Continuous
100
AcDbLine
 10
137.000001981858
 20
-294.5307684463732
 30
0.0
 11
137.000001981858
 21
-294.7808294852557
 31
0.0
  0
LINE
  5
4AB9
330
21CC
100
AcDbEntity
  8
0
  6
Continuous
100
AcDbLine
 10
135.0000019520557
 20
-296.780829515058
 30
0.0
 11
21.49999994039899
 21
-296.780829515058
 31
0.0
  0
ARC
  5
4ABA
330
21CC
100
AcDbEntity
  8
0
  6
Continuous
100
AcDbCircle
 10
135.0000019520557
 20
-294.7808294852557
 30
0.0
 40
2.000000029802321
100
AcDbArc
 50
270.0000043257204
 51
0.000005008963459
  0
ARC
  5
4ABB
330
21CC
100
AcDbEntity
  8
0
  6
Continuous
100
AcDbCircle
 10
-80.76049930990121
 20
-379.380806331831
 30
0.0
 40
232.8999973669647
100
AcDbArc
 50
340.0147947715619
 51
19.98522230391507
  0
LINE
  5
4ABC
330
21CC
100
AcDbEntity
  8
0
  6
Continuous
100
AcDbLine
 10
130.250008272249
 20
-269.0312195432211
 30
0.0
 11
215.5000032186544
 21
-269.0312195432211
 31
0.0
  0
LINE
  5
4ABD
330
21CC
100
AcDbEntity
  8
0
  6
Continuous
100
AcDbLine
 10
130.2523071037876
 20
-294.5312195432211
 30
0.0
 11
215.5000032186544
 21
-294.5312195432211
 31
0.0
  0
LINE
  5
4ABE
330
21CC
100
AcDbEntity
  8
0
  6
Continuous
100
AcDbLine
 10
215.5000032186544
 20
-269.0312195432216
 30
0.0
 11
215.5000032186552
 21
-294.5312195432216
 31
0.0
  0
LINE
  5
4ABF
330
21CC
100
AcDbEntity
  8
0
  6
Continuous
100
AcDbLine
 10
200.5000032186545
 20
-271.9662647855307
 30
0.0
 11
200.5000032186544
 21
-291.5961743009115
 31
0.0
  0
LINE
  5
4AC0
330
21CC
100
AcDbEntity
  8
0
  6
Continuous
100
AcDbLine
 10
215.5000032186544
 20
-276.7812195432211
 30
0.0
 11
224.5000032186546
 21
-276.7812195432211
 31
0.0
  0
LINE
  5
4AC1
330
21CC
100
AcDbEntity
  8
0
  6
Continuous
100
AcDbLine
 10
215.5000032186544
 20
-286.7812195432211
 30
0.0
 11
224.5000032186546
 21
-286.7812195432211
 31
0.0
  0
LINE
  5
4AC2
330
21CC
100
AcDbEntity
  8
0
  6
Continuous
100
AcDbLine
 10
193.5000032186544
 20
-274.4200034749537
 30
0.0
 11
193.5000032186544
 21
-289.1424356114894
 31
0.0
  0
LINE
  5
4AC3
330
21CC
100
AcDbEntity
  8
0
  6
Continuous
100
AcDbLine
 10
194.4035295248067
 20
-271.9662647855307
 30
0.0
 11
200.5000032186545
 21
-271.9662647855307
 31
0.0
  0
LINE
  5
4AC4
330
21CC
100
AcDbEntity
  8
0
  6
Continuous
100
AcDbLine
 10
194.4035295248067
 20
-276.8737421643759
 30
0.0
 11
200.5000032186544
 21
-276.8737421643759
 31
0.0
  0
LINE
  5
4AC5
330
21CC
100
AcDbEntity
  8
0
  6
Continuous
100
AcDbLine
 10
194.4035295248067
 20
-286.6886969220663
 30
0.0
 11
200.5000032186544
 21
-286.6886969220663
 31
0.0
  0
LINE
  5
4AC6
330
21CC
100
AcDbEntity
  8
0
  6
Continuous
100
AcDbLine
 10
194.4035295248067
 20
-291.5961743009115
 30
0.0
 11
200.5000032186544
 21
-291.5961743009115
 31
0.0
  0
LINE
  5
4AC7
330
21CC
100
AcDbEntity
  8
0
  6
Continuous
100
AcDbLine
 10
121.2500032186544
 20
-272.306953490975
 30
0.0
 11
192.7149975255517
 21
-272.306953490975
 31
0.0
  0
LINE
  5
4AC8
330
21CC
100
AcDbEntity
  8
0
  6
Continuous
100
AcDbLine
 10
121.2500032186544
 20
-291.2554855954672
 30
0.0
 11
192.7149975255515
 21
-291.2554855954672
 31
0.0
  0
LINE
  5
4AC9
330
21CC
100
AcDbEntity
  8
0
  6
Continuous
100
AcDbLine
 10
200.5000032186544
 20
-273.7812195432211
 30
0.0
 11
215.5000032186544
 21
-273.7812195432211
 31
0.0
  0
LINE
  5
4ACA
330
21CC
100
AcDbEntity
  8
0
  6
Continuous
100
AcDbLine
 10
200.5000032186544
 20
-289.7812195432211
 30
0.0
 11
215.5000032186544
 21
-289.7812195432211
 31
0.0
  0
ARC
  5
4ACB
330
21CC
100
AcDbEntity
  8
0
  6
Continuous
100
AcDbCircle
 10
197.2836183309591
 20
-289.1424356114894
 30
0.0
 40
3.783614635467528
100
AcDbArc
 50
139.5701072360175
 51
220.4298891215059
  0
ARC
  5
4ACC
330
21CC
100
AcDbEntity
  8
0
  6
Continuous
100
AcDbCircle
 10
207.2791703939474
 20
-281.7812195432216
 30
0.0
 40
13.77916812896729
100
AcDbArc
 50
159.1359354343493
 51
200.8640609232041
  0
ARC
  5
4ACD
330
21CC
100
AcDbEntity
  8
0
  6
Continuous
100
AcDbCircle
 10
197.2836183309591
 20
-274.4200034749537
 30
0.0
 40
3.783614635467528
100
AcDbArc
 50
139.5701072360175
 51
220.4298891215059
  0
LINE
  5
4ACE
330
21CC
100
AcDbEntity
  8
0
  6
Continuous
100
AcDbLine
 10
130.2523071037876
 20
-294.5312195432216
 30
0.0
 11
121.2500032186544
 21
-291.2545996693925
 31
0.0
  0
LINE
  5
4ACF
330
21CC
100
AcDbEntity
  8
0
  6
Continuous
100
AcDbLine
 10
121.2500032186544
 20
-272.306953490975
 30
0.0
 11
130.250008272249
 21
-269.0312195432216
 31
0.0
  0
LINE
  5
4AD0
330
21CC
100
AcDbEntity
  8
0
  6
Continuous
100
AcDbLine
 10
121.2500032186544
 20
-272.306953490975
 30
0.0
 11
121.2500032186544
 21
-291.2554855954672
 31
0.0
  0
ARC
  5
4AD1
330
21CC
100
AcDbEntity
  8
0
  6
Continuous
100
AcDbCircle
 10
219.5000032782554
 20
0.0
 30
0.0
 40
87.24999999999999
100
AcDbArc
 50
92.62766166100938
 51
267.3723383389905
  0
ARC
  5
4AD2
330
21CC
100
AcDbEntity
  8
0
  6
Continuous
100
AcDbCircle
 10
220.5000032782554
 20
0.0
 30
0.0
 40
87.24999999999999
100
AcDbArc
 50
272.6276616610093
 51
87.37233833899061
  0
ARC
  5
4AD3
330
21CC
100
AcDbEntity
  8
0
  6
Continuous
100
AcDbCircle
 10
219.5000032782554
 20
0.0
 30
0.0
 40
98.25000000000001
100
AcDbArc
 50
92.33329751418997
 51
267.66670248581
  0
ARC
  5
4AD4
330
21CC
100
AcDbEntity
  8
0
  6
Continuous
100
AcDbCircle
 10
220.5000032782554
 20
0.0
 30
0.0
 40
98.25000000000001
100
AcDbArc
 50
272.33329751419
 51
87.66670248581002
  0
LINE
  5
4AD5
330
21CC
100
AcDbEntity
  8
0
  6
Continuous
100
AcDbLine
 10
247.5000036805868
 20
-117.5000017508864
 30
0.0
 11
239.5000035613775
 21
-117.5000017508864
 31
0.0
  0
LINE
  5
4AD6
330
21CC
100
AcDbEntity
  8
0
  6
Continuous
100
AcDbLine
 10
247.5000036805868
 20
-100.5000014975667
 30
0.0
 11
239.5000035613775
 21
-100.5000014975667
 31
0.0
  0
LINE
  5
4AD7
330
21CC
100
AcDbEntity
  8
0
  6
Continuous
100
AcDbLine
 10
246.5964773609707
 20
-109.0000016242265
 30
0.0
 11
240.4035298809935
 21
-109.0000016242265
 31
0.0
  0
LINE
  5
4AD8
330
21CC
100
AcDbEntity
  8
0
  6
Continuous
100
AcDbLine
 10
215.5000032186508
 20
-118.5000017657876
 30
0.0
 11
215.5000032186508
 21
-87.15826122361068
 31
0.0
  0
LINE
  5
4AD9
330
21CC
100
AcDbEntity
  8
0
  6
Continuous
100
AcDbLine
 10
224.5000033378601
 20
-118.5000017657876
 30
0.0
 11
224.5000033378601
 21
-87.15826122361068
 31
0.0
  0
LINE
  5
4ADA
330
21CC
100
AcDbEntity
  8
0
  6
Continuous
100
AcDbLine
 10
239.5000035613775
 20
-118.5000017657876
 30
0.0
 11
239.5000035613775
 21
-96.39534474880703
 31
0.0
  0
LINE
  5
4ADB
330
21CC
100
AcDbEntity
  8
0
  6
Continuous
100
AcDbLine
 10
200.5000029951334
 20
-118.5000017657876
 30
0.0
 11
200.5000029951334
 21
-96.39534474880703
 31
0.0
  0
ARC
  5
4ADC
330
21CC
100
AcDbEntity
  8
0
  6
Continuous
100
AcDbCircle
 10
249.9473208404679
 20
-104.7500015608966
 30
0.0
 40
10.4473163254159
100
AcDbArc
 50
155.9958379257028
 51
204.0041584318385
  0
ARC
  5
4ADD
330
21CC
100
AcDbEntity
  8
0
  6
Continuous
100
AcDbCircle
 10
203.9473192162413
 20
-104.7500015608966
 30
0.0
 40
10.4473163254159
100
AcDbArc
 50
155.9958379257028
 51
204.0041584318385
  0
LINE
  5
4ADE
330
21CC
100
AcDbEntity
  8
0
  6
Continuous
100
AcDbLine
 10
193.5000028908302
 20
-104.7500015608979
 30
0.0
 11
193.5000028908307
 21
-113.2500016875578
 31
0.0
  0
LINE
  5
4ADF
330
21CC
100
AcDbEntity
  8
0
  6
Continuous
100
AcDbLine
 10
194.4035292104472
 20
-117.5000017508878
 30
0.0
 11
200.5000029951393
 21
-117.5000017508873
 31
0.0
  0
LINE
  5
4AE0
330
21CC
100
AcDbEntity
  8
0
  6
Continuous
100
AcDbLine
 10
194.4035292104467
 20
-109.0000016242279
 30
0.0
 11
200.5000029951388
 21
-109.0000016242274
 31
0.0
  0
ARC
  5
4AE1
330
21CC
100
AcDbEntity
  8
0
  6
Continuous
100
AcDbCircle
 10
203.9473192162413
 20
-113.2500016875565
 30
0.0
 40
10.4473163254159
100
AcDbArc
 50
155.9958379257028
 51
204.0041584318385
  0
LINE
  5
4AE2
330
21CC
100
AcDbEntity
  8
0
  6
Continuous
100
AcDbLine
 10
200.5000029951334
 20
-118.5000017657876
 30
0.0
 11
215.5000032186508
 21
-118.5000017657876
 31
0.0
  0
ARC
  5
4AE3
330
21CC
100
AcDbEntity
  8
0
  6
Continuous
100
AcDbCircle
 10
249.9473208404679
 20
-113.2500016875565
 30
0.0
 40
10.4473163254159
100
AcDbArc
 50
155.9958379257028
 51
204.0041584318385
  0
LINE
  5
4AE4
330
21CC
100
AcDbEntity
  8
0
  6
Continuous
100
AcDbLine
 10
239.5000035613775
 20
-118.5000017657876
 30
0.0
 11
224.5000033378601
 21
-118.5000017657876
 31
0.0
  0
LINE
  5
4AE5
330
21CC
100
AcDbEntity
  8
0
  6
Continuous
100
AcDbLine
 10
194.4035292104463
 20
-100.500001497568
 30
0.0
 11
200.5000029951383
 21
-100.5000014975676
 31
0.0
  0
ARC
  5
4AE6
330
21CC
100
AcDbEntity
  8
0
  6
Continuous
100
AcDbCircle
 10
237.0526864014964
 20
-104.7500015608966
 30
0.0
 40
10.4473163254159
100
AcDbArc
 50
335.9958380393903
 51
24.00416537572236
  0
LINE
  5
4AE7
330
21CC
100
AcDbEntity
  8
0
  6
Continuous
100
AcDbLine
 10
247.5000036805868
 20
-117.5000017508864
 30
0.0
 11
247.5000036805868
 21
-100.5000014975667
 31
0.0
  0
LINE
  5
4AE8
330
21CC
100
AcDbEntity
  8
0
  6
Continuous
100
AcDbLine
 10
249.5000037103891
 20
-103.5000015422701
 30
0.0
 11
249.5000037103891
 21
-114.5000017061829
 31
0.0
  0
ARC
  5
4AE9
330
21CC
100
AcDbEntity
  8
0
  6
Continuous
100
AcDbCircle
 10
237.0526864014964
 20
-113.2500016875565
 30
0.0
 40
10.4473163254159
100
AcDbArc
 50
335.9958380393903
 51
24.00416537572236
  0
ARC
  5
4AEA
330
21CC
100
AcDbEntity
  8
0
  6
Continuous
100
AcDbCircle
 10
248.5000036954879
 20
-114.5000017061829
 30
0.0
 40
1.00000001490116
100
AcDbArc
 50
269.9999974955313
 51
0.0000086514148811
  0
LINE
  5
4AEB
330
21CC
100
AcDbEntity
  8
0
  6
Continuous
100
AcDbLine
 10
248.5000036954879
 20
-115.5000017210841
 30
0.0
 11
247.5000036805868
 21
-115.5000017210841
 31
0.0
  0
ARC
  5
4AEC
330
21CC
100
AcDbEntity
  8
0
  6
Continuous
100
AcDbCircle
 10
248.5000036954879
 20
-103.5000015422701
 30
0.0
 40
1.00000001490116
100
AcDbArc
 50
359.9999949910365
 51
89.99999567427954
  0
LINE
  5
4AED
330
21CC
100
AcDbEntity
  8
0
  6
Continuous
100
AcDbLine
 10
248.5000036954879
 20
-102.500001527369
 30
0.0
 11
247.5000036805868
 21
-102.500001527369
 31
0.0
  0
LINE
  5
4AEE
330
21CC
100
AcDbEntity
  8
0
  6
Continuous
100
AcDbLine
 10
247.5000036805868
 20
117.5000017508864
 30
0.0
 11
239.5000035613775
 21
117.5000017508864
 31
0.0
  0
LINE
  5
4AEF
330
21CC
100
AcDbEntity
  8
0
  6
Continuous
100
AcDbLine
 10
247.5000036805868
 20
100.5000014975667
 30
0.0
 11
239.5000035613775
 21
100.5000014975667
 31
0.0
  0
LINE
  5
4AF0
330
21CC
100
AcDbEntity
  8
0
  6
Continuous
100
AcDbLine
 10
246.5964773609707
 20
109.0000016242265
 30
0.0
 11
240.4035298809935
 21
109.0000016242265
 31
0.0
  0
LINE
  5
4AF1
330
21CC
100
AcDbEntity
  8
0
  6
Continuous
100
AcDbLine
 10
224.5000033378601
 20
118.5000017657876
 30
0.0
 11
224.5000033378601
 21
87.15826122361068
 31
0.0
  0
LINE
  5
4AF2
330
21CC
100
AcDbEntity
  8
0
  6
Continuous
100
AcDbLine
 10
200.5000029951334
 20
118.5000017657876
 30
0.0
 11
200.5000029951334
 21
96.39534474880703
 31
0.0
  0
LINE
  5
4AF3
330
21CC
100
AcDbEntity
  8
0
  6
Continuous
100
AcDbLine
 10
239.5000035613775
 20
118.5000017657876
 30
0.0
 11
239.5000035613775
 21
96.39534474880703
 31
0.0
  0
ARC
  5
4AF4
330
21CC
100
AcDbEntity
  8
0
  6
Continuous
100
AcDbCircle
 10
249.9473208404679
 20
104.7500015608966
 30
0.0
 40
10.4473163254159
100
AcDbArc
 50
155.9958379257028
 51
204.0041584318385
  0
ARC
  5
4AF5
330
21CC
100
AcDbEntity
  8
0
  6
Continuous
100
AcDbCircle
 10
203.9473192162413
 20
104.7500015608966
 30
0.0
 40
10.4473163254159
100
AcDbArc
 50
155.9958379257028
 51
204.0041584318385
  0
LINE
  5
4AF6
330
21CC
100
AcDbEntity
  8
0
  6
Continuous
100
AcDbLine
 10
194.4035292104413
 20
100.5000014975667
 30
0.0
 11
200.5000029951334
 21
100.5000014975667
 31
0.0
  0
LINE
  5
4AF7
330
21CC
100
AcDbEntity
  8
0
  6
Continuous
100
AcDbLine
 10
194.4035292104413
 20
117.5000017508864
 30
0.0
 11
200.5000029951334
 21
117.5000017508864
 31
0.0
  0
LINE
  5
4AF8
330
21CC
100
AcDbEntity
  8
0
  6
Continuous
100
AcDbLine
 10
194.4035292104413
 20
109.0000016242265
 30
0.0
 11
200.5000029951334
 21
109.0000016242265
 31
0.0
  0
ARC
  5
4AF9
330
21CC
100
AcDbEntity
  8
0
  6
Continuous
100
AcDbCircle
 10
203.9473192162413
 20
113.2500016875565
 30
0.0
 40
10.4473163254159
100
AcDbArc
 50
155.9958379257028
 51
204.0041584318385
  0
LINE
  5
4AFA
330
21CC
100
AcDbEntity
  8
0
  6
Continuous
100
AcDbLine
 10
193.5000028908252
 20
104.7500015608966
 30
0.0
 11
193.5000028908252
 21
113.2500016875565
 31
0.0
  0
LINE
  5
4AFB
330
21CC
100
AcDbEntity
  8
0
  6
Continuous
100
AcDbLine
 10
200.5000029951334
 20
118.5000017657876
 30
0.0
 11
215.5000032186508
 21
118.5000017657876
 31
0.0
  0
ARC
  5
4AFC
330
21CC
100
AcDbEntity
  8
0
  6
Continuous
100
AcDbCircle
 10
249.9473208404679
 20
113.2500016875565
 30
0.0
 40
10.4473163254159
100
AcDbArc
 50
155.9958379257028
 51
204.0041584318385
  0
LINE
  5
4AFD
330
21CC
100
AcDbEntity
  8
0
  6
Continuous
100
AcDbLine
 10
239.5000035613775
 20
118.5000017657876
 30
0.0
 11
224.5000033378601
 21
118.5000017657876
 31
0.0
  0
ARC
  5
4AFE
330
21CC
100
AcDbEntity
  8
0
  6
Continuous
100
AcDbCircle
 10
237.0526864014964
 20
104.7500015608966
 30
0.0
 40
10.4473163254159
100
AcDbArc
 50
335.9958346242776
 51
24.00416196060964
  0
LINE
  5
4AFF
330
21CC
100
AcDbEntity
  8
0
  6
Continuous
100
AcDbLine
 10
247.5000036805868
 20
117.5000017508864
 30
0.0
 11
247.5000036805868
 21
100.5000014975667
 31
0.0
  0
LINE
  5
4B00
330
21CC
100
AcDbEntity
  8
0
  6
Continuous
100
AcDbLine
 10
249.5000037103891
 20
103.5000015422701
 30
0.0
 11
249.5000037103891
 21
114.5000017061829
 31
0.0
  0
ARC
  5
4B01
330
21CC
100
AcDbEntity
  8
0
  6
Continuous
100
AcDbCircle
 10
248.5000036954879
 20
103.5000015422701
 30
0.0
 40
1.00000001490116
100
AcDbArc
 50
270.0000043257204
 51
0.0000050089374039
  0
LINE
  5
4B02
330
21CC
100
AcDbEntity
  8
0
  6
Continuous
100
AcDbLine
 10
248.5000036954879
 20
102.500001527369
 30
0.0
 11
247.5000036805868
 21
102.500001527369
 31
0.0
  0
ARC
  5
4B03
330
21CC
100
AcDbEntity
  8
0
  6
Continuous
100
AcDbCircle
 10
237.0526864014964
 20
113.2500016875565
 30
0.0
 40
10.4473163254159
100
AcDbArc
 50
335.9958346242776
 51
24.00416196060964
  0
ARC
  5
4B04
330
21CC
100
AcDbEntity
  8
0
  6
Continuous
100
AcDbCircle
 10
248.5000036954879
 20
114.5000017061829
 30
0.0
 40
1.00000001490116
100
AcDbArc
 50
359.9999913485851
 51
90.00000250446868
  0
LINE
  5
4B05
330
21CC
100
AcDbEntity
  8
0
  6
Continuous
100
AcDbLine
 10
248.5000036954879
 20
115.5000017210841
 30
0.0
 11
247.5000036805868
 21
115.5000017210841
 31
0.0
  0
LINE
  5
4B06
330
21CC
100
AcDbEntity
  8
0
  6
Continuous
100
AcDbLine
 10
215.5000032186508
 20
118.5000017657876
 30
0.0
 11
215.5000032186517
 21
87.15826122361068
 31
0.0
  0
LINE
  5
4B07
330
21CC
100
AcDbEntity
  8
0
  6
Continuous
100
AcDbLine
 10
215.5000032186508
 20
114.0000016987323
 30
0.0
 11
224.5000033378601
 21
114.0000016987323
 31
0.0
  0
LINE
  5
4B08
330
21CC
100
AcDbEntity
  8
0
  6
Continuous
100
AcDbLine
 10
215.5000032186512
 20
104.0000015497207
 30
0.0
 11
224.5000033378601
 21
104.0000015497207
 31
0.0
  0
LINE
  5
4B09
330
21CC
100
AcDbEntity
  8
0
  6
Continuous
100
AcDbLine
 10
215.5000032186508
 20
-104.0000015497189
 30
0.0
 11
224.5000033378601
 21
-104.0000015497189
 31
0.0
  0
LINE
  5
4B0A
330
21CC
100
AcDbEntity
  8
0
  6
Continuous
100
AcDbLine
 10
215.5000032186508
 20
-114.0000016987323
 30
0.0
 11
224.5000033378601
 21
-114.0000016987323
 31
0.0
  0
LINE
  5
4B0C
330
21CC
100
AcDbEntity
  8
0
  6
CENTER
100
AcDbLine
 10
220.0000032186544
 20
128.6951169215949
 30
0.0
 11
220.0000032186544
 21
-128.6950594180098
 31
0.0
  0
LINE
  5
4B0D
330
21CC
100
AcDbEntity
  8
0
  6
CENTER
100
AcDbLine
 10
-10.500000059601
 20
-0.0000017657876015
 30
0.0
 11
450.5000064969099
 21
-0.0000017657876015
 31
0.0
  0
LINE
  5
4B0E
330
21CC
100
AcDbEntity
  8
0
  6
Continuous
100
AcDbLine
 10
133.9178753395749
 20
-82.60003961771781
 30
0.0
 11
21.49999999999999
 21
-82.60003961771781
 31
0.0
  0
LINE
  5
4B0F
330
21CC
100
AcDbEntity
  8
0
  6
Continuous
100
AcDbLine
 10
133.9177553710919
 20
82.59997505098544
 30
0.0
 11
21.49999999999999
 21
82.59997505098544
 31
0.0
  0
ARC
  5
4B10
330
21CC
100
AcDbEntity
  8
0
  6
Continuous
100
AcDbCircle
 10
-80.76049930990121
 20
-0.0000017657876015
 30
0.0
 40
232.8999973669647
100
AcDbArc
 50
340.0147947715619
 51
344.0970800510889
  0
ARC
  5
4B11
330
21CC
100
AcDbEntity
  8
0
  6
Continuous
100
AcDbCircle
 10
520.76050574721
 20
-0.0000017657876015
 30
0.0
 40
232.8999973669647
100
AcDbArc
 50
160.0147776960849
 51
164.097079350004
  0
LINE
  5
4B12
330
21CC
100
AcDbEntity
  8
0
  6
Continuous
100
AcDbLine
 10
306.0822510662169
 20
82.59997505098544
 30
0.0
 11
418.5000064373089
 21
82.59997505098544
 31
0.0
  0
LINE
  5
4B13
330
21CC
100
AcDbEntity
  8
0
  6
Continuous
100
AcDbLine
 10
306.0821310977339
 20
-82.60003961771781
 30
0.0
 11
418.5000064373089
 21
-82.60003961771827
 31
0.0
  0
LINE
  5
4B14
330
21CC
100
AcDbEntity
  8
0
  6
Continuous
100
AcDbLine
 10
121.2500032186544
 20
-467.5061270681953
 30
0.0
 11
192.7149975255515
 21
-467.5061270681953
 31
0.0
  0
LINE
  5
4B15
330
21CC
100
AcDbEntity
  8
0
  6
Continuous
100
AcDbLine
 10
121.2500032186544
 20
-486.4546591726876
 30
0.0
 11
192.7149975255517
 21
-486.4546591726876
 31
0.0
  0
LINE
  5
4B16
330
21CC
100
AcDbEntity
  8
0
  6
Continuous
100
AcDbLine
 10
130.2523071037876
 20
-464.2303931204414
 30
0.0
 11
215.5000032186544
 21
-464.2303931204414
 31
0.0
  0
LINE
  5
4B17
330
21CC
100
AcDbEntity
  8
0
  6
Continuous
100
AcDbLine
 10
130.250008272249
 20
-489.7303931204414
 30
0.0
 11
215.5000032186544
 21
-489.7303931204414
 31
0.0
  0
ARC
  5
4B18
330
21CC
100
AcDbEntity
  8
0
  6
Continuous
100
AcDbCircle
 10
207.2791703939474
 20
-476.980393120441
 30
0.0
 40
13.77916812896729
100
AcDbArc
 50
159.1359390767958
 51
200.8640645656506
  0
LINE
  5
4B19
330
21CC
100
AcDbEntity
  8
0
  6
Continuous
100
AcDbLine
 10
193.5000032186544
 20
-484.3416091887088
 30
0.0
 11
193.5000032186544
 21
-469.6191770521732
 31
0.0
  0
LINE
  5
4B1A
330
21CC
100
AcDbEntity
  8
0
  6
Continuous
100
AcDbLine
 10
200.5000032186544
 20
-486.7953478781319
 30
0.0
 11
200.5000032186544
 21
-467.165438362751
 31
0.0
  0
LINE
  5
4B1B
330
21CC
100
AcDbEntity
  8
0
  6
Continuous
100
AcDbLine
 10
200.5000032186544
 20
-468.9803931204415
 30
0.0
 11
215.5000032186544
 21
-468.9803931204415
 31
0.0
  0
ARC
  5
4B1C
330
21CC
100
AcDbEntity
  8
0
  6
Continuous
100
AcDbCircle
 10
197.2836183309591
 20
-469.6191770521732
 30
0.0
 40
3.783614635467528
100
AcDbArc
 50
139.570110878494
 51
220.4298927639825
  0
LINE
  5
4B1D
330
21CC
100
AcDbEntity
  8
0
  6
Continuous
100
AcDbLine
 10
194.4035295248067
 20
-467.165438362751
 30
0.0
 11
200.5000032186544
 21
-467.165438362751
 31
0.0
  0
LINE
  5
4B1E
330
21CC
100
AcDbEntity
  8
0
  6
Continuous
100
AcDbLine
 10
194.4035295248067
 20
-472.0729157415962
 30
0.0
 11
200.5000032186544
 21
-472.0729157415962
 31
0.0
  0
ARC
  5
4B1F
330
21CC
100
AcDbEntity
  8
0
  6
Continuous
100
AcDbCircle
 10
197.2836183309591
 20
-484.3416091887088
 30
0.0
 40
3.783614635467528
100
AcDbArc
 50
139.570110878494
 51
220.4298927639825
  0
LINE
  5
4B20
330
21CC
100
AcDbEntity
  8
0
  6
Continuous
100
AcDbLine
 10
200.5000032186544
 20
-484.9803931204414
 30
0.0
 11
215.5000032186544
 21
-484.9803931204414
 31
0.0
  0
LINE
  5
4B21
330
21CC
100
AcDbEntity
  8
0
  6
Continuous
100
AcDbLine
 10
194.4035295248067
 20
-481.8878704992867
 30
0.0
 11
200.5000032186544
 21
-481.8878704992867
 31
0.0
  0
LINE
  5
4B22
330
21CC
100
AcDbEntity
  8
0
  6
Continuous
100
AcDbLine
 10
194.4035295248067
 20
-486.7953478781319
 30
0.0
 11
200.5000032186544
 21
-486.7953478781319
 31
0.0
  0
LINE
  5
4B23
330
21CC
100
AcDbEntity
  8
0
  6
Continuous
100
AcDbLine
 10
215.5000032186544
 20
-471.9803931204414
 30
0.0
 11
224.5000032186546
 21
-471.9803931204414
 31
0.0
  0
LINE
  5
4B24
330
21CC
100
AcDbEntity
  8
0
  6
Continuous
100
AcDbLine
 10
215.5000032186544
 20
-481.9803931204415
 30
0.0
 11
224.5000032186546
 21
-481.9803931204415
 31
0.0
  0
LINE
  5
4B25
330
21CC
100
AcDbEntity
  8
0
  6
Continuous
100
AcDbLine
 10
135.0000019520557
 20
-461.9807831486046
 30
0.0
 11
21.49999994039899
 21
-461.9807831486046
 31
0.0
  0
LINE
  5
4B26
330
21CC
100
AcDbEntity
  8
0
  6
Continuous
100
AcDbLine
 10
121.2500032186544
 20
-486.4546591726876
 30
0.0
 11
121.2500032186544
 21
-467.5061270681953
 31
0.0
  0
LINE
  5
4B27
330
21CC
100
AcDbEntity
  8
0
  6
Continuous
100
AcDbLine
 10
130.2523071037876
 20
-464.2303931204414
 30
0.0
 11
121.2500032186544
 21
-467.5070129942705
 31
0.0
  0
ARC
  5
4B28
330
21CC
100
AcDbEntity
  8
0
  6
Continuous
100
AcDbCircle
 10
135.0000019520557
 20
-463.9807831784069
 30
0.0
 40
2.000000029802321
100
AcDbArc
 50
359.9999949910365
 51
89.99999567427954
  0
LINE
  5
4B29
330
21CC
100
AcDbEntity
  8
0
  6
Continuous
100
AcDbLine
 10
137.000001981858
 20
-464.2308442172893
 30
0.0
 11
137.000001981858
 21
-463.9807831784069
 31
0.0
  0
LINE
  5
4B2A
330
21CC
100
AcDbEntity
  8
0
  6
Continuous
100
AcDbLine
 10
121.2500032186544
 20
-486.4546591726876
 30
0.0
 11
130.250008272249
 21
-489.7303931204414
 31
0.0
  0
CIRCLE
  5
4B2B
330
21CC
100
AcDbEntity
  8
0
  6
Continuous
100
AcDbCircle
 10
220.0000032186544
 20
-0.0000017657876015
 30
0.0
 40
45.99998000000505
  0
CIRCLE
  5
4B2C
330
21CC
100
AcDbEntity
  8
0
  6
Continuous
100
AcDbCircle
 10
220.0000032186544
 20
-0.0000017657876015
 30
0.0
 40
48.0000000000141
  0
CIRCLE
  5
4B2D
330
21CC
100
AcDbEntity
  8
0
  6
Continuous
100
AcDbCircle
 10
220.0000032186544
 20
-0.0000017657876015
 30
0.0
 40
80.6848400000049
  0
ARC
  5
4B2E
330
21CC
100
AcDbEntity
  8
0
  6
Continuous
100
AcDbCircle
 10
220.0000032186544
 20
-0.0000017657876015
 30
0.0
 40
89.750000000005
100
AcDbArc
 50
272.8739739939259
 51
87.12602600607409
  0
LINE
  5
4B2F
330
21CC
100
AcDbEntity
  8
0
  6
Continuous
100
AcDbLine
 10
215.5000032186508
 20
-105.0000015497189
 30
0.0
 11
224.5000033378601
 21
-105.0000015497189
 31
0.0
  0
LINE
  5
4B30
330
21CC
100
AcDbEntity
  8
0
  6
Continuous
100
AcDbLine
 10
215.5000032186508
 20
-113.0000016987323
 30
0.0
 11
224.5000033378601
 21
-113.0000016987323
 31
0.0
  0
LINE
  5
4B31
330
21CC
100
AcDbEntity
  8
0
  6
Continuous
100
AcDbLine
 10
215.5000032186508
 20
113.0000016987323
 30
0.0
 11
224.5000033378601
 21
113.0000016987323
 31
0.0
  0
LINE
  5
4B32
330
21CC
100
AcDbEntity
  8
0
  6
Continuous
100
AcDbLine
 10
215.5000032186512
 20
105.0000015497207
 30
0.0
 11
224.5000033378601
 21
105.0000015497207
 31
0.0
  0
ARC
  5
4B33
330
21CC
100
AcDbEntity
  8
0
  6
Continuous
100
AcDbCircle
 10
-80.76049930990121
 20
-0.0000017657876015
 30
0.0
 40
232.8999973669647
100
AcDbArc
 50
15.90292062279595
 51
19.98522230391507
  0
ARC
  5
4B34
330
21CC
100
AcDbEntity
  8
0
  6
Continuous
100
AcDbCircle
 10
520.76050574721
 20
-0.0000017657876015
 30
0.0
 40
232.8999973669647
100
AcDbArc
 50
195.9029199760841
 51
199.9852052284379
  0
ARC
  5
4B35
330
21CC
100
AcDbEntity
  8
0
  6
Continuous
100
AcDbCircle
 10
220.0000032186535
 20
0.0000287517927973
 30
0.0
 40
118.6950881698024
100
AcDbArc
 50
44.50242327252639
 51
75.01309688989927
  0
ARC
  5
4B36
330
21CC
100
AcDbEntity
  8
0
  6
Continuous
100
AcDbCircle
 10
133.9177553710919
 20
84.59997505098545
 30
0.0
 40
2.0
100
AcDbArc
 50
270.0
 51
315.4975767274736
  0
ARC
  5
4B37
330
21CC
100
AcDbEntity
  8
0
  6
Continuous
100
AcDbCircle
 10
133.9178753395749
 20
-84.6000396177178
 30
0.0
 40
2.0
100
AcDbArc
 50
44.50250452177128
 51
90.0
  0
ARC
  5
4B38
330
21CC
100
AcDbEntity
  8
0
  6
Continuous
100
AcDbCircle
 10
306.0821310977339
 20
-84.6000396177178
 30
0.0
 40
2.0
100
AcDbArc
 50
90.0
 51
135.4974954782333
  0
ARC
  5
4B39
330
21CC
100
AcDbEntity
  8
0
  6
Continuous
100
AcDbCircle
 10
306.0822510662169
 20
84.59997505098545
 30
0.0
 40
2.0
100
AcDbArc
 50
224.5024232725264
 51
270.0
  0
ARC
  5
4B3A
330
21CC
100
AcDbEntity
  8
0
  6
Continuous
100
AcDbCircle
 10
220.0000032186535
 20
0.0000287517927973
 30
0.0
 40
118.6950881698024
100
AcDbArc
 50
224.5025045217713
 51
256.6102167098565
  0
ARC
  5
4B3B
330
21CC
100
AcDbEntity
  8
0
  6
Continuous
100
AcDbCircle
 10
220.0000032186535
 20
0.0000287517927973
 30
0.0
 40
118.6950881698024
100
AcDbArc
 50
268.4068385463403
 51
271.5931615112246
  0
ARC
  5
4B3C
330
21CC
100
AcDbEntity
  8
0
  6
Continuous
100
AcDbCircle
 10
220.0000032186535
 20
0.0000287517927973
 30
0.0
 40
118.6950881698024
100
AcDbArc
 50
284.9869052152831
 51
315.4974954782287
  0
ARC
  5
4B3D
330
21CC
100
AcDbEntity
  8
0
  6
Continuous
100
AcDbCircle
 10
220.0000032186535
 20
0.0000287517927973
 30
0.0
 40
118.6950881698024
100
AcDbArc
 50
103.3897774855258
 51
135.4975767274735
  0
ARC
  5
4B3E
330
21CC
100
AcDbEntity
  8
0
  6
Continuous
100
AcDbCircle
 10
220.0000032186535
 20
0.0000287517927973
 30
0.0
 40
118.6950881698024
100
AcDbArc
 50
88.40683848877535
 51
91.59316145365965
  0
LINE
  5
4B40
330
21CC
100
AcDbEntity
  8
0
  6
Continuous
100
AcDbLine
 10
215.5000032186552
 20
-489.7303931204414
 30
0.0
 11
215.5000032186544
 21
-464.2303931204414
 31
0.0
  0
ARC
  5
4B41
330
21CC
100
AcDbEntity
  8
0
  6
Continuous
100
AcDbCircle
 10
220.0000032186544
 20
-0.0000017657876015
 30
0.0
 40
89.750000000005
100
AcDbArc
 50
92.87397391773628
 51
267.1260260822637
  0
ARC
  5
4B42
330
21CC
100
AcDbEntity
  8
0
  6
Continuous
100
AcDbCircle
 10
220.0000032186544
 20
-0.0000017657876015
 30
0.0
 40
91.40000400000008
100
AcDbArc
 50
267.8054238325675
 51
272.1945762422131
  0
ARC
  5
4B43
330
21CC
100
AcDbEntity
  8
0
  6
Continuous
100
AcDbCircle
 10
220.0000032186544
 20
-0.0000017657876015
 30
0.0
 40
91.40000400000008
100
AcDbArc
 50
87.80542375778681
 51
92.19457616743245
  0
LINE
  5
4B44
330
21CC
100
AcDbEntity
  8
0
  6
Continuous
100
AcDbLine
 10
-0.0000000596010068
 20
-288.7308063318314
 30
0.0
 11
-0.0000000596010068
 21
-470.0308063318316
 31
0.0
  0
LINE
  5
4B45
330
21CC
100
AcDbEntity
  8
0
  6
Continuous
100
AcDbLine
 10
4.999999940398993
 20
-267.880806331831
 30
0.0
 11
4.999999940398993
 21
-490.8808063318315
 31
0.0
  0
LINE
  5
4B46
330
21CC
100
AcDbEntity
  8
0
  6
Continuous
100
AcDbLine
 10
18.49999994039899
 20
-267.880806331831
 30
0.0
 11
18.49999994039899
 21
-490.8808063318315
 31
0.0
  0
LINE
  5
4B47
330
21CC
100
AcDbEntity
  8
0
  6
Continuous
100
AcDbLine
 10
17.49999994039899
 20
-266.880806331831
 30
0.0
 11
12.82703290182598
 21
-266.880806331831
 31
0.0
  0
LINE
  5
4B48
330
21CC
100
AcDbEntity
  8
0
  6
Continuous
100
AcDbLine
 10
17.49999994039899
 20
-491.8808063318315
 30
0.0
 11
12.82703290182598
 21
-491.8808063318315
 31
0.0
  0
LINE
  5
4B49
330
21CC
100
AcDbEntity
  8
0
  6
Continuous
100
AcDbLine
 10
4.999999940398993
 20
-267.880806331831
 30
0.0
 11
5.999999940398993
 21
-266.880806331831
 31
0.0
  0
LINE
  5
4B4A
330
21CC
100
AcDbEntity
  8
0
  6
Continuous
100
AcDbLine
 10
17.49999994039899
 20
-266.880806331831
 30
0.0
 11
18.49999994039899
 21
-267.880806331831
 31
0.0
  0
LINE
  5
4B4B
330
21CC
100
AcDbEntity
  8
0
  6
Continuous
100
AcDbLine
 10
18.49999994039899
 20
-490.8808063318315
 30
0.0
 11
17.49999994039899
 21
-491.8808063318315
 31
0.0
  0
LINE
  5
4B4C
330
21CC
100
AcDbEntity
  8
0
  6
Continuous
100
AcDbLine
 10
5.999999940398993
 20
-491.8808063318315
 30
0.0
 11
4.999999940398993
 21
-490.8808063318315
 31
0.0
  0
LINE
  5
4B4D
330
21CC
100
AcDbEntity
  8
0
  6
Continuous
100
AcDbLine
 10
5.999999940398993
 20
-266.880806331831
 30
0.0
 11
5.999999940398993
 21
-491.8808063318315
 31
0.0
  0
LINE
  5
4B4E
330
21CC
100
AcDbEntity
  8
0
  6
Continuous
100
AcDbLine
 10
17.49999994039899
 20
-266.880806331831
 30
0.0
 11
17.49999994039899
 21
-491.880806331831
 31
0.0
  0
ARC
  5
4B4F
330
21CC
100
AcDbEntity
  8
0
  6
Continuous
100
AcDbCircle
 10
11.74999994039899
 20
-494.6808063318313
 30
0.0
 40
3.0
100
AcDbArc
 50
68.96053021868642
 51
111.0394697813135
  0
LINE
  5
4B50
330
21CC
100
AcDbEntity
  8
0
  6
Continuous
100
AcDbLine
 10
10.672966978972
 20
-491.8808063318315
 30
0.0
 11
5.999999940398993
 21
-491.8808063318315
 31
0.0
  0
LINE
  5
4B51
330
21CC
100
AcDbEntity
  8
0
  6
Continuous
100
AcDbLine
 10
10.67296697897188
 20
-491.8808063318315
 30
0.0
 11
10.67296697897188
 21
-266.880806331831
 31
0.0
  0
LINE
  5
4B52
330
21CC
100
AcDbEntity
  8
0
  6
Continuous
100
AcDbLine
 10
12.82703290182598
 20
-491.8808063318315
 30
0.0
 11
12.82703290182598
 21
-266.880806331831
 31
0.0
  0
ARC
  5
4B53
330
21CC
100
AcDbEntity
  8
0
  6
Continuous
100
AcDbCircle
 10
11.74999994039899
 20
-264.0808063318313
 30
0.0
 40
3.0
100
AcDbArc
 50
248.9605302186864
 51
291.0394697813136
  0
LINE
  5
4B54
330
21CC
100
AcDbEntity
  8
0
  6
Continuous
100
AcDbLine
 10
10.67296697897188
 20
-266.880806331831
 30
0.0
 11
5.999999940398993
 21
-266.880806331831
 31
0.0
  0
LINE
  5
4B55
330
21CC
100
AcDbEntity
  8
0
  6
Continuous
100
AcDbLine
 10
26.49999994039899
 20
-277.880806331831
 30
0.0
 11
-3.000000059601006
 21
-277.880806331831
 31
0.0
  0
LINE
  5
4B56
330
21CC
100
AcDbEntity
  8
0
  6
Continuous
100
AcDbLine
 10
26.49999994039899
 20
-480.8808063318315
 30
0.0
 11
-3.000000059601006
 21
-480.8808063318315
 31
0.0
  0
LINE
  5
4B57
330
21CC
100
AcDbEntity
  8
0
  6
Continuous
100
AcDbLine
 10
3.999999940398993
 20
-287.7308063318314
 30
0.0
 11
0.9999999403989932
 21
-287.7308063318314
 31
0.0
  0
LINE
  5
4B58
330
21CC
100
AcDbEntity
  8
0
  6
Continuous
100
AcDbLine
 10
3.999999940398993
 20
-471.0308063318316
 30
0.0
 11
0.9999999403989932
 21
-471.0308063318316
 31
0.0
  0
ARC
  5
4B59
330
21CC
100
AcDbEntity
  8
0
  6
Continuous
100
AcDbCircle
 10
0.9999999403989932
 20
-470.0308063318316
 30
0.0
 40
1.0
100
AcDbArc
 50
180.0
 51
270.0
  0
ARC
  5
4B5A
330
21CC
100
AcDbEntity
  8
0
  6
Continuous
100
AcDbCircle
 10
0.9999999403989932
 20
-288.7308063318314
 30
0.0
 40
1.0
100
AcDbArc
 50
90.0
 51
180.0
  0
LINE
  5
4B5B
330
21CC
100
AcDbEntity
  8
0
  6
Continuous
100
AcDbLine
 10
4.999999940398993
 20
-286.7308063318314
 30
0.0
 11
3.999999940398993
 21
-287.7308063318314
 31
0.0
  0
LINE
  5
4B5C
330
21CC
100
AcDbEntity
  8
0
  6
Continuous
100
AcDbLine
 10
3.999999940398993
 20
-287.7308063318314
 30
0.0
 11
3.999999940398993
 21
-471.0308063318316
 31
0.0
  0
LINE
  5
4B5D
330
21CC
100
AcDbEntity
  8
0
  6
Continuous
100
AcDbLine
 10
3.999999940398993
 20
-471.0308063318316
 30
0.0
 11
4.999999940398993
 21
-472.0308063318311
 31
0.0
  0
ARC
  5
4B5E
330
21CC
100
AcDbEntity
  8
0
  6
Continuous
100
AcDbCircle
 10
21.49999994039899
 20
-293.7808295150584
 30
0.0
 40
3.0
100
AcDbArc
 50
180.0
 51
270.0
  0
ARC
  5
4B5F
330
21CC
100
AcDbEntity
  8
0
  6
Continuous
100
AcDbCircle
 10
21.49999994039899
 20
-464.9807831486041
 30
0.0
 40
3.0
100
AcDbArc
 50
90.0
 51
180.0
  0
LINE
  5
4B60
330
21CC
100
AcDbEntity
  8
0
  6
Continuous
100
AcDbLine
 10
0.0
 20
90.6500000000001
 30
0.0
 11
0.0
 21
-90.6500000000001
 31
0.0
  0
LINE
  5
4B61
330
21CC
100
AcDbEntity
  8
0
  6
Continuous
100
AcDbLine
 10
5.0
 20
111.4999999999999
 30
0.0
 11
5.0
 21
-111.4999999999999
 31
0.0
  0
LINE
  5
4B62
330
21CC
100
AcDbEntity
  8
0
  6
Continuous
100
AcDbLine
 10
18.5
 20
111.4999999999999
 30
0.0
 11
18.5
 21
-111.4999999999999
 31
0.0
  0
LINE
  5
4B63
330
21CC
100
AcDbEntity
  8
0
  6
Continuous
100
AcDbLine
 10
6.0
 20
112.5
 30
0.0
 11
6.0
 21
-112.5000000000004
 31
0.0
  0
LINE
  5
4B64
330
21CC
100
AcDbEntity
  8
0
  6
Continuous
100
AcDbLine
 10
17.5
 20
112.5
 30
0.0
 11
17.5
 21
-112.5
 31
0.0
  0
LINE
  5
4B65
330
21CC
100
AcDbEntity
  8
0
  6
Continuous
100
AcDbLine
 10
10.67296703857289
 20
-112.5000000000004
 30
0.0
 11
10.67296703857289
 21
112.5
 31
0.0
  0
LINE
  5
4B66
330
21CC
100
AcDbEntity
  8
0
  6
Continuous
100
AcDbLine
 10
12.82703296142699
 20
-112.5000000000004
 30
0.0
 11
12.82703296142699
 21
112.5
 31
0.0
  0
LINE
  5
4B67
330
21CC
100
AcDbEntity
  8
0
  6
Continuous
100
AcDbLine
 10
4.0
 20
91.65000000000009
 30
0.0
 11
4.0
 21
-91.65000000000009
 31
0.0
  0
LINE
  5
4B68
330
21CC
100
AcDbEntity
  8
0
  6
Continuous
100
AcDbLine
 10
17.5
 20
-112.5
 30
0.0
 11
12.82703296142699
 21
-112.5000000000004
 31
0.0
  0
LINE
  5
4B69
330
21CC
100
AcDbEntity
  8
0
  6
Continuous
100
AcDbLine
 10
18.5
 20
-111.4999999999999
 30
0.0
 11
17.5
 21
-112.5
 31
0.0
  0
LINE
  5
4B6A
330
21CC
100
AcDbEntity
  8
0
  6
Continuous
100
AcDbLine
 10
6.0
 20
-112.5
 30
0.0
 11
5.0
 21
-111.4999999999999
 31
0.0
  0
ARC
  5
4B6B
330
21CC
100
AcDbEntity
  8
0
  6
Continuous
100
AcDbCircle
 10
11.75
 20
-115.3000000000001
 30
0.0
 40
3.0
100
AcDbArc
 50
68.96053021868642
 51
111.0394697813135
  0
LINE
  5
4B6C
330
21CC
100
AcDbEntity
  8
0
  6
Continuous
100
AcDbLine
 10
10.672967038573
 20
-112.5000000000004
 30
0.0
 11
6.0
 21
-112.5
 31
0.0
  0
LINE
  5
4B6D
330
21CC
100
AcDbEntity
  8
0
  6
Continuous
100
AcDbLine
 10
4.0
 20
-91.65000000000009
 30
0.0
 11
1.0
 21
-91.65000000000009
 31
0.0
  0
LINE
  5
4B6E
330
21CC
100
AcDbEntity
  8
0
  6
Continuous
100
AcDbLine
 10
26.5
 20
-101.5000000000004
 30
0.0
 11
-3.0
 21
-101.5
 31
0.0
  0
ARC
  5
4B6F
330
21CC
100
AcDbEntity
  8
0
  6
Continuous
100
AcDbCircle
 10
1.0
 20
-90.6500000000001
 30
0.0
 40
1.0
100
AcDbArc
 50
180.0
 51
270.0
  0
LINE
  5
4B70
330
21CC
100
AcDbEntity
  8
0
  6
Continuous
100
AcDbLine
 10
4.0
 20
-91.65000000000009
 30
0.0
 11
5.0
 21
-92.65000000000009
 31
0.0
  0
LINE
  5
4B71
330
21CC
100
AcDbEntity
  8
0
  6
Continuous
100
AcDbLine
 10
4.0
 20
91.65000000000009
 30
0.0
 11
1.0
 21
91.65000000000009
 31
0.0
  0
LINE
  5
4B72
330
21CC
100
AcDbEntity
  8
0
  6
Continuous
100
AcDbLine
 10
26.5
 20
101.5
 30
0.0
 11
-3.0
 21
101.5
 31
0.0
  0
ARC
  5
4B73
330
21CC
100
AcDbEntity
  8
0
  6
Continuous
100
AcDbCircle
 10
1.0
 20
90.6500000000001
 30
0.0
 40
1.0
100
AcDbArc
 50
90.0
 51
180.0
  0
LINE
  5
4B74
330
21CC
100
AcDbEntity
  8
0
  6
Continuous
100
AcDbLine
 10
5.0
 20
92.65000000000009
 30
0.0
 11
4.0
 21
91.65000000000009
 31
0.0
  0
LINE
  5
4B75
330
21CC
100
AcDbEntity
  8
0
  6
Continuous
100
AcDbLine
 10
17.5
 20
112.5
 30
0.0
 11
12.82703296142699
 21
112.5
 31
0.0
  0
LINE
  5
4B76
330
21CC
100
AcDbEntity
  8
0
  6
Continuous
100
AcDbLine
 10
5.0
 20
111.4999999999999
 30
0.0
 11
6.0
 21
112.5
 31
0.0
  0
LINE
  5
4B77
330
21CC
100
AcDbEntity
  8
0
  6
Continuous
100
AcDbLine
 10
17.5
 20
112.5
 30
0.0
 11
18.5
 21
111.4999999999999
 31
0.0
  0
ARC
  5
4B78
330
21CC
100
AcDbEntity
  8
0
  6
Continuous
100
AcDbCircle
 10
11.75
 20
115.2999999999997
 30
0.0
 40
3.0
100
AcDbArc
 50
248.9605302186864
 51
291.0394697813136
  0
LINE
  5
4B79
330
21CC
100
AcDbEntity
  8
0
  6
Continuous
100
AcDbLine
 10
10.67296703857289
 20
112.5
 30
0.0
 11
6.0
 21
112.5
 31
0.0
  0
ARC
  5
4B7A
330
21CC
100
AcDbEntity
  8
0
  6
Continuous
100
AcDbCircle
 10
21.49999999999999
 20
85.59997505098499
 30
0.0
 40
3.0
100
AcDbArc
 50
180.0
 51
270.0
  0
ARC
  5
4B7B
330
21CC
100
AcDbEntity
  8
0
  6
Continuous
100
AcDbCircle
 10
21.49999999999999
 20
-85.60003961771782
 30
0.0
 40
3.0
100
AcDbArc
 50
90.0
 51
180.0
  0
LINE
  5
4B7C
330
21CC
100
AcDbEntity
  8
0
  6
Continuous
100
AcDbLine
 10
436.0000064373089
 20
91.65000000000009
 30
0.0
 11
436.0000064373089
 21
-91.65000000000009
 31
0.0
  0
LINE
  5
4B7D
330
21CC
100
AcDbEntity
  8
0
  6
Continuous
100
AcDbLine
 10
427.1729734758819
 20
-112.5000000000004
 30
0.0
 11
427.1729734758819
 21
112.5
 31
0.0
  0
LINE
  5
4B7E
330
21CC
100
AcDbEntity
  8
0
  6
Continuous
100
AcDbLine
 10
429.3270393987361
 20
-112.5000000000004
 30
0.0
 11
429.3270393987361
 21
112.5
 31
0.0
  0
LINE
  5
4B7F
330
21CC
100
AcDbEntity
  8
0
  6
Continuous
100
AcDbLine
 10
422.5000064373089
 20
112.5
 30
0.0
 11
422.5000064373089
 21
-112.5
 31
0.0
  0
LINE
  5
4B80
330
21CC
100
AcDbEntity
  8
0
  6
Continuous
100
AcDbLine
 10
434.0000064373088
 20
112.5
 30
0.0
 11
434.0000064373088
 21
-112.5000000000004
 31
0.0
  0
LINE
  5
4B81
330
21CC
100
AcDbEntity
  8
0
  6
Continuous
100
AcDbLine
 10
421.5000064373088
 20
111.4999999999999
 30
0.0
 11
421.5000064373088
 21
-111.4999999999999
 31
0.0
  0
LINE
  5
4B82
330
21CC
100
AcDbEntity
  8
0
  6
Continuous
100
AcDbLine
 10
435.0000064373089
 20
111.4999999999999
 30
0.0
 11
435.0000064373089
 21
-111.4999999999999
 31
0.0
  0
LINE
  5
4B83
330
21CC
100
AcDbEntity
  8
0
  6
Continuous
100
AcDbLine
 10
440.0000064373089
 20
90.6500000000001
 30
0.0
 11
440.0000064373089
 21
-90.6500000000001
 31
0.0
  0
LINE
  5
4B84
330
21CC
100
AcDbEntity
  8
0
  6
Continuous
100
AcDbLine
 10
429.3270393987358
 20
-112.5000000000004
 30
0.0
 11
434.0000064373088
 21
-112.5
 31
0.0
  0
ARC
  5
4B85
330
21CC
100
AcDbEntity
  8
0
  6
Continuous
100
AcDbCircle
 10
428.2500064373088
 20
-115.3000000000001
 30
0.0
 40
3.0
100
AcDbArc
 50
68.96053021868642
 51
111.0394697813135
  0
LINE
  5
4B86
330
21CC
100
AcDbEntity
  8
0
  6
Continuous
100
AcDbLine
 10
434.0000064373088
 20
-112.5
 30
0.0
 11
435.0000064373089
 21
-111.4999999999999
 31
0.0
  0
LINE
  5
4B87
330
21CC
100
AcDbEntity
  8
0
  6
Continuous
100
AcDbLine
 10
421.5000064373088
 20
-111.4999999999999
 30
0.0
 11
422.5000064373089
 21
-112.5
 31
0.0
  0
LINE
  5
4B88
330
21CC
100
AcDbEntity
  8
0
  6
Continuous
100
AcDbLine
 10
422.5000064373089
 20
-112.5
 30
0.0
 11
427.1729734758819
 21
-112.5000000000004
 31
0.0
  0
LINE
  5
4B89
330
21CC
100
AcDbEntity
  8
0
  6
Continuous
100
AcDbLine
 10
413.5000064373088
 20
-101.5000000000004
 30
0.0
 11
443.0000064373088
 21
-101.5
 31
0.0
  0
LINE
  5
4B8A
330
21CC
100
AcDbEntity
  8
0
  6
Continuous
100
AcDbLine
 10
436.0000064373089
 20
-91.65000000000009
 30
0.0
 11
439.0000064373089
 21
-91.65000000000009
 31
0.0
  0
ARC
  5
4B8B
330
21CC
100
AcDbEntity
  8
0
  6
Continuous
100
AcDbCircle
 10
439.0000064373089
 20
-90.6500000000001
 30
0.0
 40
1.0
100
AcDbArc
 50
270.0
 51
0.0
  0
LINE
  5
4B8C
330
21CC
100
AcDbEntity
  8
0
  6
Continuous
100
AcDbLine
 10
436.0000064373089
 20
-91.65000000000009
 30
0.0
 11
435.0000064373089
 21
-92.65000000000009
 31
0.0
  0
ARC
  5
4B8D
330
21CC
100
AcDbEntity
  8
0
  6
Continuous
100
AcDbCircle
 10
418.5000064373089
 20
-85.60003961771782
 30
0.0
 40
3.0
100
AcDbArc
 50
0.0
 51
90.0
  0
LINE
  5
4B8E
330
21CC
100
AcDbEntity
  8
0
  6
Continuous
100
AcDbLine
 10
413.5000064373088
 20
101.5
 30
0.0
 11
443.0000064373088
 21
101.5
 31
0.0
  0
LINE
  5
4B8F
330
21CC
100
AcDbEntity
  8
0
  6
Continuous
100
AcDbLine
 10
436.0000064373089
 20
91.65000000000009
 30
0.0
 11
439.0000064373089
 21
91.65000000000009
 31
0.0
  0
ARC
  5
4B90
330
21CC
100
AcDbEntity
  8
0
  6
Continuous
100
AcDbCircle
 10
439.0000064373089
 20
90.6500000000001
 30
0.0
 40
1.0
100
AcDbArc
 50
0.0
 51
90.0
  0
ARC
  5
4B91
330
21CC
100
AcDbEntity
  8
0
  6
Continuous
100
AcDbCircle
 10
418.5000064373089
 20
85.59997505098499
 30
0.0
 40
3.0
100
AcDbArc
 50
270.0
 51
0.0
  0
LINE
  5
4B92
330
21CC
100
AcDbEntity
  8
0
  6
Continuous
100
AcDbLine
 10
435.0000064373089
 20
92.65000000000009
 30
0.0
 11
436.0000064373089
 21
91.65000000000009
 31
0.0
  0
LINE
  5
4B93
330
21CC
100
AcDbEntity
  8
0
  6
Continuous
100
AcDbLine
 10
429.3270393987361
 20
112.5
 30
0.0
 11
434.0000064373088
 21
112.5
 31
0.0
  0
ARC
  5
4B94
330
21CC
100
AcDbEntity
  8
0
  6
Continuous
100
AcDbCircle
 10
428.2500064373088
 20
115.2999999999997
 30
0.0
 40
3.0
100
AcDbArc
 50
248.9605302186864
 51
291.0394697813136
  0
LINE
  5
4B95
330
21CC
100
AcDbEntity
  8
0
  6
Continuous
100
AcDbLine
 10
422.5000064373089
 20
112.5
 30
0.0
 11
421.5000064373088
 21
111.4999999999999
 31
0.0
  0
LINE
  5
4B96
330
21CC
100
AcDbEntity
  8
0
  6
Continuous
100
AcDbLine
 10
435.0000064373089
 20
111.4999999999999
 30
0.0
 11
434.0000064373088
 21
112.5
 31
0.0
  0
LINE
  5
4B97
330
21CC
100
AcDbEntity
  8
0
  6
Continuous
100
AcDbLine
 10
422.5000064373089
 20
112.5
 30
0.0
 11
427.1729734758819
 21
112.5
 31
0.0
  0
POINT
  5
4E73
330
21CC
100
AcDbEntity
  8
0
  6
CENTER
100
AcDbPoint
 10
220.0000032186546
 20
-379.380806331831
 30
0.0
 50
180.0
  0
LINE
  5
4E74
330
21CC
100
AcDbEntity
  8
0
  6
CENTER
100
AcDbLine
 10
220.0000032186546
 20
-259.0307417029598
 30
0.0
 11
220.0000032186545
 21
-499.7308709607032
 31
0.0
  0
LINE
  5
4E75
330
21CC
100
AcDbEntity
  8
0
  6
Continuous
100
AcDbLine
 10
303.000004455451
 20
-294.5307684463732
 30
0.0
 11
303.000004455451
 21
-294.7808294852557
 31
0.0
  0
LINE
  5
4E76
330
21CC
100
AcDbEntity
  8
0
  6
Continuous
100
AcDbLine
 10
305.0000044852533
 20
-296.780829515058
 30
0.0
 11
418.5000064969101
 21
-296.780829515058
 31
0.0
  0
ARC
  5
4E77
330
21CC
100
AcDbEntity
  8
0
  6
Continuous
100
AcDbCircle
 10
305.0000044852533
 20
-294.7808294852557
 30
0.0
 40
2.000000029802321
100
AcDbArc
 50
179.9999949910365
 51
269.9999956742795
  0
ARC
  5
4E78
330
21CC
100
AcDbEntity
  8
0
  6
Continuous
100
AcDbCircle
 10
520.7605057472103
 20
-379.380806331831
 30
0.0
 40
232.8999973669647
100
AcDbArc
 50
160.0147776960849
 51
199.9852052284379
  0
LINE
  5
4E79
330
21CC
100
AcDbEntity
  8
0
  6
Continuous
100
AcDbLine
 10
309.7499981650601
 20
-269.0312195432211
 30
0.0
 11
224.5000032186546
 21
-269.0312195432211
 31
0.0
  0
LINE
  5
4E7A
330
21CC
100
AcDbEntity
  8
0
  6
Continuous
100
AcDbLine
 10
309.7476993335214
 20
-294.5312195432211
 30
0.0
 11
224.5000032186546
 21
-294.5312195432211
 31
0.0
  0
LINE
  5
4E7B
330
21CC
100
AcDbEntity
  8
0
  6
Continuous
100
AcDbLine
 10
224.5000032186546
 20
-269.0312195432216
 30
0.0
 11
224.5000032186538
 21
-294.5312195432216
 31
0.0
  0
LINE
  5
4E7C
330
21CC
100
AcDbEntity
  8
0
  6
Continuous
100
AcDbLine
 10
254.5000032633579
 20
-276.7812195432211
 30
0.0
 11
249.5000033676662
 21
-276.7812195432211
 31
0.0
  0
LINE
  5
4E7D
330
21CC
100
AcDbEntity
  8
0
  6
Continuous
100
AcDbLine
 10
254.5000032633579
 20
-286.7812195432211
 30
0.0
 11
249.5000033676662
 21
-286.7812195432211
 31
0.0
  0
LINE
  5
4E7E
330
21CC
100
AcDbEntity
  8
0
  6
Continuous
100
AcDbLine
 10
318.7500032186546
 20
-272.306953490975
 30
0.0
 11
247.2850089117573
 21
-272.306953490975
 31
0.0
  0
LINE
  5
4E7F
330
21CC
100
AcDbEntity
  8
0
  6
Continuous
100
AcDbLine
 10
318.7500032186546
 20
-291.2554855954672
 30
0.0
 11
247.2850089117575
 21
-291.2554855954672
 31
0.0
  0
LINE
  5
4E80
330
21CC
100
AcDbEntity
  8
0
  6
Continuous
100
AcDbLine
 10
239.5000032186546
 20
-273.7812195432211
 30
0.0
 11
224.5000032186546
 21
-273.7812195432211
 31
0.0
  0
LINE
  5
4E81
330
21CC
100
AcDbEntity
  8
0
  6
Continuous
100
AcDbLine
 10
239.5000032186546
 20
-289.7812195432211
 30
0.0
 11
224.5000032186546
 21
-289.7812195432211
 31
0.0
  0
LINE
  5
4E82
330
21CC
100
AcDbEntity
  8
0
  6
Continuous
100
AcDbLine
 10
309.7476993335214
 20
-294.5312195432216
 30
0.0
 11
318.7500032186546
 21
-291.2545996693925
 31
0.0
  0
LINE
  5
4E83
330
21CC
100
AcDbEntity
  8
0
  6
Continuous
100
AcDbLine
 10
318.7500032186546
 20
-272.306953490975
 30
0.0
 11
309.7499981650601
 21
-269.0312195432216
 31
0.0
  0
LINE
  5
4E84
330
21CC
100
AcDbEntity
  8
0
  6
Continuous
100
AcDbLine
 10
318.7500032186546
 20
-272.306953490975
 30
0.0
 11
318.7500032186546
 21
-291.2554855954672
 31
0.0
  0
LINE
  5
4E85
330
21CC
100
AcDbEntity
  8
0
  6
Continuous
100
AcDbLine
 10
318.7500032186546
 20
-467.5061270681953
 30
0.0
 11
247.2850089117575
 21
-467.5061270681953
 31
0.0
  0
LINE
  5
4E86
330
21CC
100
AcDbEntity
  8
0
  6
Continuous
100
AcDbLine
 10
318.7500032186546
 20
-486.4546591726876
 30
0.0
 11
247.2850089117573
 21
-486.4546591726876
 31
0.0
  0
LINE
  5
4E87
330
21CC
100
AcDbEntity
  8
0
  6
Continuous
100
AcDbLine
 10
309.7476993335214
 20
-464.2303931204414
 30
0.0
 11
224.5000032186546
 21
-464.2303931204414
 31
0.0
  0
LINE
  5
4E88
330
21CC
100
AcDbEntity
  8
0
  6
Continuous
100
AcDbLine
 10
309.7499981650601
 20
-489.7303931204414
 30
0.0
 11
224.5000032186546
 21
-489.7303931204414
 31
0.0
  0
LINE
  5
4E89
330
21CC
100
AcDbEntity
  8
0
  6
Continuous
100
AcDbLine
 10
239.5000032186546
 20
-468.9803931204415
 30
0.0
 11
224.5000032186546
 21
-468.9803931204415
 31
0.0
  0
LINE
  5
4E8A
330
21CC
100
AcDbEntity
  8
0
  6
Continuous
100
AcDbLine
 10
239.5000032186546
 20
-484.9803931204414
 30
0.0
 11
224.5000032186546
 21
-484.9803931204414
 31
0.0
  0
LINE
  5
4E8B
330
21CC
100
AcDbEntity
  8
0
  6
Continuous
100
AcDbLine
 10
224.5000032186546
 20
-489.7303931204414
 30
0.0
 11
224.5000032186546
 21
-464.2303931204414
 31
0.0
  0
LINE
  5
4E8C
330
21CC
100
AcDbEntity
  8
0
  6
Continuous
100
AcDbLine
 10
305.0000044852533
 20
-461.9807831486046
 30
0.0
 11
418.5000064969101
 21
-461.9807831486046
 31
0.0
  0
LINE
  5
4E8D
330
21CC
100
AcDbEntity
  8
0
  6
Continuous
100
AcDbLine
 10
318.7500032186546
 20
-486.4546591726876
 30
0.0
 11
318.7500032186546
 21
-467.5061270681953
 31
0.0
  0
LINE
  5
4E8E
330
21CC
100
AcDbEntity
  8
0
  6
Continuous
100
AcDbLine
 10
309.7476993335214
 20
-464.2303931204414
 30
0.0
 11
318.7500032186546
 21
-467.5070129942705
 31
0.0
  0
ARC
  5
4E8F
330
21CC
100
AcDbEntity
  8
0
  6
Continuous
100
AcDbCircle
 10
305.0000044852533
 20
-463.9807831784069
 30
0.0
 40
2.000000029802321
100
AcDbArc
 50
90.00000432572047
 51
180.0000050089634
  0
LINE
  5
4E90
330
21CC
100
AcDbEntity
  8
0
  6
Continuous
100
AcDbLine
 10
303.000004455451
 20
-464.2308442172893
 30
0.0
 11
303.000004455451
 21
-463.9807831784069
 31
0.0
  0
LINE
  5
4E91
330
21CC
100
AcDbEntity
  8
0
  6
Continuous
100
AcDbLine
 10
318.7500032186546
 20
-486.4546591726876
 30
0.0
 11
309.7499981650601
 21
-489.7303931204414
 31
0.0
  0
LINE
  5
4E92
330
21CC
100
AcDbEntity
  8
0
  6
Continuous
100
AcDbLine
 10
440.0000064969101
 20
-288.7308063318314
 30
0.0
 11
440.0000064969101
 21
-470.0308063318316
 31
0.0
  0
LINE
  5
4E93
330
21CC
100
AcDbEntity
  8
0
  6
Continuous
100
AcDbLine
 10
435.0000064969101
 20
-267.880806331831
 30
0.0
 11
435.0000064969101
 21
-490.8808063318315
 31
0.0
  0
LINE
  5
4E94
330
21CC
100
AcDbEntity
  8
0
  6
Continuous
100
AcDbLine
 10
421.5000064969101
 20
-267.880806331831
 30
0.0
 11
421.5000064969101
 21
-490.8808063318315
 31
0.0
  0
LINE
  5
4E95
330
21CC
100
AcDbEntity
  8
0
  6
Continuous
100
AcDbLine
 10
422.5000064969101
 20
-266.880806331831
 30
0.0
 11
427.1729735354831
 21
-266.880806331831
 31
0.0
  0
LINE
  5
4E96
330
21CC
100
AcDbEntity
  8
0
  6
Continuous
100
AcDbLine
 10
422.5000064969101
 20
-491.8808063318315
 30
0.0
 11
427.1729735354831
 21
-491.8808063318315
 31
0.0
  0
LINE
  5
4E97
330
21CC
100
AcDbEntity
  8
0
  6
Continuous
100
AcDbLine
 10
435.0000064969101
 20
-267.880806331831
 30
0.0
 11
434.0000064969101
 21
-266.880806331831
 31
0.0
  0
LINE
  5
4E98
330
21CC
100
AcDbEntity
  8
0
  6
Continuous
100
AcDbLine
 10
422.5000064969101
 20
-266.880806331831
 30
0.0
 11
421.5000064969101
 21
-267.880806331831
 31
0.0
  0
LINE
  5
4E99
330
21CC
100
AcDbEntity
  8
0
  6
Continuous
100
AcDbLine
 10
421.5000064969101
 20
-490.8808063318315
 30
0.0
 11
422.5000064969101
 21
-491.8808063318315
 31
0.0
  0
LINE
  5
4E9A
330
21CC
100
AcDbEntity
  8
0
  6
Continuous
100
AcDbLine
 10
434.0000064969101
 20
-491.8808063318315
 30
0.0
 11
435.0000064969101
 21
-490.8808063318315
 31
0.0
  0
LINE
  5
4E9B
330
21CC
100
AcDbEntity
  8
0
  6
Continuous
100
AcDbLine
 10
434.0000064969101
 20
-266.880806331831
 30
0.0
 11
434.0000064969101
 21
-491.8808063318315
 31
0.0
  0
LINE
  5
4E9C
330
21CC
100
AcDbEntity
  8
0
  6
Continuous
100
AcDbLine
 10
422.5000064969101
 20
-266.880806331831
 30
0.0
 11
422.5000064969101
 21
-491.880806331831
 31
0.0
  0
ARC
  5
4E9D
330
21CC
100
AcDbEntity
  8
0
  6
Continuous
100
AcDbCircle
 10
428.2500064969101
 20
-494.6808063318313
 30
0.0
 40
3.0
100
AcDbArc
 50
68.96053021868642
 51
111.0394697813135
  0
LINE
  5
4E9E
330
21CC
100
AcDbEntity
  8
0
  6
Continuous
100
AcDbLine
 10
429.3270394583371
 20
-491.8808063318315
 30
0.0
 11
434.0000064969101
 21
-491.8808063318315
 31
0.0
  0
LINE
  5
4E9F
330
21CC
100
AcDbEntity
  8
0
  6
Continuous
100
AcDbLine
 10
429.3270394583371
 20
-491.8808063318315
 30
0.0
 11
429.3270394583373
 21
-266.880806331831
 31
0.0
  0
LINE
  5
4EA0
330
21CC
100
AcDbEntity
  8
0
  6
Continuous
100
AcDbLine
 10
427.1729735354831
 20
-491.8808063318315
 30
0.0
 11
427.1729735354831
 21
-266.880806331831
 31
0.0
  0
ARC
  5
4EA1
330
21CC
100
AcDbEntity
  8
0
  6
Continuous
100
AcDbCircle
 10
428.2500064969101
 20
-264.0808063318313
 30
0.0
 40
3.0
100
AcDbArc
 50
248.9605302186864
 51
291.0394697813136
  0
LINE
  5
4EA2
330
21CC
100
AcDbEntity
  8
0
  6
Continuous
100
AcDbLine
 10
429.3270394583373
 20
-266.880806331831
 30
0.0
 11
434.0000064969101
 21
-266.880806331831
 31
0.0
  0
LINE
  5
4EA3
330
21CC
100
AcDbEntity
  8
0
  6
Continuous
100
AcDbLine
 10
413.5000064969101
 20
-277.880806331831
 30
0.0
 11
443.0000064969101
 21
-277.880806331831
 31
0.0
  0
LINE
  5
4EA4
330
21CC
100
AcDbEntity
  8
0
  6
Continuous
100
AcDbLine
 10
413.5000064969101
 20
-480.8808063318315
 30
0.0
 11
443.0000064969101
 21
-480.8808063318315
 31
0.0
  0
LINE
  5
4EA5
330
21CC
100
AcDbEntity
  8
0
  6
Continuous
100
AcDbLine
 10
436.0000064969101
 20
-287.7308063318314
 30
0.0
 11
439.0000064969101
 21
-287.7308063318314
 31
0.0
  0
LINE
  5
4EA6
330
21CC
100
AcDbEntity
  8
0
  6
Continuous
100
AcDbLine
 10
436.0000064969101
 20
-471.0308063318316
 30
0.0
 11
439.0000064969101
 21
-471.0308063318316
 31
0.0
  0
ARC
  5
4EA7
330
21CC
100
AcDbEntity
  8
0
  6
Continuous
100
AcDbCircle
 10
439.0000064969101
 20
-470.0308063318316
 30
0.0
 40
1.0
100
AcDbArc
 50
270.0
 51
0.0
  0
ARC
  5
4EA8
330
21CC
100
AcDbEntity
  8
0
  6
Continuous
100
AcDbCircle
 10
439.0000064969101
 20
-288.7308063318314
 30
0.0
 40
1.0
100
AcDbArc
 50
0.0
 51
90.0
  0
LINE
  5
4EA9
330
21CC
100
AcDbEntity
  8
0
  6
Continuous
100
AcDbLine
 10
435.0000064969101
 20
-286.7308063318314
 30
0.0
 11
436.0000064969101
 21
-287.7308063318314
 31
0.0
  0
LINE
  5
4EAA
330
21CC
100
AcDbEntity
  8
0
  6
Continuous
100
AcDbLine
 10
436.0000064969101
 20
-287.7308063318314
 30
0.0
 11
436.0000064969101
 21
-471.0308063318316
 31
0.0
  0
LINE
  5
4EAB
330
21CC
100
AcDbEntity
  8
0
  6
Continuous
100
AcDbLine
 10
436.0000064969101
 20
-471.0308063318316
 30
0.0
 11
435.0000064969101
 21
-472.0308063318311
 31
0.0
  0
ARC
  5
4EAC
330
21CC
100
AcDbEntity
  8
0
  6
Continuous
100
AcDbCircle
 10
418.5000064969101
 20
-293.7808295150584
 30
0.0
 40
3.0
100
AcDbArc
 50
270.0
 51
0.0
  0
ARC
  5
4EAD
330
21CC
100
AcDbEntity
  8
0
  6
Continuous
100
AcDbCircle
 10
418.5000064969101
 20
-464.9807831486041
 30
0.0
 40
3.0
100
AcDbArc
 50
0.0
 51
90.0
  0
ARC
  5
4EAE
330
21CC
100
AcDbEntity
  8
0
  6
Continuous
100
AcDbCircle
 10
233.7208064794578
 20
-281.7812195432211
 30
0.0
 40
13.77919673919677
100
AcDbArc
 50
339.1359956260674
 51
20.86400437393256
  0
LINE
  5
4EAF
330
21CC
100
AcDbEntity
  8
0
  6
Continuous
100
AcDbLine
 10
247.5000032186545
 20
-290.0312195432211
 30
0.0
 11
247.5000032186545
 21
-273.5312195432211
 31
0.0
  0
LINE
  5
4EB0
330
21CC
100
AcDbEntity
  8
0
  6
Continuous
100
AcDbLine
 10
239.5000032186546
 20
-290.0312195432211
 30
0.0
 11
239.5000032186546
 21
-273.5312195432211
 31
0.0
  0
ARC
  5
4EB1
330
21CC
100
AcDbEntity
  8
0
  6
Continuous
100
AcDbCircle
 10
253.2791999578514
 20
-281.7812195432211
 30
0.0
 40
13.77919673919677
100
AcDbArc
 50
159.1359956260674
 51
200.8640043739325
  0
ARC
  5
4EB2
330
21CC
100
AcDbEntity
  8
0
  6
Continuous
100
AcDbCircle
 10
242.3464797735251
 20
-274.4200070432211
 30
0.0
 40
4.907476425170898
100
AcDbArc
 50
330.0000090143786
 51
29.99999098562142
  0
ARC
  5
4EB3
330
21CC
100
AcDbEntity
  8
0
  6
Continuous
100
AcDbCircle
 10
244.6535266637841
 20
-274.4200070432211
 30
0.0
 40
4.907476425170898
100
AcDbArc
 50
150.0000090143785
 51
209.9999909856214
  0
LINE
  5
4EB4
330
21CC
100
AcDbEntity
  8
0
  6
Continuous
100
AcDbLine
 10
240.4035269997018
 20
-271.9662695432211
 30
0.0
 11
246.5964793361545
 21
-271.9662695432211
 31
0.0
  0
LINE
  5
4EB5
330
21CC
100
AcDbEntity
  8
0
  6
Continuous
100
AcDbLine
 10
246.5964793361545
 20
-271.9662695432211
 30
0.0
 11
247.5000032186545
 21
-273.5312195432211
 31
0.0
  0
LINE
  5
4EB6
330
21CC
100
AcDbEntity
  8
0
  6
Continuous
100
AcDbLine
 10
240.4035271011546
 20
-271.9662695432211
 30
0.0
 11
239.5000032186546
 21
-273.5312195432211
 31
0.0
  0
LINE
  5
4EB7
330
21CC
100
AcDbEntity
  8
0
  6
Continuous
100
AcDbLine
 10
240.4035269997019
 20
-276.8737445432211
 30
0.0
 11
246.5964793361545
 21
-276.8737445432211
 31
0.0
  0
LINE
  5
4EB8
330
21CC
100
AcDbEntity
  8
0
  6
Continuous
100
AcDbLine
 10
240.4035270860413
 20
-286.6886945432211
 30
0.0
 11
246.5964793361545
 21
-286.6886945432211
 31
0.0
  0
LINE
  5
4EB9
330
21CC
100
AcDbEntity
  8
0
  6
Continuous
100
AcDbLine
 10
240.4035269997018
 20
-291.5961695432211
 30
0.0
 11
246.5964793361545
 21
-291.5961695432211
 31
0.0
  0
ARC
  5
4EBA
330
21CC
100
AcDbEntity
  8
0
  6
Continuous
100
AcDbCircle
 10
242.3464797735251
 20
-289.1424320432211
 30
0.0
 40
4.907476425170898
100
AcDbArc
 50
330.0000090143786
 51
29.99999098562142
  0
LINE
  5
4EBB
330
21CC
100
AcDbEntity
  8
0
  6
Continuous
100
AcDbLine
 10
246.5964793361545
 20
-291.5961695432211
 30
0.0
 11
247.5000032186545
 21
-290.0312195432211
 31
0.0
  0
LINE
  5
4EBC
330
21CC
100
AcDbEntity
  8
0
  6
Continuous
100
AcDbLine
 10
240.4035271011548
 20
-291.5961695432211
 30
0.0
 11
239.5000032186546
 21
-290.0312195432211
 31
0.0
  0
ARC
  5
4EBD
330
21CC
100
AcDbEntity
  8
0
  6
Continuous
100
AcDbCircle
 10
244.6535266637841
 20
-289.1424320432211
 30
0.0
 40
4.907476425170898
100
AcDbArc
 50
150.0000090143785
 51
209.9999909856214
  0
LINE
  5
4EBE
330
21CC
100
AcDbEntity
  8
0
  6
Continuous
100
AcDbLine
 10
249.5000033676662
 20
-276.2812194612647
 30
0.0
 11
249.5000033676662
 21
-287.2812196251775
 31
0.0
  0
ARC
  5
4EBF
330
21CC
100
AcDbEntity
  8
0
  6
Continuous
100
AcDbCircle
 10
248.5000033527651
 20
-287.2812196251775
 30
0.0
 40
1.00000001490116
100
AcDbArc
 50
269.9999974955313
 51
0.0000086514148811
  0
LINE
  5
4EC0
330
21CC
100
AcDbEntity
  8
0
  6
Continuous
100
AcDbLine
 10
248.5000033527651
 20
-288.2812196400787
 30
0.0
 11
247.5000033378639
 21
-288.2812196400787
 31
0.0
  0
ARC
  5
4EC1
330
21CC
100
AcDbEntity
  8
0
  6
Continuous
100
AcDbCircle
 10
248.5000033527651
 20
-276.2812194612647
 30
0.0
 40
1.00000001490116
100
AcDbArc
 50
359.9999949910365
 51
89.99999567427954
  0
LINE
  5
4EC2
330
21CC
100
AcDbEntity
  8
0
  6
Continuous
100
AcDbLine
 10
248.5000033527651
 20
-275.2812194463635
 30
0.0
 11
247.5000033378639
 21
-275.2812194463635
 31
0.0
  0
LINE
  5
4EC3
330
21CC
100
AcDbEntity
  8
0
  6
Continuous
100
AcDbLine
 10
255.5000032186544
 20
-285.7812196177269
 30
0.0
 11
249.5000033676662
 21
-285.7812196177269
 31
0.0
  0
LINE
  5
4EC4
330
21CC
100
AcDbEntity
  8
0
  6
Continuous
100
AcDbLine
 10
224.5000032186542
 20
-285.7812196177269
 30
0.0
 11
215.5000032186544
 21
-285.7812196177269
 31
0.0
  0
LINE
  5
4EC5
330
21CC
100
AcDbEntity
  8
0
  6
Continuous
100
AcDbLine
 10
255.5000032186544
 20
-277.7812194687153
 30
0.0
 11
249.5000033676662
 21
-277.7812194687153
 31
0.0
  0
LINE
  5
4EC6
330
21CC
100
AcDbEntity
  8
0
  6
Continuous
100
AcDbLine
 10
224.5000032186544
 20
-277.7812194687153
 30
0.0
 11
215.5000032186545
 21
-277.7812194687153
 31
0.0
  0
LINE
  5
4EC7
330
21CC
100
AcDbEntity
  8
0
  6
Continuous
100
AcDbLine
 10
255.5000032186544
 20
-277.7812194687153
 30
0.0
 11
255.5000032186544
 21
-285.7812196177269
 31
0.0
  0
LINE
  5
4EC8
330
21CC
100
AcDbEntity
  8
0
  6
Continuous
100
AcDbLine
 10
255.5000032186544
 20
-277.7812194687153
 30
0.0
 11
254.5000032633579
 21
-276.7812195432211
 31
0.0
  0
LINE
  5
4EC9
330
21CC
100
AcDbEntity
  8
0
  6
Continuous
100
AcDbLine
 10
254.5000032633579
 20
-286.7812195432211
 30
0.0
 11
255.5000032186544
 21
-285.7812196177269
 31
0.0
  0
LINE
  5
4ECA
330
21CC
100
AcDbEntity
  8
0
  6
Continuous
100
AcDbLine
 10
254.5000032633579
 20
-481.9803931204419
 30
0.0
 11
249.5000033676662
 21
-481.9803931204419
 31
0.0
  0
LINE
  5
4ECB
330
21CC
100
AcDbEntity
  8
0
  6
Continuous
100
AcDbLine
 10
254.5000032633579
 20
-471.9803931204419
 30
0.0
 11
249.5000033676662
 21
-471.9803931204419
 31
0.0
  0
ARC
  5
4ECC
330
21CC
100
AcDbEntity
  8
0
  6
Continuous
100
AcDbCircle
 10
233.7208064794578
 20
-476.9803931204419
 30
0.0
 40
13.77919673919677
100
AcDbArc
 50
339.1359956260384
 51
20.86400437396155
  0
LINE
  5
4ECD
330
21CC
100
AcDbEntity
  8
0
  6
Continuous
100
AcDbLine
 10
247.5000032186545
 20
-468.7303931204419
 30
0.0
 11
247.5000032186545
 21
-485.2303931204419
 31
0.0
  0
LINE
  5
4ECE
330
21CC
100
AcDbEntity
  8
0
  6
Continuous
100
AcDbLine
 10
239.5000032186546
 20
-468.7303931204419
 30
0.0
 11
239.5000032186546
 21
-485.2303931204419
 31
0.0
  0
ARC
  5
4ECF
330
21CC
100
AcDbEntity
  8
0
  6
Continuous
100
AcDbCircle
 10
253.2791999578514
 20
-476.9803931204419
 30
0.0
 40
13.77919673919677
100
AcDbArc
 50
159.1359956260384
 51
200.8640043739615
  0
ARC
  5
4ED0
330
21CC
100
AcDbEntity
  8
0
  6
Continuous
100
AcDbCircle
 10
242.3464797735251
 20
-484.3416056204419
 30
0.0
 40
4.907476425170898
100
AcDbArc
 50
330.0000090143786
 51
29.99999098562142
  0
ARC
  5
4ED1
330
21CC
100
AcDbEntity
  8
0
  6
Continuous
100
AcDbCircle
 10
244.6535266637841
 20
-484.3416056204419
 30
0.0
 40
4.907476425170898
100
AcDbArc
 50
150.0000090143785
 51
209.9999909856214
  0
LINE
  5
4ED2
330
21CC
100
AcDbEntity
  8
0
  6
Continuous
100
AcDbLine
 10
240.4035269997018
 20
-486.7953431204418
 30
0.0
 11
246.5964793361545
 21
-486.7953431204418
 31
0.0
  0
LINE
  5
4ED3
330
21CC
100
AcDbEntity
  8
0
  6
Continuous
100
AcDbLine
 10
246.5964793361545
 20
-486.7953431204418
 30
0.0
 11
247.5000032186545
 21
-485.2303931204419
 31
0.0
  0
LINE
  5
4ED4
330
21CC
100
AcDbEntity
  8
0
  6
Continuous
100
AcDbLine
 10
240.4035271011546
 20
-486.7953431204418
 30
0.0
 11
239.5000032186546
 21
-485.2303931204419
 31
0.0
  0
LINE
  5
4ED5
330
21CC
100
AcDbEntity
  8
0
  6
Continuous
100
AcDbLine
 10
240.4035269997019
 20
-481.8878681204418
 30
0.0
 11
246.5964793361545
 21
-481.8878681204418
 31
0.0
  0
LINE
  5
4ED6
330
21CC
100
AcDbEntity
  8
0
  6
Continuous
100
AcDbLine
 10
240.4035270860413
 20
-472.0729181204419
 30
0.0
 11
246.5964793361545
 21
-472.0729181204419
 31
0.0
  0
LINE
  5
4ED7
330
21CC
100
AcDbEntity
  8
0
  6
Continuous
100
AcDbLine
 10
240.4035269997018
 20
-467.1654431204419
 30
0.0
 11
246.5964793361545
 21
-467.1654431204419
 31
0.0
  0
ARC
  5
4ED8
330
21CC
100
AcDbEntity
  8
0
  6
Continuous
100
AcDbCircle
 10
242.3464797735251
 20
-469.6191806204419
 30
0.0
 40
4.907476425170898
100
AcDbArc
 50
330.0000090143786
 51
29.99999098562142
  0
LINE
  5
4ED9
330
21CC
100
AcDbEntity
  8
0
  6
Continuous
100
AcDbLine
 10
246.5964793361545
 20
-467.1654431204419
 30
0.0
 11
247.5000032186545
 21
-468.7303931204419
 31
0.0
  0
LINE
  5
4EDA
330
21CC
100
AcDbEntity
  8
0
  6
Continuous
100
AcDbLine
 10
240.4035271011548
 20
-467.1654431204419
 30
0.0
 11
239.5000032186546
 21
-468.7303931204419
 31
0.0
  0
ARC
  5
4EDB
330
21CC
100
AcDbEntity
  8
0
  6
Continuous
100
AcDbCircle
 10
244.6535266637841
 20
-469.6191806204419
 30
0.0
 40
4.907476425170898
100
AcDbArc
 50
150.0000090143785
 51
209.9999909856214
  0
LINE
  5
4EDC
330
21CC
100
AcDbEntity
  8
0
  6
Continuous
100
AcDbLine
 10
249.5000033676662
 20
-482.4803932023983
 30
0.0
 11
249.5000033676662
 21
-471.4803930384855
 31
0.0
  0
ARC
  5
4EDD
330
21CC
100
AcDbEntity
  8
0
  6
Continuous
100
AcDbCircle
 10
248.5000033527651
 20
-471.4803930384855
 30
0.0
 40
1.00000001490116
100
AcDbArc
 50
359.9999913486111
 51
90.00000250446868
  0
LINE
  5
4EDE
330
21CC
100
AcDbEntity
  8
0
  6
Continuous
100
AcDbLine
 10
248.5000033527651
 20
-470.4803930235843
 30
0.0
 11
247.5000033378639
 21
-470.4803930235843
 31
0.0
  0
ARC
  5
4EDF
330
21CC
100
AcDbEntity
  8
0
  6
Continuous
100
AcDbCircle
 10
248.5000033527651
 20
-482.4803932023983
 30
0.0
 40
1.00000001490116
100
AcDbArc
 50
270.0000043257204
 51
0.0000050089895141
  0
LINE
  5
4EE0
330
21CC
100
AcDbEntity
  8
0
  6
Continuous
100
AcDbLine
 10
248.5000033527651
 20
-483.4803932172994
 30
0.0
 11
247.5000033378639
 21
-483.4803932172994
 31
0.0
  0
LINE
  5
4EE1
330
21CC
100
AcDbEntity
  8
0
  6
Continuous
100
AcDbLine
 10
255.5000032186544
 20
-472.9803930459361
 30
0.0
 11
249.5000033676662
 21
-472.9803930459361
 31
0.0
  0
LINE
  5
4EE2
330
21CC
100
AcDbEntity
  8
0
  6
Continuous
100
AcDbLine
 10
255.5000032186544
 20
-480.9803931949477
 30
0.0
 11
249.5000033676662
 21
-480.9803931949477
 31
0.0
  0
LINE
  5
4EE3
330
21CC
100
AcDbEntity
  8
0
  6
Continuous
100
AcDbLine
 10
255.5000032186544
 20
-480.9803931949477
 30
0.0
 11
255.5000032186544
 21
-472.9803930459361
 31
0.0
  0
LINE
  5
4EE4
330
21CC
100
AcDbEntity
  8
0
  6
Continuous
100
AcDbLine
 10
255.5000032186544
 20
-480.9803931949477
 30
0.0
 11
254.5000032633579
 21
-481.9803931204419
 31
0.0
  0
LINE
  5
4EE5
330
21CC
100
AcDbEntity
  8
0
  6
Continuous
100
AcDbLine
 10
254.5000032633579
 20
-471.9803931204419
 30
0.0
 11
255.5000032186544
 21
-472.9803930459361
 31
0.0
  0
LINE
  5
4EE6
330
21CC
100
AcDbEntity
  8
0
  6
Continuous
100
AcDbLine
 10
224.5000032186542
 20
-472.9803930459361
 30
0.0
 11
215.5000032186544
 21
-472.9803930459361
 31
0.0
  0
LINE
  5
4EE7
330
21CC
100
AcDbEntity
  8
0
  6
Continuous
100
AcDbLine
 10
224.5000032186544
 20
-480.9803931949477
 30
0.0
 11
215.5000032186545
 21
-480.9803931949477
 31
0.0
  0
LINE
  5
4EE8
330
21CC
100
AcDbEntity
  8
0
  6
Continuous
100
AcDbLine
 10
254.5000036060808
 20
-104.0000016242265
 30
0.0
 11
249.5000037103891
 21
-104.0000016242265
 31
0.0
  0
LINE
  5
4EE9
330
21CC
100
AcDbEntity
  8
0
  6
Continuous
100
AcDbLine
 10
254.5000036060808
 20
-114.0000016242265
 30
0.0
 11
249.5000037103891
 21
-114.0000016242265
 31
0.0
  0
LINE
  5
4EEA
330
21CC
100
AcDbEntity
  8
0
  6
Continuous
100
AcDbLine
 10
255.5000035613772
 20
-113.0000016987323
 30
0.0
 11
249.5000037103891
 21
-113.0000016987323
 31
0.0
  0
LINE
  5
4EEB
330
21CC
100
AcDbEntity
  8
0
  6
Continuous
100
AcDbLine
 10
255.5000035613772
 20
-105.0000015497207
 30
0.0
 11
249.5000037103891
 21
-105.0000015497207
 31
0.0
  0
LINE
  5
4EEC
330
21CC
100
AcDbEntity
  8
0
  6
Continuous
100
AcDbLine
 10
255.5000035613772
 20
-105.0000015497207
 30
0.0
 11
255.5000035613772
 21
-113.0000016987323
 31
0.0
  0
LINE
  5
4EED
330
21CC
100
AcDbEntity
  8
0
  6
Continuous
100
AcDbLine
 10
255.5000035613772
 20
-105.0000015497207
 30
0.0
 11
254.5000036060808
 21
-104.0000016242265
 31
0.0
  0
LINE
  5
4EEE
330
21CC
100
AcDbEntity
  8
0
  6
Continuous
100
AcDbLine
 10
254.5000036060808
 20
-114.0000016242265
 30
0.0
 11
255.5000035613772
 21
-113.0000016987323
 31
0.0
  0
LINE
  5
4EEF
330
21CC
100
AcDbEntity
  8
0
  6
Continuous
100
AcDbLine
 10
254.5000036060808
 20
114.0000016242265
 30
0.0
 11
249.5000037103891
 21
114.0000016242265
 31
0.0
  0
LINE
  5
4EF0
330
21CC
100
AcDbEntity
  8
0
  6
Continuous
100
AcDbLine
 10
254.5000036060808
 20
104.0000016242265
 30
0.0
 11
249.5000037103891
 21
104.0000016242265
 31
0.0
  0
LINE
  5
4EF1
330
21CC
100
AcDbEntity
  8
0
  6
Continuous
100
AcDbLine
 10
255.5000035613772
 20
105.0000015497207
 30
0.0
 11
249.5000037103891
 21
105.0000015497207
 31
0.0
  0
LINE
  5
4EF2
330
21CC
100
AcDbEntity
  8
0
  6
Continuous
100
AcDbLine
 10
255.5000035613772
 20
113.0000016987323
 30
0.0
 11
249.5000037103891
 21
113.0000016987323
 31
0.0
  0
LINE
  5
4EF3
330
21CC
100
AcDbEntity
  8
0
  6
Continuous
100
AcDbLine
 10
255.5000035613772
 20
113.0000016987323
 30
0.0
 11
255.5000035613772
 21
105.0000015497207
 31
0.0
  0
LINE
  5
4EF4
330
21CC
100
AcDbEntity
  8
0
  6
Continuous
100
AcDbLine
 10
255.5000035613772
 20
113.0000016987323
 30
0.0
 11
254.5000036060808
 21
114.0000016242265
 31
0.0
  0
LINE
  5
4EF5
330
21CC
100
AcDbEntity
  8
0
  6
Continuous
100
AcDbLine
 10
254.5000036060808
 20
104.0000016242265
 30
0.0
 11
255.5000035613772
 21
105.0000015497207
 31
0.0
  0
ENDSEC
  0
SECTION
  2
OBJECTS
  0
DICTIONARY
  5
21BA
330
0
100
AcDbDictionary
281
     1
  3
ACAD_GROUP
350
21BB
  3
ACAD_LAYOUT
350
21C7
  3
ACAD_MLINESTYLE
350
21C4
  3
ACAD_PLOTSETTINGS
350
21C6
  3
ACAD_PLOTSTYLENAME
350
21BC
  3
AcDbVariableDictionary
350
2238
  0
DICTIONARY
  5
2244
330
21B0
100
AcDbDictionary
280
     1
281
     1
  3
ACAD_LAYERSTATES
360
2245
  0
DICTIONARY
  5
21F8
330
21CC
100
AcDbDictionary
280
     1
281
     1
  3
ACAD_LAYOUTSELFREF
360
2227
  0
DICTIONARY
  5
21FA
330
21C8
100
AcDbDictionary
280
     1
281
     1
  3
ACAD_LAYOUTSELFREF
360
2226
  0
DICTIONARY
  5
21BB
102
{ACAD_REACTORS
330
21BA
102
}
330
21BA
100
AcDbDictionary
281
     1
  0
DICTIONARY
  5
21C7
102
{ACAD_REACTORS
330
21BA
102
}
330
21BA
100
AcDbDictionary
281
     1
  3
Model
350
21CF
  3
ﾚｲｱｳﾄ1
350
21CB
  0
DICTIONARY
  5
21C4
102
{ACAD_REACTORS
330
21BA
102
}
330
21BA
100
AcDbDictionary
281
     1
  3
Standard
350
21C5
  0
DICTIONARY
  5
21C6
102
{ACAD_REACTORS
330
21BA
102
}
330
21BA
100
AcDbDictionary
281
     1
  0
ACDBDICTIONARYWDFLT
  5
21BC
102
{ACAD_REACTORS
330
21BA
102
}
330
21BA
100
AcDbDictionary
281
     1
  3
Normal
350
21BD
100
AcDbDictionaryWithDefault
340
21BD
  0
DICTIONARY
  5
2238
102
{ACAD_REACTORS
330
21BA
102
}
330
21BA
100
AcDbDictionary
281
     1
  3
DIMASSOC
350
2239
  0
DICTIONARY
  5
2245
102
{ACAD_REACTORS
330
2244
102
}
330
2244
100
AcDbDictionary
281
     1
  0
XRECORD
  5
2227
102
{ACAD_REACTORS
330
21F8
102
}
330
21F8
100
AcDbXrecord
280
     1
340
21CC
  0
XRECORD
  5
2226
102
{ACAD_REACTORS
330
21FA
102
}
330
21FA
100
AcDbXrecord
280
     1
340
21C8
  0
LAYOUT
  5
21CF
102
{ACAD_REACTORS
330
21C7
102
}
330
21C7
100
AcDbPlotSettings
  1

  2
SII LP-2150 (D-SCAN C2)
  4

  6

 40
0.0
 41
0.0
 42
0.0
 43
0.0
 44
0.0
 45
0.0
 46
0.0
 47
0.0
 48
0.0
 49
0.0
140
0.0
141
0.0
142
1.0
143
1.0
 70
  1712
 72
     0
 73
     0
 74
     0
  7

 75
     0
147
1.0
148
0.0
149
0.0
100
AcDbLayout
  1
Model
 70
     1
 71
     0
 10
0.0
 20
0.0
 11
12.0
 21
9.0
 12
0.0
 22
0.0
 32
0.0
 14
0.0
 24
0.0
 34
0.0
 15
0.0
 25
0.0
 35
0.0
146
0.0
 13
0.0
 23
0.0
 33
0.0
 16
1.0
 26
0.0
 36
0.0
 17
0.0
 27
1.0
 37
0.0
 76
     0
330
21CC
  0
LAYOUT
  5
21CB
102
{ACAD_REACTORS
330
21C7
102
}
330
21C7
100
AcDbPlotSettings
  1

  2
SII LP-2150 (D-SCAN C2)
  4

  6

 40
0.0
 41
0.0
 42
0.0
 43
0.0
 44
0.0
 45
0.0
 46
0.0
 47
0.0
 48
0.0
 49
0.0
140
0.0
141
0.0
142
1.0
143
1.0
 70
   688
 72
     0
 73
     0
 74
     5
  7

 75
    16
147
1.0
148
0.0
149
0.0
100
AcDbLayout
  1
ﾚｲｱｳﾄ1
 70
     1
 71
     1
 10
0.0
 20
0.0
 11
12.0
 21
9.0
 12
0.0
 22
0.0
 32
0.0
 14
1.000000000000000E+20
 24
1.000000000000000E+20
 34
1.000000000000000E+20
 15
-1.000000000000000E+20
 25
-1.000000000000000E+20
 35
-1.000000000000000E+20
146
0.0
 13
0.0
 23
0.0
 33
0.0
 16
1.0
 26
0.0
 36
0.0
 17
0.0
 27
1.0
 37
0.0
 76
     0
330
21C8
  0
MLINESTYLE
  5
21C5
102
{ACAD_REACTORS
330
21C4
102
}
330
21C4
100
AcDbMlineStyle
  2
STANDARD
 70
     0
  3

 62
   256
 51
90.0
 52
90.0
 71
     2
 49
0.5
 62
   256
  6
BYLAYER
 49
-0.5
 62
   256
  6
BYLAYER
  0
ACDBPLACEHOLDER
  5
21BD
102
{ACAD_REACTORS
330
21BC
102
}
330
21BC
  0
DICTIONARYVAR
  5
2239
102
{ACAD_REACTORS
330
2238
102
}
330
2238
100
DictionaryVariables
280
     0
  1
1
  0
ENDSEC
  0
EOF
