  0
SECTION
  2
HEADER
  9
$ACADVER
  1
AC1015
  9
$ACADMAINTVER
 70
    14
  9
$DWGCODEPAGE
  3
ANSI_932
  9
$INSBASE
 10
0.0
 20
0.0
 30
0.0
  9
$EXTMIN
 10
-10.01307508202307
 20
-257.0909070623889
 30
-0.0015258207003583
  9
$EXTMAX
 10
418.4900545138149
 20
198.0138909081551
 30
0.0000000349246037
  9
$LIMMIN
 10
0.0
 20
0.0
  9
$LIMMAX
 10
12.0
 20
9.0
  9
$ORTHOMODE
 70
     0
  9
$REGENMODE
 70
     1
  9
$FILLMODE
 70
     1
  9
$QTEXTMODE
 70
     0
  9
$MIRRTEXT
 70
     1
  9
$LTSCALE
 40
1.0
  9
$ATTMODE
 70
     1
  9
$TEXTSIZE
 40
0.2
  9
$TRACEWID
 40
0.05
  9
$TEXTSTYLE
  7
STANDARD
  9
$CLAYER
  8
0
  9
$CELTYPE
  6
CONTINUOUS
  9
$CECOLOR
 62
   256
  9
$CELTSCALE
 40
1.0
  9
$DISPSILH
 70
     0
  9
$DIMSCALE
 40
1.0
  9
$DIMASZ
 40
1.0
  9
$DIMEXO
 40
2.54
  9
$DIMDLI
 40
0.38
  9
$DIMRND
 40
0.0
  9
$DIMDLE
 40
0.0
  9
$DIMEXE
 40
2.54
  9
$DIMTP
 40
0.0
  9
$DIMTM
 40
0.0
  9
$DIMTXT
 40
3.2
  9
$DIMCEN
 40
0.09
  9
$DIMTSZ
 40
0.0
  9
$DIMTOL
 70
     0
  9
$DIMLIM
 70
     0
  9
$DIMTIH
 70
     0
  9
$DIMTOH
 70
     0
  9
$DIMSE1
 70
     0
  9
$DIMSE2
 70
     0
  9
$DIMTAD
 70
     1
  9
$DIMZIN
 70
     0
  9
$DIMBLK
  1

  9
$DIMASO
 70
     1
  9
$DIMSHO
 70
     0
  9
$DIMPOST
  1

  9
$DIMAPOST
  1

  9
$DIMALT
 70
     0
  9
$DIMALTD
 70
     2
  9
$DIMALTF
 40
25.4
  9
$DIMLFAC
 40
1.0
  9
$DIMTOFL
 70
     0
  9
$DIMTVP
 40
1.0
  9
$DIMTIX
 70
     0
  9
$DIMSOXD
 70
     0
  9
$DIMSAH
 70
     1
  9
$DIMBLK1
  1

  9
$DIMBLK2
  1

  9
$DIMSTYLE
  2
STANDARD
  9
$DIMCLRD
 70
     0
  9
$DIMCLRE
 70
     0
  9
$DIMCLRT
 70
     0
  9
$DIMTFAC
 40
1.0
  9
$DIMGAP
 40
1.6
  9
$DIMJUST
 70
     0
  9
$DIMSD1
 70
     0
  9
$DIMSD2
 70
     0
  9
$DIMTOLJ
 70
     1
  9
$DIMTZIN
 70
     0
  9
$DIMALTZ
 70
     0
  9
$DIMALTTZ
 70
     0
  9
$DIMUPT
 70
     0
  9
$DIMDEC
 70
     4
  9
$DIMTDEC
 70
     4
  9
$DIMALTU
 70
     2
  9
$DIMALTTD
 70
     2
  9
$DIMTXSTY
  7
STANDARD
  9
$DIMAUNIT
 70
     0
  9
$DIMADEC
 70
     0
  9
$DIMALTRND
 40
0.0
  9
$DIMAZIN
 70
     0
  9
$DIMDSEP
 70
    46
  9
$DIMATFIT
 70
     3
  9
$DIMFRAC
 70
     0
  9
$DIMLDRBLK
  1

  9
$DIMLUNIT
 70
     2
  9
$DIMLWD
 70
    -2
  9
$DIMLWE
 70
    -2
  9
$DIMTMOVE
 70
     0
  9
$LUNITS
 70
     2
  9
$LUPREC
 70
     4
  9
$SKETCHINC
 40
0.1
  9
$FILLETRAD
 40
0.0
  9
$AUNITS
 70
     0
  9
$AUPREC
 70
     0
  9
$MENU
  1
.
  9
$ELEVATION
 40
0.0
  9
$PELEVATION
 40
0.0
  9
$THICKNESS
 40
0.0
  9
$LIMCHECK
 70
     0
  9
$CHAMFERA
 40
0.0
  9
$CHAMFERB
 40
0.0
  9
$CHAMFERC
 40
0.0
  9
$CHAMFERD
 40
0.0
  9
$SKPOLY
 70
     0
  9
$TDCREATE
 40
2452488.423138738
  9
$TDUCREATE
 40
2452488.048138738
  9
$TDUPDATE
 40
2456906.721065185
  9
$TDUUPDATE
 40
2456906.346065185
  9
$TDINDWG
 40
0.2869060185
  9
$TDUSRTIMER
 40
0.2869058333
  9
$USRTIMER
 70
     1
  9
$ANGBASE
 50
0.0
  9
$ANGDIR
 70
     0
  9
$PDMODE
 70
     3
  9
$PDSIZE
 40
0.0
  9
$PLINEWID
 40
0.0
  9
$SPLFRAME
 70
     0
  9
$SPLINETYPE
 70
     6
  9
$SPLINESEGS
 70
     8
  9
$HANDSEED
  5
4F3E
  9
$SURFTAB1
 70
     6
  9
$SURFTAB2
 70
     6
  9
$SURFTYPE
 70
     6
  9
$SURFU
 70
     6
  9
$SURFV
 70
     6
  9
$UCSBASE
  2

  9
$UCSNAME
  2

  9
$UCSORG
 10
0.0
 20
0.0
 30
0.0
  9
$UCSXDIR
 10
1.0
 20
0.0
 30
0.0
  9
$UCSYDIR
 10
0.0
 20
1.0
 30
0.0
  9
$UCSORTHOREF
  2

  9
$UCSORTHOVIEW
 70
     0
  9
$UCSORGTOP
 10
0.0
 20
0.0
 30
0.0
  9
$UCSORGBOTTOM
 10
0.0
 20
0.0
 30
0.0
  9
$UCSORGLEFT
 10
0.0
 20
0.0
 30
0.0
  9
$UCSORGRIGHT
 10
0.0
 20
0.0
 30
0.0
  9
$UCSORGFRONT
 10
0.0
 20
0.0
 30
0.0
  9
$UCSORGBACK
 10
0.0
 20
0.0
 30
0.0
  9
$PUCSBASE
  2

  9
$PUCSNAME
  2

  9
$PUCSORG
 10
0.0
 20
0.0
 30
0.0
  9
$PUCSXDIR
 10
1.0
 20
0.0
 30
0.0
  9
$PUCSYDIR
 10
0.0
 20
1.0
 30
0.0
  9
$PUCSORTHOREF
  2

  9
$PUCSORTHOVIEW
 70
     0
  9
$PUCSORGTOP
 10
0.0
 20
0.0
 30
0.0
  9
$PUCSORGBOTTOM
 10
0.0
 20
0.0
 30
0.0
  9
$PUCSORGLEFT
 10
0.0
 20
0.0
 30
0.0
  9
$PUCSORGRIGHT
 10
0.0
 20
0.0
 30
0.0
  9
$PUCSORGFRONT
 10
0.0
 20
0.0
 30
0.0
  9
$PUCSORGBACK
 10
0.0
 20
0.0
 30
0.0
  9
$USERI1
 70
     0
  9
$USERI2
 70
     0
  9
$USERI3
 70
     0
  9
$USERI4
 70
     0
  9
$USERI5
 70
     0
  9
$USERR1
 40
0.0
  9
$USERR2
 40
0.0
  9
$USERR3
 40
0.0
  9
$USERR4
 40
0.0
  9
$USERR5
 40
0.0
  9
$WORLDVIEW
 70
     1
  9
$SHADEDGE
 70
     3
  9
$SHADEDIF
 70
    70
  9
$TILEMODE
 70
     1
  9
$MAXACTVP
 70
    48
  9
$PINSBASE
 10
0.0
 20
0.0
 30
0.0
  9
$PLIMCHECK
 70
     0
  9
$PEXTMIN
 10
1.000000000000000E+20
 20
1.000000000000000E+20
 30
1.000000000000000E+20
  9
$PEXTMAX
 10
-1.000000000000000E+20
 20
-1.000000000000000E+20
 30
-1.000000000000000E+20
  9
$PLIMMIN
 10
0.0
 20
0.0
  9
$PLIMMAX
 10
12.0
 20
9.0
  9
$UNITMODE
 70
     0
  9
$VISRETAIN
 70
     1
  9
$PLINEGEN
 70
     0
  9
$PSLTSCALE
 70
     1
  9
$TREEDEPTH
 70
  3020
  9
$CMLSTYLE
  2
Standard
  9
$CMLJUST
 70
     0
  9
$CMLSCALE
 40
1.0
  9
$PROXYGRAPHICS
 70
     1
  9
$MEASUREMENT
 70
     0
  9
$CELWEIGHT
370
    -1
  9
$ENDCAPS
280
     0
  9
$JOINSTYLE
280
     0
  9
$LWDISPLAY
290
     0
  9
$INSUNITS
 70
     0
  9
$HYPERLINKBASE
  1

  9
$STYLESHEET
  1

  9
$XEDIT
290
     1
  9
$CEPSNTYPE
380
     0
  9
$PSTYLEMODE
290
     1
  9
$FINGERPRINTGUID
  2
{FFE95C04-33D2-4560-80D0-1E2918E4EC86}
  9
$VERSIONGUID
  2
{6CD4008D-ADD5-4296-A6E8-442568F1653D}
  9
$EXTNAMES
290
     1
  9
$PSVPSCALE
 40
0.0
  9
$OLESTARTUP
290
     0
  0
ENDSEC
  0
SECTION
  2
CLASSES
  0
CLASS
  1
ACDBDICTIONARYWDFLT
  2
AcDbDictionaryWithDefault
  3
AutoCAD 2000
 90
        0
280
     0
281
     0
  0
CLASS
  1
ACDBPLACEHOLDER
  2
AcDbPlaceHolder
  3
AutoCAD 2000
 90
        0
280
     0
281
     0
  0
CLASS
  1
LAYOUT
  2
AcDbLayout
  3
AutoCAD 2000
 90
        0
280
     0
281
     0
  0
CLASS
  1
DICTIONARYVAR
  2
AcDbDictionaryVar
  3
AutoCAD 2000
 90
        0
280
     0
281
     0
  0
CLASS
  1
LONG_TRANSACTION
  2
AcDbLongTransaction
  3
AutoCAD 2000
 90
    32768
280
     0
281
     0
  0
CLASS
  1
LWPOLYLINE
  2
AcDbPolyline
  3
AutoCAD 2000
 90
    32768
280
     0
281
     1
  0
CLASS
  1
HATCH
  2
AcDbHatch
  3
AutoCAD 2000
 90
    32768
280
     0
281
     1
  0
CLASS
  1
XRECORD
  2
AcDbXrecord
  3
AutoCAD 2000
 90
    32768
280
     0
281
     0
  0
ENDSEC
  0
SECTION
  2
TABLES
  0
TABLE
  2
VPORT
  5
21B6
330
0
100
AcDbSymbolTable
 70
     2
  0
VPORT
  5
4F3D
330
21B6
100
AcDbSymbolTableRecord
100
AcDbViewportTableRecord
  2
*Active
 70
     0
 10
0.0
 20
0.0
 11
1.0
 21
1.0
 12
204.2384897158959
 22
-29.53850807711688
 13
0.0
 23
0.0
 14
1.0
 24
1.0
 15
0.0
 25
0.0
 16
0.0
 26
0.0
 36
1.0
 17
0.0
 27
0.0
 37
0.0
 40
457.994352243373
 41
1.953389830508474
 42
50.0
 43
0.0
 44
0.0
 50
0.0
 51
0.0
 71
     0
 72
   100
 73
     1
 74
     3
 75
     0
 76
     0
 77
     0
 78
     0
281
     0
 65
     1
110
0.0
120
0.0
130
0.0
111
1.0
121
0.0
131
0.0
112
0.0
122
1.0
132
0.0
 79
     0
146
0.0
  0
ENDTAB
  0
TABLE
  2
LTYPE
  5
21B3
330
0
100
AcDbSymbolTable
 70
     2
  0
LTYPE
  5
21C1
330
21B3
100
AcDbSymbolTableRecord
100
AcDbLinetypeTableRecord
  2
ByBlock
 70
     0
  3

 72
    65
 73
     0
 40
0.0
  0
LTYPE
  5
21C2
330
21B3
100
AcDbSymbolTableRecord
100
AcDbLinetypeTableRecord
  2
ByLayer
 70
     0
  3

 72
    65
 73
     0
 40
0.0
  0
LTYPE
  5
21C3
330
21B3
100
AcDbSymbolTableRecord
100
AcDbLinetypeTableRecord
  2
CONTINUOUS
 70
     0
  3
Solid line
 72
    65
 73
     0
 40
0.0
  0
LTYPE
  5
21D1
330
21B3
100
AcDbSymbolTableRecord
100
AcDbLinetypeTableRecord
  2
CENTER
 70
     0
  3
__ . __
 72
    65
 73
     4
 40
7.0
 49
4.0
 74
     0
 49
-1.0
 74
     0
 49
1.0
 74
     0
 49
-1.0
 74
     0
  0
ENDTAB
  0
TABLE
  2
LAYER
  5
21B0
102
{ACAD_XDICTIONARY
360
2244
102
}
330
0
100
AcDbSymbolTable
 70
     1
  0
LAYER
  5
21BE
330
21B0
100
AcDbSymbolTableRecord
100
AcDbLayerTableRecord
  2
0
 70
     0
 62
     7
  6
CONTINUOUS
370
    -3
390
21BD
  0
ENDTAB
  0
TABLE
  2
STYLE
  5
21B1
330
0
100
AcDbSymbolTable
 70
     1
  0
STYLE
  5
21BF
330
21B1
100
AcDbSymbolTableRecord
100
AcDbTextStyleTableRecord
  2
STANDARD
 70
     0
 40
0.0
 41
1.0
 50
0.0
 71
     0
 42
0.2
  3
txt
  4
BIGFONT
  0
ENDTAB
  0
TABLE
  2
VIEW
  5
21B4
330
0
100
AcDbSymbolTable
 70
     1
  0
VIEW
  5
21DE
330
21B4
100
AcDbSymbolTableRecord
100
AcDbViewTableRecord
  2
OLE1
 70
     0
 40
3692.141019219747
 10
1914.591370701856
 20
1272.206200738182
 41
4595.022665841169
 11
0.0
 21
0.0
 31
1.0
 12
0.0
 22
0.0
 32
0.0
 42
50.0
 43
0.0
 44
0.0
 50
0.0
 71
     0
281
     0
 72
     1
110
0.0
120
0.0
130
0.0
111
1.0
121
0.0
131
0.0
112
0.0
122
1.0
132
0.0
 79
     0
146
0.0
  0
ENDTAB
  0
TABLE
  2
UCS
  5
21B5
330
0
100
AcDbSymbolTable
 70
     0
  0
ENDTAB
  0
TABLE
  2
APPID
  5
21B7
330
0
100
AcDbSymbolTable
 70
     8
  0
APPID
  5
21C0
330
21B7
100
AcDbSymbolTableRecord
100
AcDbRegAppTableRecord
  2
ACAD
 70
     0
  0
APPID
  5
21DF
330
21B7
100
AcDbSymbolTableRecord
100
AcDbRegAppTableRecord
  2
MCAD_NO_VIS
 70
     0
  0
APPID
  5
21E0
330
21B7
100
AcDbSymbolTableRecord
100
AcDbRegAppTableRecord
  2
ACAD_TEMP_GRAPHIC
 70
     0
  0
APPID
  5
21E1
330
21B7
100
AcDbSymbolTableRecord
100
AcDbRegAppTableRecord
  2
ACATTRIBSERVICES
 70
     0
  0
APPID
  5
21E2
330
21B7
100
AcDbSymbolTableRecord
100
AcDbRegAppTableRecord
  2
CONTENTBLOCKICON
 70
     0
  0
APPID
  5
2241
330
21B7
100
AcDbSymbolTableRecord
100
AcDbRegAppTableRecord
  2
ACAD_DSTYLE_DIMJAG
 70
     0
  0
APPID
  5
2242
330
21B7
100
AcDbSymbolTableRecord
100
AcDbRegAppTableRecord
  2
ACAD_DSTYLE_DIMTALN
 70
     0
  0
APPID
  5
2243
330
21B7
100
AcDbSymbolTableRecord
100
AcDbRegAppTableRecord
  2
ACAD_PSEXT
 70
     0
  0
ENDTAB
  0
TABLE
  2
DIMSTYLE
  5
21B8
330
0
100
AcDbSymbolTable
 70
     1
100
AcDbDimStyleTable
 71
     0
  0
DIMSTYLE
105
21E3
330
21B8
100
AcDbSymbolTableRecord
100
AcDbDimStyleTableRecord
  2
STANDARD
 70
     0
279
     2
340
21BF
  0
ENDTAB
  0
TABLE
  2
BLOCK_RECORD
  5
21AF
330
0
100
AcDbSymbolTable
 70
     0
  0
BLOCK_RECORD
  5
21CC
102
{ACAD_XDICTIONARY
360
21F8
102
}
330
21AF
100
AcDbSymbolTableRecord
100
AcDbBlockTableRecord
  2
*Model_Space
340
21CF
  0
BLOCK_RECORD
  5
21C8
102
{ACAD_XDICTIONARY
360
21FA
102
}
330
21AF
100
AcDbSymbolTableRecord
100
AcDbBlockTableRecord
  2
*Paper_Space
340
21CB
  0
ENDTAB
  0
ENDSEC
  0
SECTION
  2
BLOCKS
  0
BLOCK
  5
21CD
330
21CC
100
AcDbEntity
  8
0
100
AcDbBlockBegin
  2
*Model_Space
 70
     0
 10
0.0
 20
0.0
 30
0.0
  3
*Model_Space
  1

  0
ENDBLK
  5
21CE
330
21CC
100
AcDbEntity
  8
0
100
AcDbBlockEnd
  0
BLOCK
  5
21C9
330
21C8
100
AcDbEntity
 67
     1
  8
0
100
AcDbBlockBegin
  2
*Paper_Space
 70
     0
 10
0.0
 20
0.0
 30
0.0
  3
*Paper_Space
  1

  0
ENDBLK
  5
21CA
330
21C8
100
AcDbEntity
 67
     1
  8
0
100
AcDbBlockEnd
  0
ENDSEC
  0
SECTION
  2
ENTITIES
  0
TEXT
  5
F6E
330
21CC
100
AcDbEntity
  8
0
  6
Continuous
100
AcDbText
 10
0.0
 20
150.0
 30
0.0
 40
48.000002
  1
SGQ 2.5S
 41
1.32095
100
AcDbText
  0
LINE
  5
485C
330
21CC
100
AcDbEntity
  8
0
  6
CENTER
100
AcDbLine
 10
260.0000037252903
 20
-195.5770196363273
 30
0.0
 11
-10.0
 21
-195.5770196363273
 31
0.0
  0
LINE
  5
485D
330
21CC
100
AcDbEntity
  8
0
  6
Continuous
100
AcDbLine
 10
75.00000111758708
 20
-163.8270191632154
 30
0.0
 11
6.796831054137555
 21
-163.8270191632154
 31
0.0
  0
ARC
  5
485E
330
21CC
100
AcDbEntity
  8
0
  6
Continuous
100
AcDbCircle
 10
75.00000111758708
 20
-161.8270191334131
 30
0.0
 40
2.000000029802321
100
AcDbArc
 50
270.0000043257139
 51
0.000005008963459
  0
ARC
  5
485F
330
21CC
100
AcDbEntity
  8
0
  6
Continuous
100
AcDbCircle
 10
32.00585985192446
 20
-195.5770196363278
 30
0.0
 40
55.06845937771288
100
AcDbArc
 50
326.0246983257244
 51
33.97530167427558
  0
LINE
  5
4860
330
21CC
100
AcDbEntity
  8
0
  6
Continuous
100
AcDbLine
 10
122.0000018626449
 20
-144.0770189993031
 30
0.0
 11
122.0000018626449
 21
-161.5770189993031
 31
0.0
  0
LINE
  5
4861
330
21CC
100
AcDbEntity
  8
0
  6
Continuous
100
AcDbLine
 10
110.0000018626449
 20
-145.321465276922
 30
0.0
 11
110.0000018626449
 21
-160.3325727216852
 31
0.0
  0
LINE
  5
4862
330
21CC
100
AcDbEntity
  8
0
  6
Continuous
100
AcDbLine
 10
128.0000018626455
 20
-148.8270189993031
 30
0.0
 11
122.0000018626447
 21
-148.8270189993031
 31
0.0
  0
LINE
  5
4863
330
21CC
100
AcDbEntity
  8
0
  6
Continuous
100
AcDbLine
 10
128.0000018626451
 20
-156.8270189993031
 30
0.0
 11
122.0000018626451
 21
-156.8270189993031
 31
0.0
  0
LINE
  5
4864
330
21CC
100
AcDbEntity
  8
0
  6
Continuous
100
AcDbLine
 10
73.00000186264469
 20
-144.0770189993031
 30
0.0
 11
122.0000018626447
 21
-144.0770189993031
 31
0.0
  0
LINE
  5
4865
330
21CC
100
AcDbEntity
  8
0
  6
Continuous
100
AcDbLine
 10
73.00000186264515
 20
-161.5770189993031
 30
0.0
 11
122.0000018626451
 21
-161.5770189993031
 31
0.0
  0
LINE
  5
4866
330
21CC
100
AcDbEntity
  8
0
  6
Continuous
100
AcDbLine
 10
64.50000186264492
 20
-147.1707661382811
 30
0.0
 11
64.50000186264492
 21
-158.483271860327
 31
0.0
  0
LINE
  5
4867
330
21CC
100
AcDbEntity
  8
0
  6
Continuous
100
AcDbLine
 10
72.99999995676057
 20
-144.0770195458126
 30
0.0
 11
64.50000161584035
 21
-147.1707660440015
 31
0.0
  0
LINE
  5
4868
330
21CC
100
AcDbEntity
  8
0
  6
Continuous
100
AcDbLine
 10
72.99999995676126
 20
-161.5770184527937
 30
0.0
 11
64.50000161584103
 21
-158.4832719546047
 31
0.0
  0
LINE
  5
4869
330
21CC
100
AcDbEntity
  8
0
  6
Continuous
100
AcDbLine
 10
104.5000018626449
 20
-147.1978538267267
 30
0.0
 11
104.5000018626449
 21
-158.4561841718805
 31
0.0
  0
LINE
  5
486A
330
21CC
100
AcDbEntity
  8
0
  6
Continuous
100
AcDbLine
 10
105.2248954325909
 20
-145.3214652769215
 30
0.0
 11
110.0000018626446
 21
-145.3214652769215
 31
0.0
  0
LINE
  5
486B
330
21CC
100
AcDbEntity
  8
0
  6
Continuous
100
AcDbLine
 10
105.2248954325912
 20
-160.3325727216847
 30
0.0
 11
110.0000018626451
 21
-160.3325727216847
 31
0.0
  0
LINE
  5
486C
330
21CC
100
AcDbEntity
  8
0
  6
Continuous
100
AcDbLine
 10
105.2248954325909
 20
-149.0742421381123
 30
0.0
 11
110.0000018626446
 21
-149.0742421381123
 31
0.0
  0
LINE
  5
486D
330
21CC
100
AcDbEntity
  8
0
  6
Continuous
100
AcDbLine
 10
105.2248954325912
 20
-156.5797958604939
 30
0.0
 11
110.0000018626451
 21
-156.5797958604939
 31
0.0
  0
LINE
  5
486E
330
21CC
100
AcDbEntity
  8
0
  6
Continuous
100
AcDbLine
 10
64.50000186264469
 20
-147.1707661382802
 30
0.0
 11
104.5000018626446
 21
-147.1707661382802
 31
0.0
  0
LINE
  5
486F
330
21CC
100
AcDbEntity
  8
0
  6
Continuous
100
AcDbLine
 10
64.50000186264515
 20
-158.4832718603261
 30
0.0
 11
104.5000018626451
 21
-158.4832718603261
 31
0.0
  0
LINE
  5
4870
330
21CC
100
AcDbEntity
  8
0
  6
Continuous
100
AcDbLine
 10
110.0000018626446
 20
-145.8270189993031
 30
0.0
 11
122.0000018626447
 21
-145.8270189993031
 31
0.0
  0
LINE
  5
4871
330
21CC
100
AcDbEntity
  8
0
  6
Continuous
100
AcDbLine
 10
110.0000018626451
 20
-159.8270189993031
 30
0.0
 11
122.0000018626451
 21
-159.8270189993031
 31
0.0
  0
ARC
  5
4872
330
21CC
100
AcDbEntity
  8
0
  6
Continuous
100
AcDbCircle
 10
107.2909621745345
 20
-158.4561841718805
 30
0.0
 40
2.790960788726806
100
AcDbArc
 50
137.7544653697283
 51
222.2455309877982
  0
ARC
  5
4873
330
21CC
100
AcDbEntity
  8
0
  6
Continuous
100
AcDbCircle
 10
114.5765018016097
 20
-152.8270189993036
 30
0.0
 40
10.07649993896484
100
AcDbArc
 50
158.1345204190074
 51
201.8654759385425
  0
ARC
  5
4874
330
21CC
100
AcDbEntity
  8
0
  6
Continuous
100
AcDbCircle
 10
107.2909621745345
 20
-147.1978538267267
 30
0.0
 40
2.790960788726806
100
AcDbArc
 50
137.7544653697283
 51
222.2455309877982
  0
LINE
  5
4875
330
21CC
100
AcDbEntity
  8
0
  6
Continuous
100
AcDbLine
 10
73.00000186264469
 20
-247.0770202733515
 30
0.0
 11
122.0000018626447
 21
-247.0770202733515
 31
0.0
  0
LINE
  5
4876
330
21CC
100
AcDbEntity
  8
0
  6
Continuous
100
AcDbLine
 10
64.50000186264515
 20
-232.6707674123285
 30
0.0
 11
104.5000018626451
 21
-232.6707674123285
 31
0.0
  0
LINE
  5
4877
330
21CC
100
AcDbEntity
  8
0
  6
Continuous
100
AcDbLine
 10
64.50000186264469
 20
-243.9832731343745
 30
0.0
 11
104.5000018626446
 21
-243.9832731343745
 31
0.0
  0
LINE
  5
4878
330
21CC
100
AcDbEntity
  8
0
  6
Continuous
100
AcDbLine
 10
73.00000186264515
 20
-229.5770202733515
 30
0.0
 11
122.0000018626451
 21
-229.5770202733515
 31
0.0
  0
LINE
  5
4879
330
21CC
100
AcDbEntity
  8
0
  6
Continuous
100
AcDbLine
 10
64.50000186264492
 20
-243.9832731343735
 30
0.0
 11
64.50000186264492
 21
-232.6707674123276
 31
0.0
  0
LINE
  5
487A
330
21CC
100
AcDbEntity
  8
0
  6
Continuous
100
AcDbLine
 10
75.00000111758708
 20
-227.3270201094392
 30
0.0
 11
6.796831053806954
 21
-227.3270201094392
 31
0.0
  0
LINE
  5
487B
330
21CC
100
AcDbEntity
  8
0
  6
Continuous
100
AcDbLine
 10
72.99999995676126
 20
-229.5770208198609
 30
0.0
 11
64.50000161584103
 21
-232.6707673180499
 31
0.0
  0
ARC
  5
487C
330
21CC
100
AcDbEntity
  8
0
  6
Continuous
100
AcDbCircle
 10
75.00000111758708
 20
-229.3270201392415
 30
0.0
 40
2.000000029802321
100
AcDbArc
 50
359.9999949910365
 51
89.99999567428604
  0
LINE
  5
487D
330
21CC
100
AcDbEntity
  8
0
  6
Continuous
100
AcDbLine
 10
72.99999995676057
 20
-247.0770197268421
 30
0.0
 11
64.50000161584035
 21
-243.9832732286531
 31
0.0
  0
LINE
  5
487E
330
21CC
100
AcDbEntity
  8
0
  6
Continuous
100
AcDbLine
 10
122.0000018626449
 20
-247.0770202733515
 30
0.0
 11
122.0000018626449
 21
-229.5770202733515
 31
0.0
  0
ARC
  5
487F
330
21CC
100
AcDbEntity
  8
0
  6
Continuous
100
AcDbCircle
 10
114.5765018016097
 20
-238.327020273351
 30
0.0
 40
10.07649993896484
100
AcDbArc
 50
158.1345240614574
 51
201.8654795809925
  0
LINE
  5
4880
330
21CC
100
AcDbEntity
  8
0
  6
Continuous
100
AcDbLine
 10
104.5000018626449
 20
-243.956185445928
 30
0.0
 11
104.5000018626449
 21
-232.6978551007741
 31
0.0
  0
LINE
  5
4881
330
21CC
100
AcDbEntity
  8
0
  6
Continuous
100
AcDbLine
 10
110.0000018626449
 20
-245.8325739957326
 30
0.0
 11
110.0000018626449
 21
-230.8214665509694
 31
0.0
  0
LINE
  5
4882
330
21CC
100
AcDbEntity
  8
0
  6
Continuous
100
AcDbLine
 10
128.000001862645
 20
-234.3270202733515
 30
0.0
 11
122.0000018626451
 21
-234.3270202733515
 31
0.0
  0
ARC
  5
4883
330
21CC
100
AcDbEntity
  8
0
  6
Continuous
100
AcDbCircle
 10
107.2909621745345
 20
-232.6978551007741
 30
0.0
 40
2.790960788726806
100
AcDbArc
 50
137.7544690122017
 51
222.2455346302716
  0
LINE
  5
4884
330
21CC
100
AcDbEntity
  8
0
  6
Continuous
100
AcDbLine
 10
110.0000018626451
 20
-231.3270202733515
 30
0.0
 11
122.0000018626451
 21
-231.3270202733515
 31
0.0
  0
LINE
  5
4885
330
21CC
100
AcDbEntity
  8
0
  6
Continuous
100
AcDbLine
 10
105.2248954325912
 20
-230.8214665509699
 30
0.0
 11
110.0000018626451
 21
-230.8214665509699
 31
0.0
  0
LINE
  5
4886
330
21CC
100
AcDbEntity
  8
0
  6
Continuous
100
AcDbLine
 10
105.2248954325912
 20
-234.5742434121607
 30
0.0
 11
110.0000018626451
 21
-234.5742434121607
 31
0.0
  0
LINE
  5
4887
330
21CC
100
AcDbEntity
  8
0
  6
Continuous
100
AcDbLine
 10
128.0000018626454
 20
-242.3270202733515
 30
0.0
 11
122.0000018626447
 21
-242.3270202733515
 31
0.0
  0
LINE
  5
4888
330
21CC
100
AcDbEntity
  8
0
  6
Continuous
100
AcDbLine
 10
110.0000018626446
 20
-245.3270202733515
 30
0.0
 11
122.0000018626447
 21
-245.3270202733515
 31
0.0
  0
ARC
  5
4889
330
21CC
100
AcDbEntity
  8
0
  6
Continuous
100
AcDbCircle
 10
107.2909621745345
 20
-243.956185445928
 30
0.0
 40
2.790960788726806
100
AcDbArc
 50
137.7544690122017
 51
222.2455346302716
  0
LINE
  5
488A
330
21CC
100
AcDbEntity
  8
0
  6
Continuous
100
AcDbLine
 10
105.2248954325909
 20
-242.0797971345423
 30
0.0
 11
110.0000018626446
 21
-242.0797971345423
 31
0.0
  0
LINE
  5
488B
330
21CC
100
AcDbEntity
  8
0
  6
Continuous
100
AcDbLine
 10
105.2248954325909
 20
-245.8325739957331
 30
0.0
 11
110.0000018626446
 21
-245.8325739957331
 31
0.0
  0
LINE
  5
488C
330
21CC
100
AcDbEntity
  8
0
  6
Continuous
100
AcDbLine
 10
122.0000018179416
 20
75.00000111758708
 30
0.0
 11
122.0000018179416
 21
50.84289601938781
 31
0.0
  0
LINE
  5
488D
330
21CC
100
AcDbEntity
  8
0
  6
Continuous
100
AcDbLine
 10
110.0000016391277
 20
75.00000111758708
 30
0.0
 11
110.0000016391277
 21
59.38223727457899
 31
0.0
  0
LINE
  5
488E
330
21CC
100
AcDbEntity
  8
0
  6
Continuous
100
AcDbLine
 10
122.0000018179416
 20
75.00000111758708
 30
0.0
 11
110.0000016391277
 21
75.00000111758708
 31
0.0
  0
LINE
  5
488F
330
21CC
100
AcDbEntity
  8
0
  6
Continuous
100
AcDbLine
 10
140.0000020861625
 20
75.00000111758708
 30
0.0
 11
140.0000020861625
 21
59.38223727457899
 31
0.0
  0
LINE
  5
4890
330
21CC
100
AcDbEntity
  8
0
  6
Continuous
100
AcDbLine
 10
128.0000019073486
 20
75.00000111758708
 30
0.0
 11
140.0000020861625
 21
75.00000111758708
 31
0.0
  0
LINE
  5
4891
330
21CC
100
AcDbEntity
  8
0
  6
Continuous
100
AcDbLine
 10
128.0000019073486
 20
75.00000111758708
 30
0.0
 11
128.0000019073486
 21
50.84289601938781
 31
0.0
  0
LINE
  5
4892
330
21CC
100
AcDbEntity
  8
0
  6
Continuous
100
AcDbLine
 10
128.0000019073486
 20
72.0000010728836
 30
0.0
 11
122.0000018179416
 21
72.0000010728836
 31
0.0
  0
LINE
  5
4893
330
21CC
100
AcDbEntity
  8
0
  6
Continuous
100
AcDbLine
 10
128.0000019073486
 20
64.00000095367431
 30
0.0
 11
122.0000018179416
 21
64.00000095367431
 31
0.0
  0
LINE
  5
4894
330
21CC
100
AcDbEntity
  8
0
  6
Continuous
100
AcDbLine
 10
110.0000016391277
 20
-75.00000111758708
 30
0.0
 11
110.0000016391277
 21
-59.38223727457944
 31
0.0
  0
LINE
  5
4895
330
21CC
100
AcDbEntity
  8
0
  6
Continuous
100
AcDbLine
 10
122.0000018179416
 20
-75.00000111758708
 30
0.0
 11
110.0000016391277
 21
-75.00000111758708
 31
0.0
  0
LINE
  5
4896
330
21CC
100
AcDbEntity
  8
0
  6
Continuous
100
AcDbLine
 10
140.0000020861625
 20
-75.00000111758708
 30
0.0
 11
140.0000020861625
 21
-59.38223727457944
 31
0.0
  0
LINE
  5
4897
330
21CC
100
AcDbEntity
  8
0
  6
Continuous
100
AcDbLine
 10
128.0000019073486
 20
-75.00000111758708
 30
0.0
 11
140.0000020861625
 21
-75.00000111758708
 31
0.0
  0
LINE
  5
4898
330
21CC
100
AcDbEntity
  8
0
  6
Continuous
100
AcDbLine
 10
122.0000018179416
 20
-75.00000111758708
 30
0.0
 11
122.0000018179416
 21
-50.84289601938826
 31
0.0
  0
LINE
  5
4899
330
21CC
100
AcDbEntity
  8
0
  6
Continuous
100
AcDbLine
 10
128.0000019073486
 20
-75.00000111758708
 30
0.0
 11
128.0000019073486
 21
-50.84289601938826
 31
0.0
  0
LINE
  5
489A
330
21CC
100
AcDbEntity
  8
0
  6
Continuous
100
AcDbLine
 10
128.0000019073486
 20
-72.0000010728836
 30
0.0
 11
122.0000018179416
 21
-72.0000010728836
 31
0.0
  0
LINE
  5
489B
330
21CC
100
AcDbEntity
  8
0
  6
Continuous
100
AcDbLine
 10
128.0000019073486
 20
-64.00000095367431
 30
0.0
 11
122.0000018179416
 21
-64.00000095367431
 31
0.0
  0
LINE
  5
489C
330
21CC
100
AcDbEntity
  8
0
  6
Continuous
100
AcDbLine
 10
153.0000022947788
 20
-64.00000095367431
 30
0.0
 11
148.5000022128224
 21
-64.00000095367431
 31
0.0
  0
LINE
  5
489D
330
21CC
100
AcDbEntity
  8
0
  6
Continuous
100
AcDbLine
 10
148.5000022128224
 20
-63.00000093877315
 30
0.0
 11
148.5000022128224
 21
-73.00000108778476
 31
0.0
  0
LINE
  5
489E
330
21CC
100
AcDbEntity
  8
0
  6
Continuous
100
AcDbLine
 10
154.0000022947788
 20
-65.00000095367432
 30
0.0
 11
154.0000022947788
 21
-71.0000010728836
 31
0.0
  0
LINE
  5
489F
330
21CC
100
AcDbEntity
  8
0
  6
Continuous
100
AcDbLine
 10
147.5000021979212
 20
-62.00000092387199
 30
0.0
 11
146.5000021830201
 21
-62.00000092387199
 31
0.0
  0
LINE
  5
48A0
330
21CC
100
AcDbEntity
  8
0
  6
Continuous
100
AcDbLine
 10
147.5000021979212
 20
-74.00000110268592
 30
0.0
 11
146.5000021830201
 21
-74.00000110268592
 31
0.0
  0
LINE
  5
48A1
330
21CC
100
AcDbEntity
  8
0
  6
Continuous
100
AcDbLine
 10
145.7751086022722
 20
-68.00000101327896
 30
0.0
 11
140.7248956669104
 21
-68.00000101327896
 31
0.0
  0
LINE
  5
48A2
330
21CC
100
AcDbEntity
  8
0
  6
Continuous
100
AcDbLine
 10
146.5000021830201
 20
-74.5000011101365
 30
0.0
 11
146.5000021830201
 21
-61.50000091642141
 31
0.0
  0
LINE
  5
48A3
330
21CC
100
AcDbEntity
  8
0
  6
Continuous
100
AcDbLine
 10
146.5000021830201
 20
-74.5000011101365
 30
0.0
 11
140.0000020861625
 21
-74.5000011101365
 31
0.0
  0
LINE
  5
48A4
330
21CC
100
AcDbEntity
  8
0
  6
Continuous
100
AcDbLine
 10
146.5000021830201
 20
-61.50000091642141
 30
0.0
 11
140.0000020861625
 21
-61.50000091642141
 31
0.0
  0
LINE
  5
48A5
330
21CC
100
AcDbEntity
  8
0
  6
Continuous
100
AcDbLine
 10
153.0000022947788
 20
-72.0000010728836
 30
0.0
 11
148.5000022128224
 21
-72.0000010728836
 31
0.0
  0
LINE
  5
48A6
330
21CC
100
AcDbEntity
  8
0
  6
Continuous
100
AcDbLine
 10
105.2248951379231
 20
-68.00000101328032
 30
0.0
 11
110.0000016391313
 21
-68.00000101327987
 31
0.0
  0
LINE
  5
48A7
330
21CC
100
AcDbEntity
  8
0
  6
Continuous
100
AcDbLine
 10
104.5000015571747
 20
-64.75000096485155
 30
0.0
 11
104.5000015571752
 21
-71.2500010617091
 31
0.0
  0
LINE
  5
48A8
330
21CC
100
AcDbEntity
  8
0
  6
Continuous
100
AcDbLine
 10
105.2248951379226
 20
-61.50000091642278
 30
0.0
 11
110.0000016391309
 21
-61.50000091642232
 31
0.0
  0
LINE
  5
48A9
330
21CC
100
AcDbEntity
  8
0
  6
Continuous
100
AcDbLine
 10
105.2248951379233
 20
-74.50000111013787
 30
0.0
 11
110.0000016391315
 21
-74.50000111013742
 31
0.0
  0
LINE
  5
48AA
330
21CC
100
AcDbEntity
  8
0
  6
Continuous
100
AcDbLine
 10
105.2248951379194
 20
68.00000101327896
 30
0.0
 11
110.0000016391277
 21
68.00000101327896
 31
0.0
  0
LINE
  5
48AB
330
21CC
100
AcDbEntity
  8
0
  6
Continuous
100
AcDbLine
 10
104.5000015571713
 20
64.75000096485018
 30
0.0
 11
104.5000015571713
 21
71.25000106170773
 31
0.0
  0
LINE
  5
48AC
330
21CC
100
AcDbEntity
  8
0
  6
Continuous
100
AcDbLine
 10
105.2248951379194
 20
61.50000091642141
 30
0.0
 11
110.0000016391277
 21
61.50000091642141
 31
0.0
  0
LINE
  5
48AD
330
21CC
100
AcDbEntity
  8
0
  6
Continuous
100
AcDbLine
 10
105.2248951379194
 20
74.5000011101365
 30
0.0
 11
110.0000016391277
 21
74.5000011101365
 31
0.0
  0
LINE
  5
48AE
330
21CC
100
AcDbEntity
  8
0
  6
Continuous
100
AcDbLine
 10
153.0000022947788
 20
64.00000095367431
 30
0.0
 11
148.5000022128224
 21
64.00000095367431
 31
0.0
  0
LINE
  5
48AF
330
21CC
100
AcDbEntity
  8
0
  6
Continuous
100
AcDbLine
 10
148.5000022128224
 20
63.00000093877315
 30
0.0
 11
148.5000022128224
 21
73.00000108778476
 31
0.0
  0
LINE
  5
48B0
330
21CC
100
AcDbEntity
  8
0
  6
Continuous
100
AcDbLine
 10
154.0000022947788
 20
65.00000095367432
 30
0.0
 11
154.0000022947788
 21
71.0000010728836
 31
0.0
  0
LINE
  5
48B1
330
21CC
100
AcDbEntity
  8
0
  6
Continuous
100
AcDbLine
 10
147.5000021979212
 20
62.00000092387199
 30
0.0
 11
146.5000021830201
 21
62.00000092387199
 31
0.0
  0
LINE
  5
48B2
330
21CC
100
AcDbEntity
  8
0
  6
Continuous
100
AcDbLine
 10
147.5000021979212
 20
74.00000110268592
 30
0.0
 11
146.5000021830201
 21
74.00000110268592
 31
0.0
  0
LINE
  5
48B3
330
21CC
100
AcDbEntity
  8
0
  6
Continuous
100
AcDbLine
 10
145.7751086022722
 20
68.00000101327896
 30
0.0
 11
140.7248956669104
 21
68.00000101327896
 31
0.0
  0
LINE
  5
48B4
330
21CC
100
AcDbEntity
  8
0
  6
Continuous
100
AcDbLine
 10
146.5000021830201
 20
74.5000011101365
 30
0.0
 11
146.5000021830201
 21
61.50000091642141
 31
0.0
  0
LINE
  5
48B5
330
21CC
100
AcDbEntity
  8
0
  6
Continuous
100
AcDbLine
 10
146.5000021830201
 20
74.5000011101365
 30
0.0
 11
140.0000020861625
 21
74.5000011101365
 31
0.0
  0
LINE
  5
48B6
330
21CC
100
AcDbEntity
  8
0
  6
Continuous
100
AcDbLine
 10
146.5000021830201
 20
61.50000091642141
 30
0.0
 11
140.0000020861625
 21
61.50000091642141
 31
0.0
  0
LINE
  5
48B7
330
21CC
100
AcDbEntity
  8
0
  6
Continuous
100
AcDbLine
 10
153.0000022947788
 20
72.0000010728836
 30
0.0
 11
148.5000022128224
 21
72.0000010728836
 31
0.0
  0
ARC
  5
48B8
330
21CC
100
AcDbEntity
  8
0
  6
Continuous
100
AcDbCircle
 10
125.0000018626451
 20
0.0
 30
0.0
 40
50.00000074505805
100
AcDbArc
 50
94.49840665341241
 51
265.5015933465875
  0
ARC
  5
48B9
330
21CC
100
AcDbEntity
  8
0
  6
Continuous
100
AcDbCircle
 10
125.0000018626451
 20
0.0
 30
0.0
 40
50.00000074505805
100
AcDbArc
 50
274.4984066534124
 51
85.50159334658758
  0
ARC
  5
48BA
330
21CC
100
AcDbEntity
  8
0
  6
Continuous
100
AcDbCircle
 10
147.5000021979212
 20
-63.00000093877315
 30
0.0
 40
1.00000001490116
100
AcDbArc
 50
359.9999949910365
 51
89.99999567427954
  0
ARC
  5
48BB
330
21CC
100
AcDbEntity
  8
0
  6
Continuous
100
AcDbCircle
 10
147.5000021979212
 20
-73.00000108778476
 30
0.0
 40
1.00000001490116
100
AcDbArc
 50
270.0000043257204
 51
0.000005008963459
  0
ARC
  5
48BC
330
21CC
100
AcDbEntity
  8
0
  6
Continuous
100
AcDbCircle
 10
138.8520070739389
 20
-71.25000106170773
 30
0.0
 40
7.647995109081192
100
AcDbArc
 50
334.8526282968518
 51
25.14737511822298
  0
ARC
  5
48BD
330
21CC
100
AcDbEntity
  8
0
  6
Continuous
100
AcDbCircle
 10
138.8520070739389
 20
-64.75000096485018
 30
0.0
 40
7.647995109081192
100
AcDbArc
 50
334.8526282968518
 51
25.14736828804689
  0
ARC
  5
48BE
330
21CC
100
AcDbEntity
  8
0
  6
Continuous
100
AcDbCircle
 10
147.6479971952435
 20
-71.25000106170773
 30
0.0
 40
7.647995109081192
100
AcDbArc
 50
154.8526281831849
 51
205.1473681743535
  0
ARC
  5
48BF
330
21CC
100
AcDbEntity
  8
0
  6
Continuous
100
AcDbCircle
 10
147.6479971952435
 20
-64.75000096485018
 30
0.0
 40
7.647995109081192
100
AcDbArc
 50
154.8526281831849
 51
205.1473681743535
  0
ARC
  5
48C0
330
21CC
100
AcDbEntity
  8
0
  6
Continuous
100
AcDbCircle
 10
112.1479966662525
 20
-64.75000096485018
 30
0.0
 40
7.647994632244027
100
AcDbArc
 50
154.8526281831849
 51
205.1473681743535
  0
ARC
  5
48C1
330
21CC
100
AcDbEntity
  8
0
  6
Continuous
100
AcDbCircle
 10
112.1479966662525
 20
-71.25000106170773
 30
0.0
 40
7.647994632244027
100
AcDbArc
 50
154.8526281831849
 51
205.1473681743535
  0
ARC
  5
48C2
330
21CC
100
AcDbEntity
  8
0
  6
Continuous
100
AcDbCircle
 10
112.1479966662525
 20
64.75000096485018
 30
0.0
 40
7.647994632244027
100
AcDbArc
 50
154.8526281831849
 51
205.1473681743535
  0
ARC
  5
48C3
330
21CC
100
AcDbEntity
  8
0
  6
Continuous
100
AcDbCircle
 10
112.1479966662525
 20
71.25000106170773
 30
0.0
 40
7.647994632244027
100
AcDbArc
 50
154.8526281831849
 51
205.1473681743535
  0
ARC
  5
48C4
330
21CC
100
AcDbEntity
  8
0
  6
Continuous
100
AcDbCircle
 10
147.5000021979212
 20
63.00000093877315
 30
0.0
 40
1.00000001490116
100
AcDbArc
 50
270.0000043257204
 51
0.000005008963459
  0
ARC
  5
48C5
330
21CC
100
AcDbEntity
  8
0
  6
Continuous
100
AcDbCircle
 10
147.5000021979212
 20
73.00000108778476
 30
0.0
 40
1.00000001490116
100
AcDbArc
 50
359.9999949910365
 51
89.99999567427954
  0
ARC
  5
48C6
330
21CC
100
AcDbEntity
  8
0
  6
Continuous
100
AcDbCircle
 10
138.8520070739389
 20
71.25000106170773
 30
0.0
 40
7.647995109081192
100
AcDbArc
 50
334.852624881777
 51
25.14737170314811
  0
ARC
  5
48C7
330
21CC
100
AcDbEntity
  8
0
  6
Continuous
100
AcDbCircle
 10
138.8520070739389
 20
64.75000096485018
 30
0.0
 40
7.647995109081192
100
AcDbArc
 50
334.8526317119531
 51
25.14737170314811
  0
ARC
  5
48C8
330
21CC
100
AcDbEntity
  8
0
  6
Continuous
100
AcDbCircle
 10
147.6479971952435
 20
71.25000106170773
 30
0.0
 40
7.647995109081192
100
AcDbArc
 50
154.8526281831849
 51
205.1473681743535
  0
ARC
  5
48C9
330
21CC
100
AcDbEntity
  8
0
  6
Continuous
100
AcDbCircle
 10
147.6479971952435
 20
64.75000096485018
 30
0.0
 40
7.647995109081192
100
AcDbArc
 50
154.8526281831849
 51
205.1473681743535
  0
LINE
  5
48CA
330
21CC
100
AcDbEntity
  8
0
  6
CENTER
100
AcDbLine
 10
125.0000018626444
 20
78.43462411761357
 30
0.0
 11
125.0000018626444
 21
-78.43462411761402
 31
0.0
  0
LINE
  5
48CB
330
21CC
100
AcDbEntity
  8
0
  6
CENTER
100
AcDbLine
 10
260.0000037252889
 20
0.0
 30
0.0
 11
-10.0
 21
0.0
 31
0.0
  0
LINE
  5
48CC
330
21CC
100
AcDbEntity
  8
0
  6
Continuous
100
AcDbLine
 10
73.50060789493568
 20
31.75000047311186
 30
0.0
 11
6.796831054137555
 21
31.75000047311186
 31
0.0
  0
LINE
  5
48CD
330
21CC
100
AcDbEntity
  8
0
  6
Continuous
100
AcDbLine
 10
73.50060789493568
 20
-31.75000047311186
 30
0.0
 11
6.796831053806954
 21
-31.75000047311186
 31
0.0
  0
LINE
  5
48CE
330
21CC
100
AcDbEntity
  8
0
  6
Continuous
100
AcDbLine
 10
176.4993958303546
 20
-31.75000047311186
 30
0.0
 11
243.2031726714833
 21
-31.75000047311186
 31
0.0
  0
LINE
  5
48CF
330
21CC
100
AcDbEntity
  8
0
  6
Continuous
100
AcDbLine
 10
176.4993958303546
 20
31.75000047311186
 30
0.0
 11
243.2031726711527
 21
31.75000047311186
 31
0.0
  0
CIRCLE
  5
48D0
330
21CC
100
AcDbEntity
  8
0
  6
Continuous
100
AcDbCircle
 10
125.0000018626451
 20
0.0
 30
0.0
 40
25.0
  0
CIRCLE
  5
48D1
330
21CC
100
AcDbEntity
  8
0
  6
Continuous
100
AcDbCircle
 10
125.0000018626451
 20
0.0
 30
0.0
 40
27.0
  0
CIRCLE
  5
48D2
330
21CC
100
AcDbEntity
  8
0
  6
Continuous
100
AcDbCircle
 10
125.0000018626451
 20
0.0
 30
0.0
 40
45.30707000000006
  0
ARC
  5
48D3
330
21CC
100
AcDbEntity
  8
0
  6
Continuous
100
AcDbCircle
 10
125.0000018626451
 20
0.0
 30
0.0
 40
52.99997177721433
100
AcDbArc
 50
266.75510655008
 51
273.2448934499199
  0
ARC
  5
48D4
330
21CC
100
AcDbEntity
  8
0
  6
Continuous
100
AcDbCircle
 10
125.0000018626451
 20
0.0
 30
0.0
 40
52.99997177721433
100
AcDbArc
 50
86.75510655008007
 51
93.24489344991993
  0
ARC
  5
48D5
330
21CC
100
AcDbEntity
  8
0
  6
Continuous
100
AcDbCircle
 10
125.0000018626451
 20
0.0
 30
0.0
 40
51.99997665192586
100
AcDbArc
 50
93.30736371567374
 51
266.6926362843262
  0
ARC
  5
48D6
330
21CC
100
AcDbEntity
  8
0
  6
Continuous
100
AcDbCircle
 10
125.0000018626451
 20
0.0
 30
0.0
 40
51.99997665192586
100
AcDbArc
 50
273.3073637156737
 51
86.69263628432627
  0
ARC
  5
48D7
330
21CC
100
AcDbEntity
  8
0
  6
Continuous
100
AcDbCircle
 10
109.0000016391277
 20
59.38223727457899
 30
0.0
 40
1.0
100
AcDbArc
 50
285.0797105549712
 51
0.0
  0
ARC
  5
48D8
330
21CC
100
AcDbEntity
  8
0
  6
Continuous
100
AcDbCircle
 10
141.0000020861625
 20
59.38223727457899
 30
0.0
 40
1.0
100
AcDbArc
 50
180.0
 51
254.9202894450287
  0
ARC
  5
48D9
330
21CC
100
AcDbEntity
  8
0
  6
Continuous
100
AcDbCircle
 10
109.0000016391277
 20
-59.38223727457944
 30
0.0
 40
1.0
100
AcDbArc
 50
0.0
 51
74.92028944504307
  0
ARC
  5
48DA
330
21CC
100
AcDbEntity
  8
0
  6
Continuous
100
AcDbCircle
 10
141.0000020861625
 20
-59.38223727457944
 30
0.0
 40
1.0
100
AcDbArc
 50
105.0797105549712
 51
180.0
  0
ARC
  5
48DB
330
21CC
100
AcDbEntity
  8
0
  6
Continuous
100
AcDbCircle
 10
125.0000018626451
 20
0.0
 30
0.0
 40
60.50000090152025
100
AcDbArc
 50
105.0797105549632
 51
254.9202894450367
  0
ARC
  5
48DC
330
21CC
100
AcDbEntity
  8
0
  6
Continuous
100
AcDbCircle
 10
125.0000018626451
 20
0.0
 30
0.0
 40
60.50000090152025
100
AcDbArc
 50
285.0797105549632
 51
74.92028944503679
  0
LINE
  5
48DD
330
21CC
100
AcDbEntity
  8
0
  6
Continuous
100
AcDbLine
 10
128.0000019073486
 20
71.0000010728836
 30
0.0
 11
122.0000018179416
 21
71.0000010728836
 31
0.0
  0
LINE
  5
48DE
330
21CC
100
AcDbEntity
  8
0
  6
Continuous
100
AcDbLine
 10
128.0000019073486
 20
65.00000095367432
 30
0.0
 11
122.0000018179416
 21
65.00000095367432
 31
0.0
  0
LINE
  5
48DF
330
21CC
100
AcDbEntity
  8
0
  6
Continuous
100
AcDbLine
 10
154.0000022947788
 20
65.00000095367432
 30
0.0
 11
148.5000022128224
 21
65.00000095367432
 31
0.0
  0
LINE
  5
48E0
330
21CC
100
AcDbEntity
  8
0
  6
Continuous
100
AcDbLine
 10
154.0000022947788
 20
71.0000010728836
 30
0.0
 11
148.5000022128224
 21
71.0000010728836
 31
0.0
  0
LINE
  5
48E1
330
21CC
100
AcDbEntity
  8
0
  6
Continuous
100
AcDbLine
 10
153.0000022947788
 20
64.00000095367431
 30
0.0
 11
153.0000022947788
 21
72.0000010728836
 31
0.0
  0
LINE
  5
48E2
330
21CC
100
AcDbEntity
  8
0
  6
Continuous
100
AcDbLine
 10
153.0000022947788
 20
-64.00000095367431
 30
0.0
 11
153.0000022947788
 21
-72.0000010728836
 31
0.0
  0
LINE
  5
48E3
330
21CC
100
AcDbEntity
  8
0
  6
Continuous
100
AcDbLine
 10
154.0000022947788
 20
-65.00000095367432
 30
0.0
 11
148.5000022128224
 21
-65.00000095367432
 31
0.0
  0
LINE
  5
48E4
330
21CC
100
AcDbEntity
  8
0
  6
Continuous
100
AcDbLine
 10
154.0000022947788
 20
-71.0000010728836
 30
0.0
 11
148.5000022128224
 21
-71.0000010728836
 31
0.0
  0
LINE
  5
48E5
330
21CC
100
AcDbEntity
  8
0
  6
Continuous
100
AcDbLine
 10
128.0000019073486
 20
-65.00000095367432
 30
0.0
 11
122.0000018179416
 21
-65.00000095367432
 31
0.0
  0
LINE
  5
48E6
330
21CC
100
AcDbEntity
  8
0
  6
Continuous
100
AcDbLine
 10
128.0000019073486
 20
-71.0000010728836
 30
0.0
 11
122.0000018179416
 21
-71.0000010728836
 31
0.0
  0
LINE
  5
48E7
330
21CC
100
AcDbEntity
  8
0
  6
Continuous
100
AcDbLine
 10
154.0000022947788
 20
-65.00000095367432
 30
0.0
 11
153.0000022947788
 21
-64.00000095367431
 31
0.0
  0
LINE
  5
48E8
330
21CC
100
AcDbEntity
  8
0
  6
Continuous
100
AcDbLine
 10
154.0000022947788
 20
-71.0000010728836
 30
0.0
 11
153.0000022947788
 21
-72.0000010728836
 31
0.0
  0
LINE
  5
48E9
330
21CC
100
AcDbEntity
  8
0
  6
Continuous
100
AcDbLine
 10
153.0000022947788
 20
72.0000010728836
 30
0.0
 11
154.0000022947788
 21
71.0000010728836
 31
0.0
  0
LINE
  5
48EA
330
21CC
100
AcDbEntity
  8
0
  6
Continuous
100
AcDbLine
 10
154.0000022947788
 20
65.00000095367432
 30
0.0
 11
153.0000022947788
 21
64.00000095367431
 31
0.0
  0
LINE
  5
48EC
330
21CC
100
AcDbEntity
  8
0
  6
Continuous
100
AcDbLine
 10
0.0
 20
-38.75
 30
0.0
 11
2.289833969432493
 21
-38.75000000000045
 31
0.0
  0
LINE
  5
48ED
330
21CC
100
AcDbEntity
  8
0
  6
Continuous
100
AcDbLine
 10
4.918821474711194
 20
-33.065959713349
 30
0.0
 11
3.041588066061194
 21
-38.22361611466112
 31
0.0
  0
LINE
  5
48EE
330
21CC
100
AcDbEntity
  8
0
  6
Continuous
100
AcDbLine
 10
5.651053843580825
 20
-30.97798984730388
 30
0.0
 11
5.651053843580939
 21
30.97798984730388
 31
0.0
  0
LINE
  5
48EF
330
21CC
100
AcDbEntity
  8
0
  6
Continuous
100
AcDbLine
 10
2.849999999999909
 20
-35.82619559983823
 30
0.0
 11
2.849999999999909
 21
35.82619559983777
 31
0.0
  0
ARC
  5
48F0
330
21CC
100
AcDbEntity
  8
0
  6
Continuous
100
AcDbCircle
 10
6.798206716282948
 20
-33.75
 30
0.0
 40
2.0
100
AcDbArc
 50
90.0
 51
160.0000000000107
  0
ARC
  5
48F1
330
21CC
100
AcDbEntity
  8
0
  6
Continuous
100
AcDbCircle
 10
2.289833969432493
 20
-37.95000000000027
 30
0.0
 40
0.8
100
AcDbArc
 50
270.0
 51
340.0000000000107
  0
LINE
  5
48F2
330
21CC
100
AcDbEntity
  8
0
  6
Continuous
100
AcDbLine
 10
0.0
 20
38.75
 30
0.0
 11
0.0
 21
-38.75
 31
0.0
  0
LINE
  5
48F3
330
21CC
100
AcDbEntity
  8
0
  6
Continuous
100
AcDbLine
 10
4.918821474711194
 20
33.06595971334854
 30
0.0
 11
3.041588066061194
 21
38.22361611466067
 31
0.0
  0
LINE
  5
48F4
330
21CC
100
AcDbEntity
  8
0
  6
Continuous
100
AcDbLine
 10
0.0
 20
38.75
 30
0.0
 11
2.289833969432493
 21
38.75
 31
0.0
  0
ARC
  5
48F5
330
21CC
100
AcDbEntity
  8
0
  6
Continuous
100
AcDbCircle
 10
2.289833969432493
 20
37.95000000000027
 30
0.0
 40
0.8
100
AcDbArc
 50
19.99999999998923
 51
90.0
  0
ARC
  5
48F6
330
21CC
100
AcDbEntity
  8
0
  6
Continuous
100
AcDbCircle
 10
6.798206716282948
 20
33.75
 30
0.0
 40
2.0
100
AcDbArc
 50
199.9999999999892
 51
270.0
  0
ARC
  5
48F7
330
21CC
100
AcDbEntity
  8
0
  6
Continuous
100
AcDbCircle
 10
6.798206716282948
 20
-229.3270196363273
 30
0.0
 40
2.0
100
AcDbArc
 50
90.0
 51
160.0000000000107
  0
LINE
  5
48F8
330
21CC
100
AcDbEntity
  8
0
  6
Continuous
100
AcDbLine
 10
2.849999999999909
 20
-231.4032152361651
 30
0.0
 11
2.849999999999909
 21
-159.7508240364891
 31
0.0
  0
LINE
  5
48F9
330
21CC
100
AcDbEntity
  8
0
  6
Continuous
100
AcDbLine
 10
0.0
 20
-156.8270196363268
 30
0.0
 11
0.0
 21
-234.3270196363273
 31
0.0
  0
ARC
  5
48FA
330
21CC
100
AcDbEntity
  8
0
  6
Continuous
100
AcDbCircle
 10
2.289833969432493
 20
-233.5270196363276
 30
0.0
 40
0.8
100
AcDbArc
 50
270.0
 51
340.0000000000107
  0
LINE
  5
48FB
330
21CC
100
AcDbEntity
  8
0
  6
Continuous
100
AcDbLine
 10
0.0
 20
-234.3270196363273
 30
0.0
 11
2.289833969432493
 21
-234.3270196363273
 31
0.0
  0
LINE
  5
48FC
330
21CC
100
AcDbEntity
  8
0
  6
Continuous
100
AcDbLine
 10
4.918821474711194
 20
-228.6429793496759
 30
0.0
 11
3.041588066061194
 21
-233.800635750988
 31
0.0
  0
LINE
  5
48FD
330
21CC
100
AcDbEntity
  8
0
  6
Continuous
100
AcDbLine
 10
5.397791639863271
 20
-226.6739388584887
 30
0.0
 11
5.397791639863271
 21
-164.4801004141654
 31
0.0
  0
LINE
  5
48FE
330
21CC
100
AcDbEntity
  8
0
  6
Continuous
100
AcDbLine
 10
4.918821474711194
 20
-162.5110599229783
 30
0.0
 11
3.041588066061194
 21
-157.3534035216662
 31
0.0
  0
ARC
  5
48FF
330
21CC
100
AcDbEntity
  8
0
  6
Continuous
100
AcDbCircle
 10
6.798206716282948
 20
-161.8270196363273
 30
0.0
 40
2.0
100
AcDbArc
 50
199.9999999999892
 51
270.0
  0
LINE
  5
4900
330
21CC
100
AcDbEntity
  8
0
  6
Continuous
100
AcDbLine
 10
0.0
 20
-156.8270196363268
 30
0.0
 11
2.289833969432493
 21
-156.8270196363268
 31
0.0
  0
ARC
  5
4901
330
21CC
100
AcDbEntity
  8
0
  6
Continuous
100
AcDbCircle
 10
2.289833969432493
 20
-157.627019636327
 30
0.0
 40
0.8
100
AcDbArc
 50
19.99999999998923
 51
90.0
  0
ARC
  5
4902
330
21CC
100
AcDbEntity
  8
0
  6
Continuous
100
AcDbCircle
 10
243.2017970090073
 20
-33.75
 30
0.0
 40
2.0
100
AcDbArc
 50
19.99999999998923
 51
90.0
  0
LINE
  5
4903
330
21CC
100
AcDbEntity
  8
0
  6
Continuous
100
AcDbLine
 10
247.1500037252904
 20
-35.82619559983777
 30
0.0
 11
247.1500037252904
 21
35.82619559983777
 31
0.0
  0
LINE
  5
4904
330
21CC
100
AcDbEntity
  8
0
  6
Continuous
100
AcDbLine
 10
250.0000037252902
 20
38.75
 30
0.0
 11
250.0000037252902
 21
-38.75
 31
0.0
  0
ARC
  5
4905
330
21CC
100
AcDbEntity
  8
0
  6
Continuous
100
AcDbCircle
 10
247.7101697558578
 20
-37.95000000000027
 30
0.0
 40
0.8
100
AcDbArc
 50
199.9999999999892
 51
270.0
  0
LINE
  5
4906
330
21CC
100
AcDbEntity
  8
0
  6
Continuous
100
AcDbLine
 10
250.0000037252902
 20
-38.75
 30
0.0
 11
247.7101697558578
 21
-38.75000000000045
 31
0.0
  0
LINE
  5
4907
330
21CC
100
AcDbEntity
  8
0
  6
Continuous
100
AcDbLine
 10
245.081182250579
 20
-33.065959713349
 30
0.0
 11
246.958415659229
 21
-38.22361611466112
 31
0.0
  0
LINE
  5
4908
330
21CC
100
AcDbEntity
  8
0
  6
Continuous
100
AcDbLine
 10
244.602212085427
 20
-31.09691922216188
 30
0.0
 11
244.602212085427
 21
31.09691922216143
 31
0.0
  0
LINE
  5
4909
330
21CC
100
AcDbEntity
  8
0
  6
Continuous
100
AcDbLine
 10
245.081182250579
 20
33.06595971334854
 30
0.0
 11
246.958415659229
 21
38.22361611466067
 31
0.0
  0
ARC
  5
490A
330
21CC
100
AcDbEntity
  8
0
  6
Continuous
100
AcDbCircle
 10
243.2017970090073
 20
33.75
 30
0.0
 40
2.0
100
AcDbArc
 50
270.0
 51
340.0000000000107
  0
LINE
  5
490B
330
21CC
100
AcDbEntity
  8
0
  6
Continuous
100
AcDbLine
 10
250.0000037252902
 20
38.75
 30
0.0
 11
247.7101697558578
 21
38.75
 31
0.0
  0
ARC
  5
490C
330
21CC
100
AcDbEntity
  8
0
  6
Continuous
100
AcDbCircle
 10
247.7101697558578
 20
37.95000000000027
 30
0.0
 40
0.8
100
AcDbArc
 50
90.0
 51
160.0000000000107
  0
ARC
  5
490D
330
21CC
100
AcDbEntity
  8
0
  6
Continuous
100
AcDbCircle
 10
121.0000018179416
 20
-50.84289601938826
 30
0.0
 40
1.0
100
AcDbArc
 50
0.0
 51
85.50159334658758
  0
ARC
  5
490E
330
21CC
100
AcDbEntity
  8
0
  6
Continuous
100
AcDbCircle
 10
129.0000019073486
 20
-50.84289601938826
 30
0.0
 40
1.0
100
AcDbArc
 50
94.49840665341241
 51
180.0
  0
ARC
  5
490F
330
21CC
100
AcDbEntity
  8
0
  6
Continuous
100
AcDbCircle
 10
121.0000018179416
 20
50.84289601938781
 30
0.0
 40
1.0
100
AcDbArc
 50
274.4984066534124
 51
0.0
  0
ARC
  5
4910
330
21CC
100
AcDbEntity
  8
0
  6
Continuous
100
AcDbCircle
 10
129.0000019073486
 20
50.84289601938781
 30
0.0
 40
1.0
100
AcDbArc
 50
180.0
 51
265.5015933465875
  0
LINE
  5
4911
330
21CC
100
AcDbEntity
  8
0
  6
Continuous
100
AcDbLine
 10
77.00000114738941
 20
-161.8270189585673
 30
0.0
 11
77.00000114738941
 21
-161.5770189993031
 31
0.0
  0
LINE
  5
4912
330
21CC
100
AcDbEntity
  8
0
  6
Continuous
100
AcDbLine
 10
77.00000114738941
 20
-229.3270203140873
 30
0.0
 11
77.00000114738941
 21
-229.5770202733515
 31
0.0
  0
LINE
  5
4D10
330
21CC
100
AcDbEntity
  8
0
  6
CENTER
100
AcDbLine
 10
125.0000018626451
 20
-134.0770189993031
 30
0.0
 11
125.0000018626451
 21
-257.0770202733515
 31
0.0
  0
LINE
  5
4D11
330
21CC
100
AcDbEntity
  8
0
  6
Continuous
100
AcDbLine
 10
175.0000026077032
 20
-163.8270191632154
 30
0.0
 11
243.2031726711527
 21
-163.8270191632154
 31
0.0
  0
ARC
  5
4D12
330
21CC
100
AcDbEntity
  8
0
  6
Continuous
100
AcDbCircle
 10
175.0000026077032
 20
-161.8270191334131
 30
0.0
 40
2.000000029802321
100
AcDbArc
 50
179.9999949910365
 51
269.999995674286
  0
ARC
  5
4D13
330
21CC
100
AcDbEntity
  8
0
  6
Continuous
100
AcDbCircle
 10
217.9941438733658
 20
-195.5770196363282
 30
0.0
 40
55.06845937771288
100
AcDbArc
 50
146.0246983257244
 51
213.9753016742756
  0
LINE
  5
4D14
330
21CC
100
AcDbEntity
  8
0
  6
Continuous
100
AcDbLine
 10
128.0000018626453
 20
-144.0770189993031
 30
0.0
 11
128.0000018626453
 21
-161.5770189993031
 31
0.0
  0
LINE
  5
4D15
330
21CC
100
AcDbEntity
  8
0
  6
Continuous
100
AcDbLine
 10
177.0000018626456
 20
-144.0770189993031
 30
0.0
 11
128.0000018626455
 21
-144.0770189993031
 31
0.0
  0
LINE
  5
4D16
330
21CC
100
AcDbEntity
  8
0
  6
Continuous
100
AcDbLine
 10
177.0000018626451
 20
-161.5770189993031
 30
0.0
 11
128.0000018626451
 21
-161.5770189993031
 31
0.0
  0
LINE
  5
4D17
330
21CC
100
AcDbEntity
  8
0
  6
Continuous
100
AcDbLine
 10
185.5000018626453
 20
-147.1707661382811
 30
0.0
 11
185.5000018626453
 21
-158.483271860327
 31
0.0
  0
LINE
  5
4D18
330
21CC
100
AcDbEntity
  8
0
  6
Continuous
100
AcDbLine
 10
177.0000037685297
 20
-144.0770195458126
 30
0.0
 11
185.5000021094499
 21
-147.1707660440015
 31
0.0
  0
LINE
  5
4D19
330
21CC
100
AcDbEntity
  8
0
  6
Continuous
100
AcDbLine
 10
177.000003768529
 20
-161.5770184527941
 30
0.0
 11
185.5000021094492
 21
-158.4832719546047
 31
0.0
  0
LINE
  5
4D1A
330
21CC
100
AcDbEntity
  8
0
  6
Continuous
100
AcDbLine
 10
185.5000018626456
 20
-147.1707661382802
 30
0.0
 11
148.2545430029935
 21
-147.1707661382802
 31
0.0
  0
LINE
  5
4D1B
330
21CC
100
AcDbEntity
  8
0
  6
Continuous
100
AcDbLine
 10
185.5000018626451
 20
-158.4832718603261
 30
0.0
 11
148.2545430029936
 21
-158.4832718603261
 31
0.0
  0
LINE
  5
4D1C
330
21CC
100
AcDbEntity
  8
0
  6
Continuous
100
AcDbLine
 10
140.0000018626453
 20
-145.8270189993031
 30
0.0
 11
128.0000018626455
 21
-145.8270189993031
 31
0.0
  0
LINE
  5
4D1D
330
21CC
100
AcDbEntity
  8
0
  6
Continuous
100
AcDbLine
 10
140.0000018626453
 20
-159.8270189993031
 30
0.0
 11
128.0000018626451
 21
-159.8270189993031
 31
0.0
  0
LINE
  5
4D1E
330
21CC
100
AcDbEntity
  8
0
  6
Continuous
100
AcDbLine
 10
177.0000018626454
 20
-247.0770202733515
 30
0.0
 11
128.0000018626454
 21
-247.0770202733515
 31
0.0
  0
LINE
  5
4D1F
330
21CC
100
AcDbEntity
  8
0
  6
Continuous
100
AcDbLine
 10
185.500001862645
 20
-232.6707674123285
 30
0.0
 11
148.2545430029935
 21
-232.6707674123285
 31
0.0
  0
LINE
  5
4D20
330
21CC
100
AcDbEntity
  8
0
  6
Continuous
100
AcDbLine
 10
185.5000018626455
 20
-243.9832731343745
 30
0.0
 11
148.2545430029933
 21
-243.9832731343745
 31
0.0
  0
LINE
  5
4D21
330
21CC
100
AcDbEntity
  8
0
  6
Continuous
100
AcDbLine
 10
177.000001862645
 20
-229.5770202733515
 30
0.0
 11
128.000001862645
 21
-229.5770202733515
 31
0.0
  0
LINE
  5
4D22
330
21CC
100
AcDbEntity
  8
0
  6
Continuous
100
AcDbLine
 10
185.5000018626452
 20
-243.9832731343735
 30
0.0
 11
185.5000018626452
 21
-232.6707674123276
 31
0.0
  0
LINE
  5
4D23
330
21CC
100
AcDbEntity
  8
0
  6
Continuous
100
AcDbLine
 10
175.0000026077031
 20
-227.3270201094392
 30
0.0
 11
243.2031726714831
 21
-227.3270201094392
 31
0.0
  0
LINE
  5
4D24
330
21CC
100
AcDbEntity
  8
0
  6
Continuous
100
AcDbLine
 10
177.0000037685289
 20
-229.5770208198609
 30
0.0
 11
185.5000021094491
 21
-232.6707673180499
 31
0.0
  0
ARC
  5
4D25
330
21CC
100
AcDbEntity
  8
0
  6
Continuous
100
AcDbCircle
 10
175.0000026077031
 20
-229.3270201392415
 30
0.0
 40
2.000000029802321
100
AcDbArc
 50
90.00000432571395
 51
180.0000050089634
  0
LINE
  5
4D26
330
21CC
100
AcDbEntity
  8
0
  6
Continuous
100
AcDbLine
 10
177.0000037685296
 20
-247.0770197268421
 30
0.0
 11
185.5000021094498
 21
-243.9832732286531
 31
0.0
  0
LINE
  5
4D27
330
21CC
100
AcDbEntity
  8
0
  6
Continuous
100
AcDbLine
 10
128.0000018626452
 20
-247.0770202733515
 30
0.0
 11
128.0000018626452
 21
-229.5770202733515
 31
0.0
  0
LINE
  5
4D28
330
21CC
100
AcDbEntity
  8
0
  6
Continuous
100
AcDbLine
 10
140.0000018626452
 20
-245.3270202733515
 30
0.0
 11
140.0000018626452
 21
-231.3270202733515
 31
0.0
  0
LINE
  5
4D29
330
21CC
100
AcDbEntity
  8
0
  6
Continuous
100
AcDbLine
 10
140.0000018626452
 20
-231.3270202733515
 30
0.0
 11
128.000001862645
 21
-231.3270202733515
 31
0.0
  0
LINE
  5
4D2A
330
21CC
100
AcDbEntity
  8
0
  6
Continuous
100
AcDbLine
 10
140.0000018626452
 20
-245.3270202733515
 30
0.0
 11
128.0000018626454
 21
-245.3270202733515
 31
0.0
  0
ARC
  5
4D2B
330
21CC
100
AcDbEntity
  8
0
  6
Continuous
100
AcDbCircle
 10
243.2017970090073
 20
-229.3270196363273
 30
0.0
 40
2.0
100
AcDbArc
 50
19.99999999998923
 51
90.0
  0
LINE
  5
4D2C
330
21CC
100
AcDbEntity
  8
0
  6
Continuous
100
AcDbLine
 10
247.1500037252904
 20
-231.4032152361651
 30
0.0
 11
247.1500037252904
 21
-159.7508240364891
 31
0.0
  0
LINE
  5
4D2D
330
21CC
100
AcDbEntity
  8
0
  6
Continuous
100
AcDbLine
 10
250.0000037252902
 20
-156.8270196363273
 30
0.0
 11
250.0000037252902
 21
-234.3270196363273
 31
0.0
  0
ARC
  5
4D2E
330
21CC
100
AcDbEntity
  8
0
  6
Continuous
100
AcDbCircle
 10
247.7101697558578
 20
-233.5270196363276
 30
0.0
 40
0.8
100
AcDbArc
 50
199.9999999999892
 51
270.0
  0
LINE
  5
4D2F
330
21CC
100
AcDbEntity
  8
0
  6
Continuous
100
AcDbLine
 10
250.0000037252902
 20
-234.3270196363273
 30
0.0
 11
247.7101697558578
 21
-234.3270196363273
 31
0.0
  0
LINE
  5
4D30
330
21CC
100
AcDbEntity
  8
0
  6
Continuous
100
AcDbLine
 10
245.0811822505788
 20
-228.6429793496763
 30
0.0
 11
246.958415659229
 21
-233.800635750988
 31
0.0
  0
LINE
  5
4D31
330
21CC
100
AcDbEntity
  8
0
  6
Continuous
100
AcDbLine
 10
244.6022120854268
 20
-226.6739388584887
 30
0.0
 11
244.602212085427
 21
-164.4801004141659
 31
0.0
  0
LINE
  5
4D32
330
21CC
100
AcDbEntity
  8
0
  6
Continuous
100
AcDbLine
 10
245.081182250579
 20
-162.5110599229783
 30
0.0
 11
246.958415659229
 21
-157.3534035216666
 31
0.0
  0
ARC
  5
4D33
330
21CC
100
AcDbEntity
  8
0
  6
Continuous
100
AcDbCircle
 10
243.2017970090073
 20
-161.8270196363273
 30
0.0
 40
2.0
100
AcDbArc
 50
270.0
 51
340.0000000000107
  0
LINE
  5
4D34
330
21CC
100
AcDbEntity
  8
0
  6
Continuous
100
AcDbLine
 10
250.0000037252902
 20
-156.8270196363273
 30
0.0
 11
247.7101697558578
 21
-156.8270196363273
 31
0.0
  0
ARC
  5
4D35
330
21CC
100
AcDbEntity
  8
0
  6
Continuous
100
AcDbCircle
 10
247.7101697558578
 20
-157.627019636327
 30
0.0
 40
0.8
100
AcDbArc
 50
90.0
 51
160.0000000000107
  0
LINE
  5
4D36
330
21CC
100
AcDbEntity
  8
0
  6
Continuous
100
AcDbLine
 10
173.0000025779008
 20
-161.8270189585678
 30
0.0
 11
173.0000025779008
 21
-161.5770189993031
 31
0.0
  0
LINE
  5
4D37
330
21CC
100
AcDbEntity
  8
0
  6
Continuous
100
AcDbLine
 10
173.0000025779007
 20
-229.3270203140873
 30
0.0
 11
173.0000025779007
 21
-229.5770202733515
 31
0.0
  0
LINE
  5
4D38
330
21CC
100
AcDbEntity
  8
0
  6
Continuous
100
AcDbLine
 10
140.0000018626453
 20
-159.8270189993031
 30
0.0
 11
140.0000018626453
 21
-145.8270189993031
 31
0.0
  0
LINE
  5
4D39
330
21CC
100
AcDbEntity
  8
0
  6
Continuous
100
AcDbLine
 10
146.5000018626453
 20
-159.0770189993031
 30
0.0
 11
146.5000018626453
 21
-146.5770189993031
 31
0.0
  0
ARC
  5
4D3A
330
21CC
100
AcDbEntity
  8
0
  6
Continuous
100
AcDbCircle
 10
142.5251102000477
 20
-158.456181499303
 30
0.0
 40
3.752776145935058
100
AcDbArc
 50
330.0000105759246
 51
29.99998942407543
  0
ARC
  5
4D3B
330
21CC
100
AcDbEntity
  8
0
  6
Continuous
100
AcDbCircle
 10
143.974893525243
 20
-158.456181499303
 30
0.0
 40
3.752776145935058
100
AcDbArc
 50
150.0000105759245
 51
209.9999894240754
  0
ARC
  5
4D3C
330
21CC
100
AcDbEntity
  8
0
  6
Continuous
100
AcDbCircle
 10
136.4234714061024
 20
-152.8270189993031
 30
0.0
 40
10.07653045654297
100
AcDbArc
 50
338.1346069180819
 51
21.86539308188901
  0
ARC
  5
4D3D
330
21CC
100
AcDbEntity
  8
0
  6
Continuous
100
AcDbCircle
 10
142.5251102000477
 20
-147.1978564993032
 30
0.0
 40
3.752776145935058
100
AcDbArc
 50
330.0000105759246
 51
29.99998942407543
  0
LINE
  5
4D3E
330
21CC
100
AcDbEntity
  8
0
  6
Continuous
100
AcDbLine
 10
145.7751100701452
 20
-145.3214689993033
 30
0.0
 11
146.5000018626453
 21
-146.5770189993031
 31
0.0
  0
LINE
  5
4D3F
330
21CC
100
AcDbEntity
  8
0
  6
Continuous
100
AcDbLine
 10
140.7248936551454
 20
-145.3214689993033
 30
0.0
 11
140.0000018626453
 21
-146.5770189993031
 31
0.0
  0
ARC
  5
4D40
330
21CC
100
AcDbEntity
  8
0
  6
Continuous
100
AcDbCircle
 10
143.974893525243
 20
-147.1978564993032
 30
0.0
 40
3.752776145935058
100
AcDbArc
 50
150.0000105759245
 51
209.9999894240754
  0
LINE
  5
4D41
330
21CC
100
AcDbEntity
  8
0
  6
Continuous
100
AcDbLine
 10
140.7248937173442
 20
-145.3214689993033
 30
0.0
 11
145.7751100701452
 21
-145.3214689993033
 31
0.0
  0
ARC
  5
4D42
330
21CC
100
AcDbEntity
  8
0
  6
Continuous
100
AcDbCircle
 10
150.0765323191883
 20
-152.8270189993031
 30
0.0
 40
10.07653045654297
100
AcDbArc
 50
158.1346069181109
 51
201.865393081889
  0
LINE
  5
4D43
330
21CC
100
AcDbEntity
  8
0
  6
Continuous
100
AcDbLine
 10
140.7248937173442
 20
-149.0742439993032
 30
0.0
 11
145.7751100701452
 21
-149.0742439993032
 31
0.0
  0
LINE
  5
4D44
330
21CC
100
AcDbEntity
  8
0
  6
Continuous
100
AcDbLine
 10
140.7248936477568
 20
-156.579793999303
 30
0.0
 11
145.7751100701452
 21
-156.579793999303
 31
0.0
  0
LINE
  5
4D45
330
21CC
100
AcDbEntity
  8
0
  6
Continuous
100
AcDbLine
 10
145.7751100701452
 20
-160.3325689993034
 30
0.0
 11
146.5000018626453
 21
-159.0770189993031
 31
0.0
  0
LINE
  5
4D46
330
21CC
100
AcDbEntity
  8
0
  6
Continuous
100
AcDbLine
 10
140.7248937173442
 20
-160.3325689993034
 30
0.0
 11
145.7751100701452
 21
-160.3325689993034
 31
0.0
  0
LINE
  5
4D47
330
21CC
100
AcDbEntity
  8
0
  6
Continuous
100
AcDbLine
 10
140.7248936551454
 20
-160.3325689993034
 30
0.0
 11
140.0000018626453
 21
-159.0770189993031
 31
0.0
  0
LINE
  5
4D48
330
21CC
100
AcDbEntity
  8
0
  6
Continuous
100
AcDbLine
 10
153.000001974404
 20
-156.8270190589078
 30
0.0
 11
148.5000018924476
 21
-156.8270190589078
 31
0.0
  0
LINE
  5
4D49
330
21CC
100
AcDbEntity
  8
0
  6
Continuous
100
AcDbLine
 10
148.5000018924476
 20
-157.8270190738089
 30
0.0
 11
148.5000018924476
 21
-147.8270189247973
 31
0.0
  0
LINE
  5
4D4A
330
21CC
100
AcDbEntity
  8
0
  6
Continuous
100
AcDbLine
 10
154.000001974404
 20
-155.8270190589078
 30
0.0
 11
154.000001974404
 21
-149.8270189396985
 31
0.0
  0
LINE
  5
4D4B
330
21CC
100
AcDbEntity
  8
0
  6
Continuous
100
AcDbLine
 10
147.5000018775465
 20
-158.8270190887101
 30
0.0
 11
146.5000018626453
 21
-158.8270190887101
 31
0.0
  0
LINE
  5
4D4C
330
21CC
100
AcDbEntity
  8
0
  6
Continuous
100
AcDbLine
 10
147.5000018775465
 20
-146.8270189098961
 30
0.0
 11
146.5000018626453
 21
-146.8270189098961
 31
0.0
  0
LINE
  5
4D4D
330
21CC
100
AcDbEntity
  8
0
  6
Continuous
100
AcDbLine
 10
153.000001974404
 20
-148.8270189396985
 30
0.0
 11
148.5000018924476
 21
-148.8270189396985
 31
0.0
  0
ARC
  5
4D4E
330
21CC
100
AcDbEntity
  8
0
  6
Continuous
100
AcDbCircle
 10
147.5000018775465
 20
-157.8270190738089
 30
0.0
 40
1.00000001490116
100
AcDbArc
 50
270.0000043257074
 51
0.000005008963459
  0
ARC
  5
4D4F
330
21CC
100
AcDbEntity
  8
0
  6
Continuous
100
AcDbCircle
 10
147.5000018775465
 20
-147.8270189247973
 30
0.0
 40
1.00000001490116
100
AcDbArc
 50
359.9999949910365
 51
89.99999567428604
  0
LINE
  5
4D50
330
21CC
100
AcDbEntity
  8
0
  6
Continuous
100
AcDbLine
 10
154.000001974404
 20
-149.8270189396985
 30
0.0
 11
148.5000018924476
 21
-149.8270189396985
 31
0.0
  0
LINE
  5
4D51
330
21CC
100
AcDbEntity
  8
0
  6
Continuous
100
AcDbLine
 10
153.000001974404
 20
-156.8270190589078
 30
0.0
 11
153.000001974404
 21
-148.8270189396985
 31
0.0
  0
LINE
  5
4D52
330
21CC
100
AcDbEntity
  8
0
  6
Continuous
100
AcDbLine
 10
154.000001974404
 20
-155.8270190589078
 30
0.0
 11
148.5000018924476
 21
-155.8270190589078
 31
0.0
  0
LINE
  5
4D53
330
21CC
100
AcDbEntity
  8
0
  6
Continuous
100
AcDbLine
 10
154.000001974404
 20
-149.8270189396985
 30
0.0
 11
153.000001974404
 21
-148.8270189396985
 31
0.0
  0
LINE
  5
4D54
330
21CC
100
AcDbEntity
  8
0
  6
Continuous
100
AcDbLine
 10
154.000001974404
 20
-155.8270190589078
 30
0.0
 11
153.000001974404
 21
-156.8270190589078
 31
0.0
  0
LINE
  5
4D55
330
21CC
100
AcDbEntity
  8
0
  6
Continuous
100
AcDbLine
 10
146.5000018626452
 20
-244.5770202733515
 30
0.0
 11
146.5000018626452
 21
-232.0770202733515
 31
0.0
  0
ARC
  5
4D56
330
21CC
100
AcDbEntity
  8
0
  6
Continuous
100
AcDbCircle
 10
142.5251102000476
 20
-243.9561827733514
 30
0.0
 40
3.752776145935058
100
AcDbArc
 50
330.0000105759246
 51
29.99998942407543
  0
ARC
  5
4D57
330
21CC
100
AcDbEntity
  8
0
  6
Continuous
100
AcDbCircle
 10
143.9748935252429
 20
-243.9561827733514
 30
0.0
 40
3.752776145935058
100
AcDbArc
 50
150.0000105759245
 51
209.9999894240754
  0
ARC
  5
4D58
330
21CC
100
AcDbEntity
  8
0
  6
Continuous
100
AcDbCircle
 10
136.4234714061022
 20
-238.3270202733515
 30
0.0
 40
10.07653045654297
100
AcDbArc
 50
338.1346069180819
 51
21.86539308188901
  0
ARC
  5
4D59
330
21CC
100
AcDbEntity
  8
0
  6
Continuous
100
AcDbCircle
 10
142.5251102000476
 20
-232.6978577733516
 30
0.0
 40
3.752776145935058
100
AcDbArc
 50
330.0000105759246
 51
29.99998942407543
  0
LINE
  5
4D5A
330
21CC
100
AcDbEntity
  8
0
  6
Continuous
100
AcDbLine
 10
145.7751100701451
 20
-230.8214702733516
 30
0.0
 11
146.5000018626452
 21
-232.0770202733515
 31
0.0
  0
LINE
  5
4D5B
330
21CC
100
AcDbEntity
  8
0
  6
Continuous
100
AcDbLine
 10
140.7248936551453
 20
-230.8214702733516
 30
0.0
 11
140.0000018626452
 21
-232.0770202733515
 31
0.0
  0
ARC
  5
4D5C
330
21CC
100
AcDbEntity
  8
0
  6
Continuous
100
AcDbCircle
 10
143.9748935252429
 20
-232.6978577733516
 30
0.0
 40
3.752776145935058
100
AcDbArc
 50
150.0000105759245
 51
209.9999894240754
  0
LINE
  5
4D5D
330
21CC
100
AcDbEntity
  8
0
  6
Continuous
100
AcDbLine
 10
140.7248937173442
 20
-230.8214702733516
 30
0.0
 11
145.7751100701451
 21
-230.8214702733516
 31
0.0
  0
ARC
  5
4D5E
330
21CC
100
AcDbEntity
  8
0
  6
Continuous
100
AcDbCircle
 10
150.0765323191882
 20
-238.3270202733515
 30
0.0
 40
10.07653045654297
100
AcDbArc
 50
158.1346069181109
 51
201.865393081889
  0
LINE
  5
4D5F
330
21CC
100
AcDbEntity
  8
0
  6
Continuous
100
AcDbLine
 10
140.7248937173442
 20
-234.5742452733516
 30
0.0
 11
145.7751100701451
 21
-234.5742452733516
 31
0.0
  0
LINE
  5
4D60
330
21CC
100
AcDbEntity
  8
0
  6
Continuous
100
AcDbLine
 10
140.7248936477567
 20
-242.0797952733514
 30
0.0
 11
145.7751100701451
 21
-242.0797952733514
 31
0.0
  0
LINE
  5
4D61
330
21CC
100
AcDbEntity
  8
0
  6
Continuous
100
AcDbLine
 10
145.7751100701451
 20
-245.8325702733513
 30
0.0
 11
146.5000018626452
 21
-244.5770202733515
 31
0.0
  0
LINE
  5
4D62
330
21CC
100
AcDbEntity
  8
0
  6
Continuous
100
AcDbLine
 10
140.7248937173442
 20
-245.8325702733513
 30
0.0
 11
145.7751100701451
 21
-245.8325702733513
 31
0.0
  0
LINE
  5
4D63
330
21CC
100
AcDbEntity
  8
0
  6
Continuous
100
AcDbLine
 10
140.7248936551453
 20
-245.8325702733513
 30
0.0
 11
140.0000018626452
 21
-244.5770202733515
 31
0.0
  0
LINE
  5
4D64
330
21CC
100
AcDbEntity
  8
0
  6
Continuous
100
AcDbLine
 10
153.0000019744039
 20
-242.3270203329561
 30
0.0
 11
148.5000018924475
 21
-242.3270203329561
 31
0.0
  0
LINE
  5
4D65
330
21CC
100
AcDbEntity
  8
0
  6
Continuous
100
AcDbLine
 10
148.5000018924475
 20
-243.3270203478573
 30
0.0
 11
148.5000018924475
 21
-233.3270201988457
 31
0.0
  0
LINE
  5
4D66
330
21CC
100
AcDbEntity
  8
0
  6
Continuous
100
AcDbLine
 10
154.0000019744039
 20
-241.3270203329561
 30
0.0
 11
154.0000019744039
 21
-235.3270202137469
 31
0.0
  0
LINE
  5
4D67
330
21CC
100
AcDbEntity
  8
0
  6
Continuous
100
AcDbLine
 10
147.5000018775464
 20
-244.3270203627585
 30
0.0
 11
146.5000018626452
 21
-244.3270203627585
 31
0.0
  0
LINE
  5
4D68
330
21CC
100
AcDbEntity
  8
0
  6
Continuous
100
AcDbLine
 10
147.5000018775464
 20
-232.3270201839445
 30
0.0
 11
146.5000018626452
 21
-232.3270201839445
 31
0.0
  0
LINE
  5
4D69
330
21CC
100
AcDbEntity
  8
0
  6
Continuous
100
AcDbLine
 10
153.0000019744039
 20
-234.3270202137468
 30
0.0
 11
148.5000018924475
 21
-234.3270202137468
 31
0.0
  0
ARC
  5
4D6A
330
21CC
100
AcDbEntity
  8
0
  6
Continuous
100
AcDbCircle
 10
147.5000018775464
 20
-243.3270203478573
 30
0.0
 40
1.00000001490116
100
AcDbArc
 50
270.0000043257074
 51
0.000005008963459
  0
ARC
  5
4D6B
330
21CC
100
AcDbEntity
  8
0
  6
Continuous
100
AcDbCircle
 10
147.5000018775464
 20
-233.3270201988457
 30
0.0
 40
1.00000001490116
100
AcDbArc
 50
359.9999949910365
 51
89.99999567428604
  0
LINE
  5
4D6C
330
21CC
100
AcDbEntity
  8
0
  6
Continuous
100
AcDbLine
 10
154.0000019744039
 20
-235.3270202137469
 30
0.0
 11
148.5000018924475
 21
-235.3270202137469
 31
0.0
  0
LINE
  5
4D6D
330
21CC
100
AcDbEntity
  8
0
  6
Continuous
100
AcDbLine
 10
153.0000019744039
 20
-242.3270203329561
 30
0.0
 11
153.0000019744039
 21
-234.3270202137468
 31
0.0
  0
LINE
  5
4D6E
330
21CC
100
AcDbEntity
  8
0
  6
Continuous
100
AcDbLine
 10
154.0000019744039
 20
-241.3270203329561
 30
0.0
 11
148.5000018924475
 21
-241.3270203329561
 31
0.0
  0
LINE
  5
4D6F
330
21CC
100
AcDbEntity
  8
0
  6
Continuous
100
AcDbLine
 10
154.0000019744039
 20
-235.3270202137469
 30
0.0
 11
153.0000019744039
 21
-234.3270202137468
 31
0.0
  0
LINE
  5
4D70
330
21CC
100
AcDbEntity
  8
0
  6
Continuous
100
AcDbLine
 10
154.0000019744039
 20
-241.3270203329561
 30
0.0
 11
153.0000019744039
 21
-242.3270203329561
 31
0.0
  0
ENDSEC
  0
SECTION
  2
OBJECTS
  0
DICTIONARY
  5
21BA
330
0
100
AcDbDictionary
281
     1
  3
ACAD_GROUP
350
21BB
  3
ACAD_LAYOUT
350
21C7
  3
ACAD_MLINESTYLE
350
21C4
  3
ACAD_PLOTSETTINGS
350
21C6
  3
ACAD_PLOTSTYLENAME
350
21BC
  3
AcDbVariableDictionary
350
2238
  0
DICTIONARY
  5
2244
330
21B0
100
AcDbDictionary
280
     1
281
     1
  3
ACAD_LAYERSTATES
360
2245
  0
DICTIONARY
  5
21F8
330
21CC
100
AcDbDictionary
280
     1
281
     1
  3
ACAD_LAYOUTSELFREF
360
2227
  0
DICTIONARY
  5
21FA
330
21C8
100
AcDbDictionary
280
     1
281
     1
  3
ACAD_LAYOUTSELFREF
360
2226
  0
DICTIONARY
  5
21BB
102
{ACAD_REACTORS
330
21BA
102
}
330
21BA
100
AcDbDictionary
281
     1
  0
DICTIONARY
  5
21C7
102
{ACAD_REACTORS
330
21BA
102
}
330
21BA
100
AcDbDictionary
281
     1
  3
Model
350
21CF
  3
ﾚｲｱｳﾄ1
350
21CB
  0
DICTIONARY
  5
21C4
102
{ACAD_REACTORS
330
21BA
102
}
330
21BA
100
AcDbDictionary
281
     1
  3
Standard
350
21C5
  0
DICTIONARY
  5
21C6
102
{ACAD_REACTORS
330
21BA
102
}
330
21BA
100
AcDbDictionary
281
     1
  0
ACDBDICTIONARYWDFLT
  5
21BC
102
{ACAD_REACTORS
330
21BA
102
}
330
21BA
100
AcDbDictionary
281
     1
  3
Normal
350
21BD
100
AcDbDictionaryWithDefault
340
21BD
  0
DICTIONARY
  5
2238
102
{ACAD_REACTORS
330
21BA
102
}
330
21BA
100
AcDbDictionary
281
     1
  3
DIMASSOC
350
2239
  0
DICTIONARY
  5
2245
102
{ACAD_REACTORS
330
2244
102
}
330
2244
100
AcDbDictionary
281
     1
  0
XRECORD
  5
2227
102
{ACAD_REACTORS
330
21F8
102
}
330
21F8
100
AcDbXrecord
280
     1
340
21CC
  0
XRECORD
  5
2226
102
{ACAD_REACTORS
330
21FA
102
}
330
21FA
100
AcDbXrecord
280
     1
340
21C8
  0
LAYOUT
  5
21CF
102
{ACAD_REACTORS
330
21C7
102
}
330
21C7
100
AcDbPlotSettings
  1

  2
SII LP-2150 (D-SCAN C2)
  4

  6

 40
0.0
 41
0.0
 42
0.0
 43
0.0
 44
0.0
 45
0.0
 46
0.0
 47
0.0
 48
0.0
 49
0.0
140
0.0
141
0.0
142
1.0
143
1.0
 70
  1712
 72
     0
 73
     0
 74
     0
  7

 75
     0
147
1.0
148
0.0
149
0.0
100
AcDbLayout
  1
Model
 70
     1
 71
     0
 10
0.0
 20
0.0
 11
12.0
 21
9.0
 12
0.0
 22
0.0
 32
0.0
 14
0.0
 24
0.0
 34
0.0
 15
0.0
 25
0.0
 35
0.0
146
0.0
 13
0.0
 23
0.0
 33
0.0
 16
1.0
 26
0.0
 36
0.0
 17
0.0
 27
1.0
 37
0.0
 76
     0
330
21CC
  0
LAYOUT
  5
21CB
102
{ACAD_REACTORS
330
21C7
102
}
330
21C7
100
AcDbPlotSettings
  1

  2
SII LP-2150 (D-SCAN C2)
  4

  6

 40
0.0
 41
0.0
 42
0.0
 43
0.0
 44
0.0
 45
0.0
 46
0.0
 47
0.0
 48
0.0
 49
0.0
140
0.0
141
0.0
142
1.0
143
1.0
 70
   688
 72
     0
 73
     0
 74
     5
  7

 75
    16
147
1.0
148
0.0
149
0.0
100
AcDbLayout
  1
ﾚｲｱｳﾄ1
 70
     1
 71
     1
 10
0.0
 20
0.0
 11
12.0
 21
9.0
 12
0.0
 22
0.0
 32
0.0
 14
1.000000000000000E+20
 24
1.000000000000000E+20
 34
1.000000000000000E+20
 15
-1.000000000000000E+20
 25
-1.000000000000000E+20
 35
-1.000000000000000E+20
146
0.0
 13
0.0
 23
0.0
 33
0.0
 16
1.0
 26
0.0
 36
0.0
 17
0.0
 27
1.0
 37
0.0
 76
     0
330
21C8
  0
MLINESTYLE
  5
21C5
102
{ACAD_REACTORS
330
21C4
102
}
330
21C4
100
AcDbMlineStyle
  2
STANDARD
 70
     0
  3

 62
   256
 51
90.0
 52
90.0
 71
     2
 49
0.5
 62
   256
  6
BYLAYER
 49
-0.5
 62
   256
  6
BYLAYER
  0
ACDBPLACEHOLDER
  5
21BD
102
{ACAD_REACTORS
330
21BC
102
}
330
21BC
  0
DICTIONARYVAR
  5
2239
102
{ACAD_REACTORS
330
2238
102
}
330
2238
100
DictionaryVariables
280
     0
  1
1
  0
ENDSEC
  0
EOF
