  0
SECTION
  2
HEADER
  9
$ACADVER
  1
AC1015
  9
$ACADMAINTVER
 70
    14
  9
$DWGCODEPAGE
  3
ANSI_932
  9
$INSBASE
 10
0.0
 20
0.0
 30
0.0
  9
$EXTMIN
 10
-8.026208316296333
 20
-219.0656060531225
 30
-0.0015258207003583
  9
$EXTMAX
 10
333.9554806417187
 20
198.0127304149377
 30
0.0000000349246037
  9
$LIMMIN
 10
0.0
 20
0.0
  9
$LIMMAX
 10
12.0
 20
9.0
  9
$ORTHOMODE
 70
     0
  9
$REGENMODE
 70
     1
  9
$FILLMODE
 70
     1
  9
$QTEXTMODE
 70
     0
  9
$MIRRTEXT
 70
     1
  9
$LTSCALE
 40
1.0
  9
$ATTMODE
 70
     1
  9
$TEXTSIZE
 40
0.2
  9
$TRACEWID
 40
0.05
  9
$TEXTSTYLE
  7
STANDARD
  9
$CLAYER
  8
0
  9
$CELTYPE
  6
CONTINUOUS
  9
$CECOLOR
 62
   256
  9
$CELTSCALE
 40
1.0
  9
$DISPSILH
 70
     0
  9
$DIMSCALE
 40
1.0
  9
$DIMASZ
 40
1.0
  9
$DIMEXO
 40
2.54
  9
$DIMDLI
 40
0.38
  9
$DIMRND
 40
0.0
  9
$DIMDLE
 40
0.0
  9
$DIMEXE
 40
2.54
  9
$DIMTP
 40
0.0
  9
$DIMTM
 40
0.0
  9
$DIMTXT
 40
3.2
  9
$DIMCEN
 40
0.09
  9
$DIMTSZ
 40
0.0
  9
$DIMTOL
 70
     0
  9
$DIMLIM
 70
     0
  9
$DIMTIH
 70
     0
  9
$DIMTOH
 70
     0
  9
$DIMSE1
 70
     0
  9
$DIMSE2
 70
     0
  9
$DIMTAD
 70
     1
  9
$DIMZIN
 70
     0
  9
$DIMBLK
  1

  9
$DIMASO
 70
     1
  9
$DIMSHO
 70
     0
  9
$DIMPOST
  1

  9
$DIMAPOST
  1

  9
$DIMALT
 70
     0
  9
$DIMALTD
 70
     2
  9
$DIMALTF
 40
25.4
  9
$DIMLFAC
 40
1.0
  9
$DIMTOFL
 70
     0
  9
$DIMTVP
 40
1.0
  9
$DIMTIX
 70
     0
  9
$DIMSOXD
 70
     0
  9
$DIMSAH
 70
     1
  9
$DIMBLK1
  1

  9
$DIMBLK2
  1

  9
$DIMSTYLE
  2
STANDARD
  9
$DIMCLRD
 70
     0
  9
$DIMCLRE
 70
     0
  9
$DIMCLRT
 70
     0
  9
$DIMTFAC
 40
1.0
  9
$DIMGAP
 40
1.6
  9
$DIMJUST
 70
     0
  9
$DIMSD1
 70
     0
  9
$DIMSD2
 70
     0
  9
$DIMTOLJ
 70
     1
  9
$DIMTZIN
 70
     0
  9
$DIMALTZ
 70
     0
  9
$DIMALTTZ
 70
     0
  9
$DIMUPT
 70
     0
  9
$DIMDEC
 70
     4
  9
$DIMTDEC
 70
     4
  9
$DIMALTU
 70
     2
  9
$DIMALTTD
 70
     2
  9
$DIMTXSTY
  7
STANDARD
  9
$DIMAUNIT
 70
     0
  9
$DIMADEC
 70
     0
  9
$DIMALTRND
 40
0.0
  9
$DIMAZIN
 70
     0
  9
$DIMDSEP
 70
    46
  9
$DIMATFIT
 70
     3
  9
$DIMFRAC
 70
     0
  9
$DIMLDRBLK
  1

  9
$DIMLUNIT
 70
     2
  9
$DIMLWD
 70
    -2
  9
$DIMLWE
 70
    -2
  9
$DIMTMOVE
 70
     0
  9
$LUNITS
 70
     2
  9
$LUPREC
 70
     4
  9
$SKETCHINC
 40
0.1
  9
$FILLETRAD
 40
0.0
  9
$AUNITS
 70
     0
  9
$AUPREC
 70
     0
  9
$MENU
  1
.
  9
$ELEVATION
 40
0.0
  9
$PELEVATION
 40
0.0
  9
$THICKNESS
 40
0.0
  9
$LIMCHECK
 70
     0
  9
$CHAMFERA
 40
0.0
  9
$CHAMFERB
 40
0.0
  9
$CHAMFERC
 40
0.0
  9
$CHAMFERD
 40
0.0
  9
$SKPOLY
 70
     0
  9
$TDCREATE
 40
2452488.423138738
  9
$TDUCREATE
 40
2452488.048138738
  9
$TDUPDATE
 40
2456906.721074421
  9
$TDUUPDATE
 40
2456906.346074421
  9
$TDINDWG
 40
0.2868158912
  9
$TDUSRTIMER
 40
0.2868157060
  9
$USRTIMER
 70
     1
  9
$ANGBASE
 50
0.0
  9
$ANGDIR
 70
     0
  9
$PDMODE
 70
     3
  9
$PDSIZE
 40
0.0
  9
$PLINEWID
 40
0.0
  9
$SPLFRAME
 70
     0
  9
$SPLINETYPE
 70
     6
  9
$SPLINESEGS
 70
     8
  9
$HANDSEED
  5
4F3E
  9
$SURFTAB1
 70
     6
  9
$SURFTAB2
 70
     6
  9
$SURFTYPE
 70
     6
  9
$SURFU
 70
     6
  9
$SURFV
 70
     6
  9
$UCSBASE
  2

  9
$UCSNAME
  2

  9
$UCSORG
 10
0.0
 20
0.0
 30
0.0
  9
$UCSXDIR
 10
1.0
 20
0.0
 30
0.0
  9
$UCSYDIR
 10
0.0
 20
1.0
 30
0.0
  9
$UCSORTHOREF
  2

  9
$UCSORTHOVIEW
 70
     0
  9
$UCSORGTOP
 10
0.0
 20
0.0
 30
0.0
  9
$UCSORGBOTTOM
 10
0.0
 20
0.0
 30
0.0
  9
$UCSORGLEFT
 10
0.0
 20
0.0
 30
0.0
  9
$UCSORGRIGHT
 10
0.0
 20
0.0
 30
0.0
  9
$UCSORGFRONT
 10
0.0
 20
0.0
 30
0.0
  9
$UCSORGBACK
 10
0.0
 20
0.0
 30
0.0
  9
$PUCSBASE
  2

  9
$PUCSNAME
  2

  9
$PUCSORG
 10
0.0
 20
0.0
 30
0.0
  9
$PUCSXDIR
 10
1.0
 20
0.0
 30
0.0
  9
$PUCSYDIR
 10
0.0
 20
1.0
 30
0.0
  9
$PUCSORTHOREF
  2

  9
$PUCSORTHOVIEW
 70
     0
  9
$PUCSORGTOP
 10
0.0
 20
0.0
 30
0.0
  9
$PUCSORGBOTTOM
 10
0.0
 20
0.0
 30
0.0
  9
$PUCSORGLEFT
 10
0.0
 20
0.0
 30
0.0
  9
$PUCSORGRIGHT
 10
0.0
 20
0.0
 30
0.0
  9
$PUCSORGFRONT
 10
0.0
 20
0.0
 30
0.0
  9
$PUCSORGBACK
 10
0.0
 20
0.0
 30
0.0
  9
$USERI1
 70
     0
  9
$USERI2
 70
     0
  9
$USERI3
 70
     0
  9
$USERI4
 70
     0
  9
$USERI5
 70
     0
  9
$USERR1
 40
0.0
  9
$USERR2
 40
0.0
  9
$USERR3
 40
0.0
  9
$USERR4
 40
0.0
  9
$USERR5
 40
0.0
  9
$WORLDVIEW
 70
     1
  9
$SHADEDGE
 70
     3
  9
$SHADEDIF
 70
    70
  9
$TILEMODE
 70
     1
  9
$MAXACTVP
 70
    48
  9
$PINSBASE
 10
0.0
 20
0.0
 30
0.0
  9
$PLIMCHECK
 70
     0
  9
$PEXTMIN
 10
1.000000000000000E+20
 20
1.000000000000000E+20
 30
1.000000000000000E+20
  9
$PEXTMAX
 10
-1.000000000000000E+20
 20
-1.000000000000000E+20
 30
-1.000000000000000E+20
  9
$PLIMMIN
 10
0.0
 20
0.0
  9
$PLIMMAX
 10
12.0
 20
9.0
  9
$UNITMODE
 70
     0
  9
$VISRETAIN
 70
     1
  9
$PLINEGEN
 70
     0
  9
$PSLTSCALE
 70
     1
  9
$TREEDEPTH
 70
  3020
  9
$CMLSTYLE
  2
Standard
  9
$CMLJUST
 70
     0
  9
$CMLSCALE
 40
1.0
  9
$PROXYGRAPHICS
 70
     1
  9
$MEASUREMENT
 70
     0
  9
$CELWEIGHT
370
    -1
  9
$ENDCAPS
280
     0
  9
$JOINSTYLE
280
     0
  9
$LWDISPLAY
290
     0
  9
$INSUNITS
 70
     0
  9
$HYPERLINKBASE
  1

  9
$STYLESHEET
  1

  9
$XEDIT
290
     1
  9
$CEPSNTYPE
380
     0
  9
$PSTYLEMODE
290
     1
  9
$FINGERPRINTGUID
  2
{FFE95C04-33D2-4560-80D0-1E2918E4EC86}
  9
$VERSIONGUID
  2
{3F96055E-99F5-4AD7-A865-010B476B468A}
  9
$EXTNAMES
290
     1
  9
$PSVPSCALE
 40
0.0
  9
$OLESTARTUP
290
     0
  0
ENDSEC
  0
SECTION
  2
CLASSES
  0
CLASS
  1
ACDBDICTIONARYWDFLT
  2
AcDbDictionaryWithDefault
  3
AutoCAD 2000
 90
        0
280
     0
281
     0
  0
CLASS
  1
ACDBPLACEHOLDER
  2
AcDbPlaceHolder
  3
AutoCAD 2000
 90
        0
280
     0
281
     0
  0
CLASS
  1
LAYOUT
  2
AcDbLayout
  3
AutoCAD 2000
 90
        0
280
     0
281
     0
  0
CLASS
  1
DICTIONARYVAR
  2
AcDbDictionaryVar
  3
AutoCAD 2000
 90
        0
280
     0
281
     0
  0
CLASS
  1
LONG_TRANSACTION
  2
AcDbLongTransaction
  3
AutoCAD 2000
 90
    32768
280
     0
281
     0
  0
CLASS
  1
LWPOLYLINE
  2
AcDbPolyline
  3
AutoCAD 2000
 90
    32768
280
     0
281
     1
  0
CLASS
  1
HATCH
  2
AcDbHatch
  3
AutoCAD 2000
 90
    32768
280
     0
281
     1
  0
CLASS
  1
XRECORD
  2
AcDbXrecord
  3
AutoCAD 2000
 90
    32768
280
     0
281
     0
  0
ENDSEC
  0
SECTION
  2
TABLES
  0
TABLE
  2
VPORT
  5
21B6
330
0
100
AcDbSymbolTable
 70
     2
  0
VPORT
  5
4F3D
330
21B6
100
AcDbSymbolTableRecord
100
AcDbViewportTableRecord
  2
*Active
 70
     0
 10
0.0
 20
0.0
 11
1.0
 21
1.0
 12
162.9646361627111
 22
-10.52643781909239
 13
0.0
 23
0.0
 14
1.0
 24
1.0
 15
0.0
 25
0.0
 16
0.0
 26
0.0
 36
1.0
 17
0.0
 27
0.0
 37
0.0
 40
419.7264528900797
 41
1.953389830508474
 42
50.0
 43
0.0
 44
0.0
 50
0.0
 51
0.0
 71
     0
 72
   100
 73
     1
 74
     3
 75
     0
 76
     0
 77
     0
 78
     0
281
     0
 65
     1
110
0.0
120
0.0
130
0.0
111
1.0
121
0.0
131
0.0
112
0.0
122
1.0
132
0.0
 79
     0
146
0.0
  0
ENDTAB
  0
TABLE
  2
LTYPE
  5
21B3
330
0
100
AcDbSymbolTable
 70
     2
  0
LTYPE
  5
21C1
330
21B3
100
AcDbSymbolTableRecord
100
AcDbLinetypeTableRecord
  2
ByBlock
 70
     0
  3

 72
    65
 73
     0
 40
0.0
  0
LTYPE
  5
21C2
330
21B3
100
AcDbSymbolTableRecord
100
AcDbLinetypeTableRecord
  2
ByLayer
 70
     0
  3

 72
    65
 73
     0
 40
0.0
  0
LTYPE
  5
21C3
330
21B3
100
AcDbSymbolTableRecord
100
AcDbLinetypeTableRecord
  2
CONTINUOUS
 70
     0
  3
Solid line
 72
    65
 73
     0
 40
0.0
  0
LTYPE
  5
21D1
330
21B3
100
AcDbSymbolTableRecord
100
AcDbLinetypeTableRecord
  2
CENTER
 70
     0
  3
__ . __
 72
    65
 73
     4
 40
7.0
 49
4.0
 74
     0
 49
-1.0
 74
     0
 49
1.0
 74
     0
 49
-1.0
 74
     0
  0
ENDTAB
  0
TABLE
  2
LAYER
  5
21B0
102
{ACAD_XDICTIONARY
360
2244
102
}
330
0
100
AcDbSymbolTable
 70
     1
  0
LAYER
  5
21BE
330
21B0
100
AcDbSymbolTableRecord
100
AcDbLayerTableRecord
  2
0
 70
     0
 62
     7
  6
CONTINUOUS
370
    -3
390
21BD
  0
ENDTAB
  0
TABLE
  2
STYLE
  5
21B1
330
0
100
AcDbSymbolTable
 70
     1
  0
STYLE
  5
21BF
330
21B1
100
AcDbSymbolTableRecord
100
AcDbTextStyleTableRecord
  2
STANDARD
 70
     0
 40
0.0
 41
1.0
 50
0.0
 71
     0
 42
0.2
  3
txt
  4
BIGFONT
  0
ENDTAB
  0
TABLE
  2
VIEW
  5
21B4
330
0
100
AcDbSymbolTable
 70
     1
  0
VIEW
  5
21DE
330
21B4
100
AcDbSymbolTableRecord
100
AcDbViewTableRecord
  2
OLE1
 70
     0
 40
3692.141019219747
 10
1914.591370701856
 20
1272.206200738182
 41
4595.022665841169
 11
0.0
 21
0.0
 31
1.0
 12
0.0
 22
0.0
 32
0.0
 42
50.0
 43
0.0
 44
0.0
 50
0.0
 71
     0
281
     0
 72
     1
110
0.0
120
0.0
130
0.0
111
1.0
121
0.0
131
0.0
112
0.0
122
1.0
132
0.0
 79
     0
146
0.0
  0
ENDTAB
  0
TABLE
  2
UCS
  5
21B5
330
0
100
AcDbSymbolTable
 70
     0
  0
ENDTAB
  0
TABLE
  2
APPID
  5
21B7
330
0
100
AcDbSymbolTable
 70
     8
  0
APPID
  5
21C0
330
21B7
100
AcDbSymbolTableRecord
100
AcDbRegAppTableRecord
  2
ACAD
 70
     0
  0
APPID
  5
21DF
330
21B7
100
AcDbSymbolTableRecord
100
AcDbRegAppTableRecord
  2
MCAD_NO_VIS
 70
     0
  0
APPID
  5
21E0
330
21B7
100
AcDbSymbolTableRecord
100
AcDbRegAppTableRecord
  2
ACAD_TEMP_GRAPHIC
 70
     0
  0
APPID
  5
21E1
330
21B7
100
AcDbSymbolTableRecord
100
AcDbRegAppTableRecord
  2
ACATTRIBSERVICES
 70
     0
  0
APPID
  5
21E2
330
21B7
100
AcDbSymbolTableRecord
100
AcDbRegAppTableRecord
  2
CONTENTBLOCKICON
 70
     0
  0
APPID
  5
2241
330
21B7
100
AcDbSymbolTableRecord
100
AcDbRegAppTableRecord
  2
ACAD_DSTYLE_DIMJAG
 70
     0
  0
APPID
  5
2242
330
21B7
100
AcDbSymbolTableRecord
100
AcDbRegAppTableRecord
  2
ACAD_DSTYLE_DIMTALN
 70
     0
  0
APPID
  5
2243
330
21B7
100
AcDbSymbolTableRecord
100
AcDbRegAppTableRecord
  2
ACAD_PSEXT
 70
     0
  0
ENDTAB
  0
TABLE
  2
DIMSTYLE
  5
21B8
330
0
100
AcDbSymbolTable
 70
     1
100
AcDbDimStyleTable
 71
     0
  0
DIMSTYLE
105
21E3
330
21B8
100
AcDbSymbolTableRecord
100
AcDbDimStyleTableRecord
  2
STANDARD
 70
     0
279
     2
340
21BF
  0
ENDTAB
  0
TABLE
  2
BLOCK_RECORD
  5
21AF
330
0
100
AcDbSymbolTable
 70
     0
  0
BLOCK_RECORD
  5
21CC
102
{ACAD_XDICTIONARY
360
21F8
102
}
330
21AF
100
AcDbSymbolTableRecord
100
AcDbBlockTableRecord
  2
*Model_Space
340
21CF
  0
BLOCK_RECORD
  5
21C8
102
{ACAD_XDICTIONARY
360
21FA
102
}
330
21AF
100
AcDbSymbolTableRecord
100
AcDbBlockTableRecord
  2
*Paper_Space
340
21CB
  0
ENDTAB
  0
ENDSEC
  0
SECTION
  2
BLOCKS
  0
BLOCK
  5
21CD
330
21CC
100
AcDbEntity
  8
0
100
AcDbBlockBegin
  2
*Model_Space
 70
     0
 10
0.0
 20
0.0
 30
0.0
  3
*Model_Space
  1

  0
ENDBLK
  5
21CE
330
21CC
100
AcDbEntity
  8
0
100
AcDbBlockEnd
  0
BLOCK
  5
21C9
330
21C8
100
AcDbEntity
 67
     1
  8
0
100
AcDbBlockBegin
  2
*Paper_Space
 70
     0
 10
0.0
 20
0.0
 30
0.0
  3
*Paper_Space
  1

  0
ENDBLK
  5
21CA
330
21C8
100
AcDbEntity
 67
     1
  8
0
100
AcDbBlockEnd
  0
ENDSEC
  0
SECTION
  2
ENTITIES
  0
TEXT
  5
F6E
330
21CC
100
AcDbEntity
  8
0
  6
Continuous
100
AcDbText
 10
0.0
 20
150.0
 30
0.0
 40
48.000002
  1
SGQ 2S
 41
1.32095
100
AcDbText
  0
LINE
  5
4794
330
21CC
100
AcDbEntity
  8
0
  6
Continuous
100
AcDbLine
 10
80.00000119209289
 20
-135.2528908142244
 30
0.0
 11
80.00000119209289
 21
-136.252883199731
 31
0.0
  0
LINE
  5
4795
330
21CC
100
AcDbEntity
  8
0
  6
Continuous
100
AcDbLine
 10
78.00000116229057
 20
-138.2528832295333
 30
0.0
 11
6.65261792944284
 21
-138.2528832295333
 31
0.0
  0
LINE
  5
4796
330
21CC
100
AcDbEntity
  8
0
  6
Continuous
100
AcDbLine
 10
81.90305822322045
 20
-137.1281807591608
 30
0.0
 11
158.0969453530583
 21
-137.1281807591603
 31
0.0
  0
ARC
  5
4797
330
21CC
100
AcDbEntity
  8
0
  6
Continuous
100
AcDbCircle
 10
78.00000116229057
 20
-136.252883199731
 30
0.0
 40
2.000000029802321
100
AcDbArc
 50
270.0000043257204
 51
0.000005008963459
  0
ARC
  5
4798
330
21CC
100
AcDbEntity
  8
0
  6
Continuous
100
AcDbCircle
 10
32.4852910114123
 20
-163.6528851339021
 30
0.0
 40
53.87770923789901
100
AcDbArc
 50
333.1602641787293
 51
26.83973582127069
  0
LINE
  5
4799
330
21CC
100
AcDbEntity
  8
0
  6
Continuous
100
AcDbLine
 10
75.50000178813935
 20
-135.2528906875645
 30
0.0
 11
117.0000017881393
 21
-135.2528906875645
 31
0.0
  0
LINE
  5
479A
330
21CC
100
AcDbEntity
  8
0
  6
Continuous
100
AcDbLine
 10
75.50000178813935
 20
-118.2528906875645
 30
0.0
 11
117.0000017881393
 21
-118.2528906875645
 31
0.0
  0
LINE
  5
479B
330
21CC
100
AcDbEntity
  8
0
  6
Continuous
100
AcDbLine
 10
67.50000178813934
 20
-121.1646538787886
 30
0.0
 11
67.50000178813934
 21
-132.3411274963423
 31
0.0
  0
LINE
  5
479C
330
21CC
100
AcDbEntity
  8
0
  6
Continuous
100
AcDbLine
 10
67.50000146814272
 20
-121.1646539343396
 30
0.0
 11
75.50000306957599
 21
-118.2528913730707
 31
0.0
  0
LINE
  5
479D
330
21CC
100
AcDbEntity
  8
0
  6
Continuous
100
AcDbLine
 10
67.50000146814318
 20
-132.3411274407894
 30
0.0
 11
75.50000306957645
 21
-135.2528900020588
 31
0.0
  0
LINE
  5
479E
330
21CC
100
AcDbEntity
  8
0
  6
Continuous
100
AcDbLine
 10
117.0000017881393
 20
-118.2528906875645
 30
0.0
 11
117.0000017881393
 21
-135.2528906875645
 31
0.0
  0
LINE
  5
479F
330
21CC
100
AcDbEntity
  8
0
  6
Continuous
100
AcDbLine
 10
105.0000017881393
 20
-119.2473369651829
 30
0.0
 11
105.0000017881393
 21
-134.2584444099461
 31
0.0
  0
LINE
  5
47A0
330
21CC
100
AcDbEntity
  8
0
  6
Continuous
100
AcDbLine
 10
123.0000017881394
 20
-122.7528906875645
 30
0.0
 11
117.0000017881393
 21
-122.7528906875645
 31
0.0
  0
LINE
  5
47A1
330
21CC
100
AcDbEntity
  8
0
  6
Continuous
100
AcDbLine
 10
123.0000017881394
 20
-130.7528906875645
 30
0.0
 11
117.0000017881393
 21
-130.7528906875645
 31
0.0
  0
LINE
  5
47A2
330
21CC
100
AcDbEntity
  8
0
  6
Continuous
100
AcDbLine
 10
99.50000178813935
 20
-121.1237255149876
 30
0.0
 11
99.50000178813935
 21
-132.3820558601414
 31
0.0
  0
LINE
  5
47A3
330
21CC
100
AcDbEntity
  8
0
  6
Continuous
100
AcDbLine
 10
100.2248953580856
 20
-119.2473369651829
 30
0.0
 11
105.0000017881393
 21
-119.2473369651829
 31
0.0
  0
LINE
  5
47A4
330
21CC
100
AcDbEntity
  8
0
  6
Continuous
100
AcDbLine
 10
100.2248953580856
 20
-134.2584444099461
 30
0.0
 11
105.0000017881393
 21
-134.2584444099461
 31
0.0
  0
LINE
  5
47A5
330
21CC
100
AcDbEntity
  8
0
  6
Continuous
100
AcDbLine
 10
100.2248953580856
 20
-123.0001138263737
 30
0.0
 11
105.0000017881393
 21
-123.0001138263737
 31
0.0
  0
LINE
  5
47A6
330
21CC
100
AcDbEntity
  8
0
  6
Continuous
100
AcDbLine
 10
100.2248953580856
 20
-130.5056675487553
 30
0.0
 11
105.0000017881393
 21
-130.5056675487553
 31
0.0
  0
LINE
  5
47A7
330
21CC
100
AcDbEntity
  8
0
  6
Continuous
100
AcDbLine
 10
67.50000178813934
 20
-121.1646538787876
 30
0.0
 11
99.50000178813935
 21
-121.1646538787876
 31
0.0
  0
LINE
  5
47A8
330
21CC
100
AcDbEntity
  8
0
  6
Continuous
100
AcDbLine
 10
67.50000178813934
 20
-132.3411274963414
 30
0.0
 11
99.50000178813935
 21
-132.3411274963414
 31
0.0
  0
LINE
  5
47A9
330
21CC
100
AcDbEntity
  8
0
  6
Continuous
100
AcDbLine
 10
105.0000017881393
 20
-119.7528906875645
 30
0.0
 11
117.0000017881393
 21
-119.7528906875645
 31
0.0
  0
LINE
  5
47AA
330
21CC
100
AcDbEntity
  8
0
  6
Continuous
100
AcDbLine
 10
105.0000017881393
 20
-133.7528906875645
 30
0.0
 11
117.0000017881393
 21
-133.7528906875645
 31
0.0
  0
ARC
  5
47AB
330
21CC
100
AcDbEntity
  8
0
  6
Continuous
100
AcDbCircle
 10
102.2909621000289
 20
-132.3820558601414
 30
0.0
 40
2.790960788726806
100
AcDbArc
 50
137.7544653697283
 51
222.2455309877982
  0
ARC
  5
47AC
330
21CC
100
AcDbEntity
  8
0
  6
Continuous
100
AcDbCircle
 10
109.5765017271041
 20
-126.7528906875645
 30
0.0
 40
10.07649993896484
100
AcDbArc
 50
158.1345204190074
 51
201.8654759385425
  0
ARC
  5
47AD
330
21CC
100
AcDbEntity
  8
0
  6
Continuous
100
AcDbCircle
 10
102.2909621000289
 20
-121.1237255149876
 30
0.0
 40
2.790960788726806
100
AcDbArc
 50
137.7544653697283
 51
222.2455309877982
  0
LINE
  5
47AE
330
21CC
100
AcDbEntity
  8
0
  6
Continuous
100
AcDbLine
 10
75.50000178813935
 20
-209.0528795802388
 30
0.0
 11
117.0000017881393
 21
-209.0528795802388
 31
0.0
  0
LINE
  5
47AF
330
21CC
100
AcDbEntity
  8
0
  6
Continuous
100
AcDbLine
 10
75.50000178813935
 20
-192.0528795802388
 30
0.0
 11
117.0000017881393
 21
-192.0528795802388
 31
0.0
  0
LINE
  5
47B0
330
21CC
100
AcDbEntity
  8
0
  6
Continuous
100
AcDbLine
 10
100.2248953580856
 20
-196.800102719048
 30
0.0
 11
105.0000017881393
 21
-196.800102719048
 31
0.0
  0
LINE
  5
47B1
330
21CC
100
AcDbEntity
  8
0
  6
Continuous
100
AcDbLine
 10
100.2248953580856
 20
-204.3056564414296
 30
0.0
 11
105.0000017881393
 21
-204.3056564414296
 31
0.0
  0
LINE
  5
47B2
330
21CC
100
AcDbEntity
  8
0
  6
Continuous
100
AcDbLine
 10
100.2248953580856
 20
-193.0473258578572
 30
0.0
 11
105.0000017881393
 21
-193.0473258578572
 31
0.0
  0
LINE
  5
47B3
330
21CC
100
AcDbEntity
  8
0
  6
Continuous
100
AcDbLine
 10
100.2248953580856
 20
-208.0584333026204
 30
0.0
 11
105.0000017881393
 21
-208.0584333026204
 31
0.0
  0
LINE
  5
47B4
330
21CC
100
AcDbEntity
  8
0
  6
Continuous
100
AcDbLine
 10
81.90305822322045
 20
-190.1775895086425
 30
0.0
 11
158.0969453530586
 21
-190.1775895086425
 31
0.0
  0
LINE
  5
47B5
330
21CC
100
AcDbEntity
  8
0
  6
Continuous
100
AcDbLine
 10
99.50000178813935
 20
-206.1820447528157
 30
0.0
 11
99.50000178813935
 21
-194.9237144076619
 31
0.0
  0
ARC
  5
47B6
330
21CC
100
AcDbEntity
  8
0
  6
Continuous
100
AcDbCircle
 10
109.5765017271041
 20
-200.5528795802388
 30
0.0
 40
10.07649993896484
100
AcDbArc
 50
158.1345240614574
 51
201.8654795809925
  0
LINE
  5
47B7
330
21CC
100
AcDbEntity
  8
0
  6
Continuous
100
AcDbLine
 10
67.50000178813934
 20
-194.9646427714619
 30
0.0
 11
99.50000178813935
 21
-194.9646427714619
 31
0.0
  0
ARC
  5
47B8
330
21CC
100
AcDbEntity
  8
0
  6
Continuous
100
AcDbCircle
 10
102.2909621000289
 20
-194.9237144076619
 30
0.0
 40
2.790960788726806
100
AcDbArc
 50
137.7544690122017
 51
222.2455346302716
  0
LINE
  5
47B9
330
21CC
100
AcDbEntity
  8
0
  6
Continuous
100
AcDbLine
 10
67.50000178813934
 20
-206.1411163890156
 30
0.0
 11
99.50000178813935
 21
-206.1411163890156
 31
0.0
  0
ARC
  5
47BA
330
21CC
100
AcDbEntity
  8
0
  6
Continuous
100
AcDbCircle
 10
102.2909621000289
 20
-206.1820447528157
 30
0.0
 40
2.790960788726806
100
AcDbArc
 50
137.7544690122017
 51
222.2455346302716
  0
LINE
  5
47BB
330
21CC
100
AcDbEntity
  8
0
  6
Continuous
100
AcDbLine
 10
105.0000017881393
 20
-208.0584333026204
 30
0.0
 11
105.0000017881393
 21
-193.0473258578572
 31
0.0
  0
LINE
  5
47BC
330
21CC
100
AcDbEntity
  8
0
  6
Continuous
100
AcDbLine
 10
105.0000017881393
 20
-193.5528795802388
 30
0.0
 11
117.0000017881393
 21
-193.5528795802388
 31
0.0
  0
LINE
  5
47BD
330
21CC
100
AcDbEntity
  8
0
  6
Continuous
100
AcDbLine
 10
105.0000017881393
 20
-207.5528795802388
 30
0.0
 11
117.0000017881393
 21
-207.5528795802388
 31
0.0
  0
LINE
  5
47BE
330
21CC
100
AcDbEntity
  8
0
  6
Continuous
100
AcDbLine
 10
117.0000017881393
 20
-209.0528795802388
 30
0.0
 11
117.0000017881393
 21
-192.0528795802388
 31
0.0
  0
LINE
  5
47BF
330
21CC
100
AcDbEntity
  8
0
  6
Continuous
100
AcDbLine
 10
123.0000017881397
 20
-196.5528795802388
 30
0.0
 11
117.0000017881393
 21
-196.5528795802388
 31
0.0
  0
LINE
  5
47C0
330
21CC
100
AcDbEntity
  8
0
  6
Continuous
100
AcDbLine
 10
123.0000017881399
 20
-204.5528795802388
 30
0.0
 11
117.0000017881393
 21
-204.5528795802388
 31
0.0
  0
LINE
  5
47C1
330
21CC
100
AcDbEntity
  8
0
  6
Continuous
100
AcDbLine
 10
67.50000178813934
 20
-206.1411163890147
 30
0.0
 11
67.50000178813934
 21
-194.964642771461
 31
0.0
  0
LINE
  5
47C2
330
21CC
100
AcDbEntity
  8
0
  6
Continuous
100
AcDbLine
 10
67.50000146814318
 20
-194.9646428270139
 30
0.0
 11
75.50000306957645
 21
-192.0528802657445
 31
0.0
  0
LINE
  5
47C3
330
21CC
100
AcDbEntity
  8
0
  6
Continuous
100
AcDbLine
 10
67.50000146814272
 20
-206.1411163334637
 30
0.0
 11
75.50000306957599
 21
-209.0528788947326
 31
0.0
  0
LINE
  5
47C4
330
21CC
100
AcDbEntity
  8
0
  6
Continuous
100
AcDbLine
 10
80.00000119209289
 20
-192.0528794535789
 30
0.0
 11
80.00000119209289
 21
-191.0528870680723
 31
0.0
  0
LINE
  5
47C5
330
21CC
100
AcDbEntity
  8
0
  6
Continuous
100
AcDbLine
 10
78.00000116229057
 20
-189.05288703827
 30
0.0
 11
6.65261792944284
 21
-189.05288703827
 31
0.0
  0
ARC
  5
47C6
330
21CC
100
AcDbEntity
  8
0
  6
Continuous
100
AcDbCircle
 10
78.00000116229057
 20
-191.0528870680723
 30
0.0
 40
2.000000029802321
100
AcDbArc
 50
359.9999949910365
 51
89.99999567427954
  0
LINE
  5
47C7
330
21CC
100
AcDbEntity
  8
0
  6
Continuous
100
AcDbLine
 10
117.0000017434358
 20
66.9999984257388
 30
0.0
 11
117.0000017434358
 21
43.31569960035404
 31
0.0
  0
LINE
  5
47C8
330
21CC
100
AcDbEntity
  8
0
  6
Continuous
100
AcDbLine
 10
105.0000015646219
 20
66.9999984257388
 30
0.0
 11
105.0000015646219
 21
51.05144281879666
 31
0.0
  0
LINE
  5
47C9
330
21CC
100
AcDbEntity
  8
0
  6
Continuous
100
AcDbLine
 10
117.0000017434358
 20
66.9999984257388
 30
0.0
 11
105.0000015646219
 21
66.9999984257388
 31
0.0
  0
LINE
  5
47CA
330
21CC
100
AcDbEntity
  8
0
  6
Continuous
100
AcDbLine
 10
135.0000020116567
 20
66.9999984257388
 30
0.0
 11
135.0000020116567
 21
51.05144281879666
 31
0.0
  0
LINE
  5
47CB
330
21CC
100
AcDbEntity
  8
0
  6
Continuous
100
AcDbLine
 10
123.0000018328428
 20
66.9999984257388
 30
0.0
 11
135.0000020116567
 21
66.9999984257388
 31
0.0
  0
LINE
  5
47CC
330
21CC
100
AcDbEntity
  8
0
  6
Continuous
100
AcDbLine
 10
123.0000018328428
 20
66.9999984257388
 30
0.0
 11
123.0000018328428
 21
43.31569960035404
 31
0.0
  0
LINE
  5
47CD
330
21CC
100
AcDbEntity
  8
0
  6
Continuous
100
AcDbLine
 10
123.0000018328428
 20
63.99999838103531
 30
0.0
 11
117.0000017434358
 21
63.99999838103531
 31
0.0
  0
LINE
  5
47CE
330
21CC
100
AcDbEntity
  8
0
  6
Continuous
100
AcDbLine
 10
123.0000018328428
 20
55.99999826182602
 30
0.0
 11
117.0000017434358
 21
55.99999826182602
 31
0.0
  0
LINE
  5
47CF
330
21CC
100
AcDbEntity
  8
0
  6
Continuous
100
AcDbLine
 10
105.0000015646219
 20
-67.0000035710168
 30
0.0
 11
105.0000015646219
 21
-51.05144796407421
 31
0.0
  0
LINE
  5
47D0
330
21CC
100
AcDbEntity
  8
0
  6
Continuous
100
AcDbLine
 10
117.0000017434358
 20
-67.0000035710168
 30
0.0
 11
105.0000015646219
 21
-67.0000035710168
 31
0.0
  0
LINE
  5
47D1
330
21CC
100
AcDbEntity
  8
0
  6
Continuous
100
AcDbLine
 10
117.0000017434358
 20
-67.0000035710168
 30
0.0
 11
117.0000017434358
 21
-43.31570474563159
 31
0.0
  0
LINE
  5
47D2
330
21CC
100
AcDbEntity
  8
0
  6
Continuous
100
AcDbLine
 10
123.0000018328428
 20
-67.0000035710168
 30
0.0
 11
135.0000020116567
 21
-67.0000035710168
 31
0.0
  0
LINE
  5
47D3
330
21CC
100
AcDbEntity
  8
0
  6
Continuous
100
AcDbLine
 10
123.0000018328428
 20
-67.0000035710168
 30
0.0
 11
123.0000018328428
 21
-43.31570474563159
 31
0.0
  0
LINE
  5
47D4
330
21CC
100
AcDbEntity
  8
0
  6
Continuous
100
AcDbLine
 10
123.0000018328428
 20
-64.00000352631332
 30
0.0
 11
117.0000017434358
 21
-64.00000352631332
 31
0.0
  0
LINE
  5
47D5
330
21CC
100
AcDbEntity
  8
0
  6
Continuous
100
AcDbLine
 10
123.0000018328428
 20
-56.00000340710403
 30
0.0
 11
117.0000017434358
 21
-56.00000340710403
 31
0.0
  0
LINE
  5
47D6
330
21CC
100
AcDbEntity
  8
0
  6
Continuous
100
AcDbLine
 10
135.0000020116567
 20
-67.0000035710168
 30
0.0
 11
135.0000020116567
 21
-51.05144796407421
 31
0.0
  0
LINE
  5
47D7
330
21CC
100
AcDbEntity
  8
0
  6
Continuous
100
AcDbLine
 10
148.000002220273
 20
-64.00000352631332
 30
0.0
 11
143.5000021383166
 21
-64.00000352631332
 31
0.0
  0
LINE
  5
47D8
330
21CC
100
AcDbEntity
  8
0
  6
Continuous
100
AcDbLine
 10
143.5000021383166
 20
-65.00000354121448
 30
0.0
 11
143.5000021383166
 21
-55.00000339220287
 31
0.0
  0
LINE
  5
47D9
330
21CC
100
AcDbEntity
  8
0
  6
Continuous
100
AcDbLine
 10
149.000002220273
 20
-63.00000352631332
 30
0.0
 11
149.000002220273
 21
-57.00000340710403
 31
0.0
  0
LINE
  5
47DA
330
21CC
100
AcDbEntity
  8
0
  6
Continuous
100
AcDbLine
 10
142.5000021234154
 20
-66.00000355611564
 30
0.0
 11
141.5000021085143
 21
-66.00000355611564
 31
0.0
  0
LINE
  5
47DB
330
21CC
100
AcDbEntity
  8
0
  6
Continuous
100
AcDbLine
 10
142.5000021234154
 20
-54.00000337730171
 30
0.0
 11
141.5000021085143
 21
-54.00000337730171
 31
0.0
  0
LINE
  5
47DC
330
21CC
100
AcDbEntity
  8
0
  6
Continuous
100
AcDbLine
 10
140.7751085277661
 20
-60.00000346670868
 30
0.0
 11
135.7248955924046
 21
-60.00000346670868
 31
0.0
  0
LINE
  5
47DD
330
21CC
100
AcDbEntity
  8
0
  6
Continuous
100
AcDbLine
 10
141.5000021085143
 20
-53.50000336985113
 30
0.0
 11
141.5000021085143
 21
-66.50000356356622
 31
0.0
  0
LINE
  5
47DE
330
21CC
100
AcDbEntity
  8
0
  6
Continuous
100
AcDbLine
 10
141.5000021085143
 20
-53.50000336985113
 30
0.0
 11
135.0000020116567
 21
-53.50000336985113
 31
0.0
  0
LINE
  5
47DF
330
21CC
100
AcDbEntity
  8
0
  6
Continuous
100
AcDbLine
 10
141.5000021085143
 20
-66.50000356356622
 30
0.0
 11
135.0000020116567
 21
-66.50000356356622
 31
0.0
  0
LINE
  5
47E0
330
21CC
100
AcDbEntity
  8
0
  6
Continuous
100
AcDbLine
 10
148.000002220273
 20
-56.00000340710403
 30
0.0
 11
143.5000021383166
 21
-56.00000340710403
 31
0.0
  0
LINE
  5
47E1
330
21CC
100
AcDbEntity
  8
0
  6
Continuous
100
AcDbLine
 10
100.2248950634136
 20
-60.00000346670868
 30
0.0
 11
105.0000015646219
 21
-60.00000346670868
 31
0.0
  0
LINE
  5
47E2
330
21CC
100
AcDbEntity
  8
0
  6
Continuous
100
AcDbLine
 10
99.50000148266553
 20
-63.250003515137
 30
0.0
 11
99.50000148266553
 21
-56.7500034182799
 31
0.0
  0
LINE
  5
47E3
330
21CC
100
AcDbEntity
  8
0
  6
Continuous
100
AcDbLine
 10
100.2248950634136
 20
-66.50000356356622
 30
0.0
 11
105.0000015646219
 21
-66.50000356356622
 31
0.0
  0
LINE
  5
47E4
330
21CC
100
AcDbEntity
  8
0
  6
Continuous
100
AcDbLine
 10
100.2248950634136
 20
-53.50000336985113
 30
0.0
 11
105.0000015646219
 21
-53.50000336985113
 31
0.0
  0
LINE
  5
47E5
330
21CC
100
AcDbEntity
  8
0
  6
Continuous
100
AcDbLine
 10
100.2248950634102
 20
59.99999832142975
 30
0.0
 11
105.0000015646187
 21
59.99999832143021
 31
0.0
  0
LINE
  5
47E6
330
21CC
100
AcDbEntity
  8
0
  6
Continuous
100
AcDbLine
 10
99.50000148266212
 20
63.24999836985853
 30
0.0
 11
99.50000148266259
 21
56.74999827300098
 31
0.0
  0
LINE
  5
47E7
330
21CC
100
AcDbEntity
  8
0
  6
Continuous
100
AcDbLine
 10
100.22489506341
 20
66.4999984182873
 30
0.0
 11
105.0000015646182
 21
66.49999841828776
 31
0.0
  0
LINE
  5
47E8
330
21CC
100
AcDbEntity
  8
0
  6
Continuous
100
AcDbLine
 10
100.2248950634107
 20
53.4999982245722
 30
0.0
 11
105.0000015646189
 21
53.49999822457267
 31
0.0
  0
LINE
  5
47E9
330
21CC
100
AcDbEntity
  8
0
  6
Continuous
100
AcDbLine
 10
148.000002220273
 20
63.99999838103531
 30
0.0
 11
143.5000021383166
 21
63.99999838103531
 31
0.0
  0
LINE
  5
47EA
330
21CC
100
AcDbEntity
  8
0
  6
Continuous
100
AcDbLine
 10
143.5000021383166
 20
64.99999839593647
 30
0.0
 11
143.5000021383166
 21
54.99999824692486
 31
0.0
  0
LINE
  5
47EB
330
21CC
100
AcDbEntity
  8
0
  6
Continuous
100
AcDbLine
 10
149.000002220273
 20
62.99999838103531
 30
0.0
 11
149.000002220273
 21
56.99999826182602
 31
0.0
  0
LINE
  5
47EC
330
21CC
100
AcDbEntity
  8
0
  6
Continuous
100
AcDbLine
 10
142.5000021234154
 20
65.99999841083763
 30
0.0
 11
141.5000021085143
 21
65.99999841083763
 31
0.0
  0
LINE
  5
47ED
330
21CC
100
AcDbEntity
  8
0
  6
Continuous
100
AcDbLine
 10
142.5000021234154
 20
53.9999982320237
 30
0.0
 11
141.5000021085143
 21
53.9999982320237
 31
0.0
  0
LINE
  5
47EE
330
21CC
100
AcDbEntity
  8
0
  6
Continuous
100
AcDbLine
 10
140.7751085277661
 20
59.99999832143067
 30
0.0
 11
135.7248955924046
 21
59.99999832143067
 31
0.0
  0
LINE
  5
47EF
330
21CC
100
AcDbEntity
  8
0
  6
Continuous
100
AcDbLine
 10
141.5000021085143
 20
53.49999822457312
 30
0.0
 11
141.5000021085143
 21
66.49999841828821
 31
0.0
  0
LINE
  5
47F0
330
21CC
100
AcDbEntity
  8
0
  6
Continuous
100
AcDbLine
 10
141.5000021085143
 20
53.49999822457312
 30
0.0
 11
135.0000020116567
 21
53.49999822457312
 31
0.0
  0
LINE
  5
47F1
330
21CC
100
AcDbEntity
  8
0
  6
Continuous
100
AcDbLine
 10
141.5000021085143
 20
66.49999841828821
 30
0.0
 11
135.0000020116567
 21
66.49999841828821
 31
0.0
  0
LINE
  5
47F2
330
21CC
100
AcDbEntity
  8
0
  6
Continuous
100
AcDbLine
 10
148.000002220273
 20
55.99999826182602
 30
0.0
 11
143.5000021383166
 21
55.99999826182602
 31
0.0
  0
ARC
  5
47F3
330
21CC
100
AcDbEntity
  8
0
  6
Continuous
100
AcDbCircle
 10
120.0000017881393
 20
-0.0000025726390049
 30
0.0
 40
42.50000063329935
100
AcDbArc
 50
275.2760305827692
 51
84.72396941723081
  0
ARC
  5
47F4
330
21CC
100
AcDbEntity
  8
0
  6
Continuous
100
AcDbCircle
 10
120.0000017881393
 20
-0.0000025726390049
 30
0.0
 40
42.50000063329935
100
AcDbArc
 50
95.27603058276918
 51
264.7239694172308
  0
ARC
  5
47F5
330
21CC
100
AcDbEntity
  8
0
  6
Continuous
100
AcDbCircle
 10
142.5000021234154
 20
-65.00000354121448
 30
0.0
 40
1.00000001490116
100
AcDbArc
 50
270.0000043257074
 51
0.000005008963459
  0
ARC
  5
47F6
330
21CC
100
AcDbEntity
  8
0
  6
Continuous
100
AcDbCircle
 10
142.5000021234154
 20
-55.00000339220287
 30
0.0
 40
1.00000001490116
100
AcDbArc
 50
359.9999949910365
 51
89.99999567429256
  0
ARC
  5
47F7
330
21CC
100
AcDbEntity
  8
0
  6
Continuous
100
AcDbCircle
 10
133.8520069994331
 20
-56.7500034182799
 30
0.0
 40
7.647995109081192
100
AcDbArc
 50
334.8526248817742
 51
25.14737170312175
  0
ARC
  5
47F8
330
21CC
100
AcDbEntity
  8
0
  6
Continuous
100
AcDbCircle
 10
133.8520069994331
 20
-63.250003515137
 30
0.0
 40
7.647995109081192
100
AcDbArc
 50
334.8526317119531
 51
25.14737170312175
  0
ARC
  5
47F9
330
21CC
100
AcDbEntity
  8
0
  6
Continuous
100
AcDbCircle
 10
142.6479971207379
 20
-56.7500034182799
 30
0.0
 40
7.647995109081192
100
AcDbArc
 50
154.8526281831849
 51
205.1473681743535
  0
ARC
  5
47FA
330
21CC
100
AcDbEntity
  8
0
  6
Continuous
100
AcDbCircle
 10
142.6479971207379
 20
-63.250003515137
 30
0.0
 40
7.647995109081192
100
AcDbArc
 50
154.8526281831849
 51
205.1473681743535
  0
ARC
  5
47FB
330
21CC
100
AcDbEntity
  8
0
  6
Continuous
100
AcDbCircle
 10
107.1479965917467
 20
-63.250003515137
 30
0.0
 40
7.647994632244027
100
AcDbArc
 50
154.8526281831849
 51
205.1473681743535
  0
ARC
  5
47FC
330
21CC
100
AcDbEntity
  8
0
  6
Continuous
100
AcDbCircle
 10
107.1479965917467
 20
-56.7500034182799
 30
0.0
 40
7.647994632244027
100
AcDbArc
 50
154.8526281831849
 51
205.1473681743535
  0
ARC
  5
47FD
330
21CC
100
AcDbEntity
  8
0
  6
Continuous
100
AcDbCircle
 10
107.1479965917467
 20
63.24999836985944
 30
0.0
 40
7.647994632244027
100
AcDbArc
 50
154.8526281831849
 51
205.1473681743535
  0
ARC
  5
47FE
330
21CC
100
AcDbEntity
  8
0
  6
Continuous
100
AcDbCircle
 10
107.1479965917467
 20
56.74999827300189
 30
0.0
 40
7.647994632244027
100
AcDbArc
 50
154.8526281831849
 51
205.1473681743535
  0
ARC
  5
47FF
330
21CC
100
AcDbEntity
  8
0
  6
Continuous
100
AcDbCircle
 10
142.5000021234154
 20
64.99999839593647
 30
0.0
 40
1.00000001490116
100
AcDbArc
 50
359.9999949910365
 51
89.99999567429256
  0
ARC
  5
4800
330
21CC
100
AcDbEntity
  8
0
  6
Continuous
100
AcDbCircle
 10
142.5000021234154
 20
54.99999824692486
 30
0.0
 40
1.00000001490116
100
AcDbArc
 50
270.0000043257074
 51
0.000005008963459
  0
ARC
  5
4801
330
21CC
100
AcDbEntity
  8
0
  6
Continuous
100
AcDbCircle
 10
133.8520069994331
 20
56.74999827300189
 30
0.0
 40
7.647995109081192
100
AcDbArc
 50
334.8526282968782
 51
25.14737511822574
  0
ARC
  5
4802
330
21CC
100
AcDbEntity
  8
0
  6
Continuous
100
AcDbCircle
 10
133.8520069994331
 20
63.24999836985944
 30
0.0
 40
7.647995109081192
100
AcDbArc
 50
334.8526282968782
 51
25.14736828804689
  0
ARC
  5
4803
330
21CC
100
AcDbEntity
  8
0
  6
Continuous
100
AcDbCircle
 10
142.6479971207379
 20
56.74999827300189
 30
0.0
 40
7.647995109081192
100
AcDbArc
 50
154.8526281831849
 51
205.1473681743535
  0
ARC
  5
4804
330
21CC
100
AcDbEntity
  8
0
  6
Continuous
100
AcDbCircle
 10
142.6479971207379
 20
63.24999836985944
 30
0.0
 40
7.647995109081192
100
AcDbArc
 50
154.8526281831849
 51
205.1473681743535
  0
LINE
  5
4805
330
21CC
100
AcDbEntity
  8
0
  6
Continuous
100
AcDbLine
 10
74.05340250809763
 20
25.39999933172976
 30
0.0
 11
6.647096439814731
 21
25.39999933172976
 31
0.0
  0
LINE
  5
4806
330
21CC
100
AcDbEntity
  8
0
  6
Continuous
100
AcDbLine
 10
74.05339829044919
 20
-25.39999684761232
 30
0.0
 11
6.652620706315587
 21
-25.39999684761232
 31
0.0
  0
LINE
  5
4807
330
21CC
100
AcDbEntity
  8
0
  6
CENTER
100
AcDbLine
 10
-8.013838788414432
 20
0.0
 30
0.0
 11
247.9861647878641
 21
0.0
 31
0.0
  0
LINE
  5
4808
330
21CC
100
AcDbEntity
  8
0
  6
Continuous
100
AcDbLine
 10
165.946601068181
 20
-25.40000447700686
 30
0.0
 11
233.3529071363815
 21
-25.40000447700686
 31
0.0
  0
LINE
  5
4809
330
21CC
100
AcDbEntity
  8
0
  6
Continuous
100
AcDbLine
 10
165.4500146724285
 20
25.39999170233523
 30
0.0
 11
233.3473828699632
 21
25.39999170233523
 31
0.0
  0
ARC
  5
480A
330
21CC
100
AcDbEntity
  8
0
  6
Continuous
100
AcDbCircle
 10
136.0000020116567
 20
-51.05144796407421
 30
0.0
 40
1.0
100
AcDbArc
 50
107.4014787600153
 51
180.0
  0
ARC
  5
480B
330
21CC
100
AcDbEntity
  8
0
  6
Continuous
100
AcDbCircle
 10
104.0000015646219
 20
-51.05144796407421
 30
0.0
 40
1.0
100
AcDbArc
 50
0.0
 51
72.59852123999905
  0
ARC
  5
480C
330
21CC
100
AcDbEntity
  8
0
  6
Continuous
100
AcDbCircle
 10
104.0000015646221
 20
51.05144281879666
 30
0.0
 40
1.0
100
AcDbArc
 50
287.4014787600071
 51
0.0
  0
ARC
  5
480D
330
21CC
100
AcDbEntity
  8
0
  6
Continuous
100
AcDbCircle
 10
136.0000020116567
 20
51.05144281879666
 30
0.0
 40
1.0
100
AcDbArc
 50
180.0
 51
252.598521239999
  0
ARC
  5
480E
330
21CC
100
AcDbEntity
  8
0
  6
Continuous
100
AcDbCircle
 10
120.0000017881393
 20
-0.0000025726390049
 30
0.0
 40
52.50000078231096
100
AcDbArc
 50
107.4014787600071
 51
252.5985212399928
  0
ARC
  5
480F
330
21CC
100
AcDbEntity
  8
0
  6
Continuous
100
AcDbCircle
 10
120.0000017881393
 20
-0.0000025726390049
 30
0.0
 40
52.50000078231096
100
AcDbArc
 50
287.4014787600071
 51
72.59852123999285
  0
CIRCLE
  5
4810
330
21CC
100
AcDbEntity
  8
0
  6
Continuous
100
AcDbCircle
 10
119.9861629992466
 20
-0.0000025726390049
 30
0.0
 40
20.01383878889268
  0
CIRCLE
  5
4811
330
21CC
100
AcDbEntity
  8
0
  6
Continuous
100
AcDbCircle
 10
120.0000017881393
 20
-0.0000025726390049
 30
0.0
 40
22.0
  0
CIRCLE
  5
4812
330
21CC
100
AcDbEntity
  8
0
  6
Continuous
100
AcDbCircle
 10
120.0000017881393
 20
-0.0000025726390049
 30
0.0
 40
37.75707000000011
  0
ARC
  5
4813
330
21CC
100
AcDbEntity
  8
0
  6
Continuous
100
AcDbCircle
 10
119.9861629992466
 20
-0.0000025726390049
 30
0.0
 40
44.51383878889268
100
AcDbArc
 50
93.84651223144507
 51
266.1534877685549
  0
ARC
  5
4814
330
21CC
100
AcDbEntity
  8
0
  6
Continuous
100
AcDbCircle
 10
119.9861629992466
 20
-0.0000025726390049
 30
0.0
 40
45.46385167318189
100
AcDbArc
 50
266.2339817044042
 51
273.8009751273103
  0
ARC
  5
4815
330
21CC
100
AcDbEntity
  8
0
  6
Continuous
100
AcDbCircle
 10
119.9861629992466
 20
-0.0000025726390049
 30
0.0
 40
45.46385167318189
100
AcDbArc
 50
86.1990248726896
 51
93.76601829559572
  0
ARC
  5
4816
330
21CC
100
AcDbEntity
  8
0
  6
Continuous
100
AcDbCircle
 10
119.9861629992466
 20
-0.0000025726390049
 30
0.0
 40
44.51383878889268
100
AcDbArc
 50
273.882218479062
 51
86.11778152093799
  0
LINE
  5
4817
330
21CC
100
AcDbEntity
  8
0
  6
Continuous
100
AcDbLine
 10
123.0000018328428
 20
62.99999838103531
 30
0.0
 11
117.0000017434358
 21
62.99999838103531
 31
0.0
  0
LINE
  5
4818
330
21CC
100
AcDbEntity
  8
0
  6
Continuous
100
AcDbLine
 10
123.0000018328428
 20
56.99999826182602
 30
0.0
 11
117.0000017434358
 21
56.99999826182602
 31
0.0
  0
LINE
  5
4819
330
21CC
100
AcDbEntity
  8
0
  6
Continuous
100
AcDbLine
 10
149.000002220273
 20
56.99999826182602
 30
0.0
 11
143.5000021383166
 21
56.99999826182602
 31
0.0
  0
LINE
  5
481A
330
21CC
100
AcDbEntity
  8
0
  6
Continuous
100
AcDbLine
 10
148.000002220273
 20
63.99999838103531
 30
0.0
 11
148.000002220273
 21
55.99999826182602
 31
0.0
  0
LINE
  5
481B
330
21CC
100
AcDbEntity
  8
0
  6
Continuous
100
AcDbLine
 10
149.000002220273
 20
62.99999838103531
 30
0.0
 11
143.5000021383166
 21
62.99999838103531
 31
0.0
  0
LINE
  5
481C
330
21CC
100
AcDbEntity
  8
0
  6
Continuous
100
AcDbLine
 10
123.0000018328428
 20
-63.00000352631332
 30
0.0
 11
117.0000017434358
 21
-63.00000352631332
 31
0.0
  0
LINE
  5
481D
330
21CC
100
AcDbEntity
  8
0
  6
Continuous
100
AcDbLine
 10
123.0000018328428
 20
-57.00000340710403
 30
0.0
 11
117.0000017434358
 21
-57.00000340710403
 31
0.0
  0
LINE
  5
481E
330
21CC
100
AcDbEntity
  8
0
  6
Continuous
100
AcDbLine
 10
149.000002220273
 20
-57.00000340710403
 30
0.0
 11
143.5000021383166
 21
-57.00000340710403
 31
0.0
  0
LINE
  5
481F
330
21CC
100
AcDbEntity
  8
0
  6
Continuous
100
AcDbLine
 10
149.000002220273
 20
-63.00000352631332
 30
0.0
 11
143.5000021383166
 21
-63.00000352631332
 31
0.0
  0
LINE
  5
4820
330
21CC
100
AcDbEntity
  8
0
  6
Continuous
100
AcDbLine
 10
148.000002220273
 20
-64.00000352631332
 30
0.0
 11
148.000002220273
 21
-56.00000340710403
 31
0.0
  0
LINE
  5
4821
330
21CC
100
AcDbEntity
  8
0
  6
Continuous
100
AcDbLine
 10
149.000002220273
 20
-57.00000340710403
 30
0.0
 11
148.000002220273
 21
-56.00000340710403
 31
0.0
  0
LINE
  5
4822
330
21CC
100
AcDbEntity
  8
0
  6
Continuous
100
AcDbLine
 10
149.000002220273
 20
-63.00000352631332
 30
0.0
 11
148.000002220273
 21
-64.00000352631332
 31
0.0
  0
LINE
  5
4823
330
21CC
100
AcDbEntity
  8
0
  6
Continuous
100
AcDbLine
 10
149.000002220273
 20
62.99999838103531
 30
0.0
 11
148.000002220273
 21
63.99999838103531
 31
0.0
  0
LINE
  5
4824
330
21CC
100
AcDbEntity
  8
0
  6
Continuous
100
AcDbLine
 10
149.000002220273
 20
56.99999826182602
 30
0.0
 11
148.000002220273
 21
55.99999826182602
 31
0.0
  0
LINE
  5
482E
330
21CC
100
AcDbEntity
  8
0
  6
Continuous
100
AcDbLine
 10
118.2033782511183
 20
-19.93428012688264
 30
0.0
 11
119.9827879989106
 21
-18.15487037908997
 31
0.0
  0
ARC
  5
4836
330
21CC
100
AcDbEntity
  8
0
  6
Continuous
100
AcDbCircle
 10
116.0000017434358
 20
43.31569960035404
 30
0.0
 40
1.0
100
AcDbArc
 50
275.2760305827692
 51
0.0
  0
ARC
  5
4837
330
21CC
100
AcDbEntity
  8
0
  6
Continuous
100
AcDbCircle
 10
124.0000018328428
 20
43.31569960035404
 30
0.0
 40
1.0
100
AcDbArc
 50
180.0
 51
264.7239694172308
  0
ARC
  5
4838
330
21CC
100
AcDbEntity
  8
0
  6
Continuous
100
AcDbCircle
 10
116.0000017434358
 20
-43.31570474563159
 30
0.0
 40
1.0
100
AcDbArc
 50
0.0
 51
84.72396941723081
  0
ARC
  5
4839
330
21CC
100
AcDbEntity
  8
0
  6
Continuous
100
AcDbCircle
 10
124.0000018328428
 20
-43.31570474563159
 30
0.0
 40
1.0
100
AcDbArc
 50
95.27603058276918
 51
180.0
  0
LINE
  5
483A
330
21CC
100
AcDbEntity
  8
0
  6
Continuous
100
AcDbLine
 10
0.0
 20
-131.6528851339016
 30
0.0
 11
0.0
 21
-195.6528851339016
 31
0.0
  0
LINE
  5
483B
330
21CC
100
AcDbEntity
  8
0
  6
CENTER
100
AcDbLine
 10
-8.0
 20
-163.6528851339017
 30
0.0
 11
248.0000035762785
 21
-163.6528851339017
 31
0.0
  0
LINE
  5
483C
330
21CC
100
AcDbEntity
  8
0
  6
Continuous
100
AcDbLine
 10
2.849999999999909
 20
-192.7290807337385
 30
0.0
 11
2.849999999999909
 21
-134.5766895340648
 31
0.0
  0
LINE
  5
483D
330
21CC
100
AcDbEntity
  8
0
  6
Continuous
100
AcDbLine
 10
5.215806522730304
 20
-188.4193394344588
 30
0.0
 11
5.215806522730304
 21
-138.8864308333445
 31
0.0
  0
LINE
  5
483E
330
21CC
100
AcDbEntity
  8
0
  6
Continuous
100
AcDbLine
 10
3.041588066060967
 20
-195.1265012485623
 30
0.0
 11
4.773232687870972
 21
-190.368846751619
 31
0.0
  0
ARC
  5
483F
330
21CC
100
AcDbEntity
  8
0
  6
Continuous
100
AcDbCircle
 10
2.289833969432152
 20
-194.8528851339015
 30
0.0
 40
0.8
100
AcDbArc
 50
270.0
 51
340.0000000000107
  0
LINE
  5
4840
330
21CC
100
AcDbEntity
  8
0
  6
Continuous
100
AcDbLine
 10
0.0
 20
-195.6528851339016
 30
0.0
 11
2.289833969432152
 21
-195.6528851339016
 31
0.0
  0
LINE
  5
4841
330
21CC
100
AcDbEntity
  8
0
  6
Continuous
100
AcDbLine
 10
0.0
 20
-131.6528851339016
 30
0.0
 11
2.289833969432152
 21
-131.6528851339016
 31
0.0
  0
ARC
  5
4842
330
21CC
100
AcDbEntity
  8
0
  6
Continuous
100
AcDbCircle
 10
2.289833969432152
 20
-132.4528851339018
 30
0.0
 40
0.8
100
AcDbArc
 50
19.99999999998923
 51
90.0
  0
LINE
  5
4843
330
21CC
100
AcDbEntity
  8
0
  6
Continuous
100
AcDbLine
 10
3.041588066060967
 20
-132.179269019241
 30
0.0
 11
4.773232687870859
 21
-136.9369235161843
 31
0.0
  0
ARC
  5
4844
330
21CC
100
AcDbEntity
  8
0
  6
Continuous
100
AcDbCircle
 10
6.652617929442726
 20
-136.2528832295333
 30
0.0
 40
2.0
100
AcDbArc
 50
199.9999999999892
 51
270.0
  0
ARC
  5
4845
330
21CC
100
AcDbEntity
  8
0
  6
Continuous
100
AcDbCircle
 10
6.652617929442726
 20
-191.05288703827
 30
0.0
 40
2.0
100
AcDbArc
 50
90.0
 51
160.0000000000107
  0
LINE
  5
4846
330
21CC
100
AcDbEntity
  8
0
  6
Continuous
100
AcDbLine
 10
240.0000035762785
 20
-32.000002572639
 30
0.0
 11
240.0000035762785
 21
31.99999742736099
 31
0.0
  0
LINE
  5
4847
330
21CC
100
AcDbEntity
  8
0
  6
Continuous
100
AcDbLine
 10
236.9584155102178
 20
31.47361354202166
 30
0.0
 11
235.2267681115348
 21
26.71595141568377
 31
0.0
  0
LINE
  5
4848
330
21CC
100
AcDbEntity
  8
0
  6
Continuous
100
AcDbLine
 10
240.0000035762785
 20
31.99999742736099
 30
0.0
 11
237.7101696068465
 21
31.99999742736145
 31
0.0
  0
ARC
  5
4849
330
21CC
100
AcDbEntity
  8
0
  6
Continuous
100
AcDbCircle
 10
237.7101696068465
 20
31.19999742736126
 30
0.0
 40
0.8
100
AcDbArc
 50
90.0
 51
160.0000000000107
  0
ARC
  5
484A
330
21CC
100
AcDbEntity
  8
0
  6
Continuous
100
AcDbCircle
 10
233.347382869963
 20
27.39999170233522
 30
0.0
 40
2.0
100
AcDbArc
 50
270.0
 51
340.0000000000107
  0
LINE
  5
484B
330
21CC
100
AcDbEntity
  8
0
  6
Continuous
100
AcDbLine
 10
234.7477979463826
 20
-24.9753654088704
 30
0.0
 11
234.7477979463825
 21
24.97536026359284
 31
0.0
  0
LINE
  5
484C
330
21CC
100
AcDbEntity
  8
0
  6
Continuous
100
AcDbLine
 10
237.1500035762786
 20
-29.66095905250904
 30
0.0
 11
237.1500035762786
 21
29.66095390723103
 31
0.0
  0
LINE
  5
484D
330
21CC
100
AcDbEntity
  8
0
  6
Continuous
100
AcDbLine
 10
236.9584155102178
 20
-31.47361868729922
 30
0.0
 11
235.2267681115348
 21
-26.71595656096133
 31
0.0
  0
ARC
  5
484E
330
21CC
100
AcDbEntity
  8
0
  6
Continuous
100
AcDbCircle
 10
233.347382869963
 20
-27.39999684761278
 30
0.0
 40
2.0
100
AcDbArc
 50
19.99999999998923
 51
89.99999999999349
  0
LINE
  5
484F
330
21CC
100
AcDbEntity
  8
0
  6
Continuous
100
AcDbLine
 10
240.0000035762785
 20
-32.000002572639
 30
0.0
 11
237.7101696068465
 21
-32.000002572639
 31
0.0
  0
ARC
  5
4850
330
21CC
100
AcDbEntity
  8
0
  6
Continuous
100
AcDbCircle
 10
237.7101696068465
 20
-31.20000257263882
 30
0.0
 40
0.8
100
AcDbArc
 50
199.9999999999892
 51
270.0
  0
LINE
  5
4851
330
21CC
100
AcDbEntity
  8
0
  6
Continuous
100
AcDbLine
 10
2.849999999999909
 20
-29.66095905250858
 30
0.0
 11
2.849999999999909
 21
29.66095390723103
 31
0.0
  0
LINE
  5
4852
330
21CC
100
AcDbEntity
  8
0
  6
Continuous
100
AcDbLine
 10
5.252205629896025
 20
-24.9753654088704
 30
0.0
 11
5.252205629896025
 21
24.97536026359284
 31
0.0
  0
LINE
  5
4853
330
21CC
100
AcDbEntity
  8
0
  6
Continuous
100
AcDbLine
 10
3.041588066060967
 20
-31.47361868729922
 30
0.0
 11
4.77323546474372
 21
-26.71595656096133
 31
0.0
  0
LINE
  5
4854
330
21CC
100
AcDbEntity
  8
0
  6
Continuous
100
AcDbLine
 10
0.0
 20
-32.000002572639
 30
0.0
 11
2.289833969432152
 21
-32.000002572639
 31
0.0
  0
ARC
  5
4855
330
21CC
100
AcDbEntity
  8
0
  6
Continuous
100
AcDbCircle
 10
2.289833969432152
 20
-31.20000257263882
 30
0.0
 40
0.8
100
AcDbArc
 50
270.0
 51
340.0000000000107
  0
ARC
  5
4856
330
21CC
100
AcDbEntity
  8
0
  6
Continuous
100
AcDbCircle
 10
6.652620706315587
 20
-27.39999684761278
 30
0.0
 40
2.0
100
AcDbArc
 50
90.0
 51
160.0000000000107
  0
LINE
  5
4857
330
21CC
100
AcDbEntity
  8
0
  6
Continuous
100
AcDbLine
 10
0.0
 20
-32.000002572639
 30
0.0
 11
0.0
 21
31.99999742736099
 31
0.0
  0
LINE
  5
4858
330
21CC
100
AcDbEntity
  8
0
  6
Continuous
100
AcDbLine
 10
3.041588066060967
 20
31.47361354202166
 30
0.0
 11
4.77323546474372
 21
26.71595141568377
 31
0.0
  0
ARC
  5
4859
330
21CC
100
AcDbEntity
  8
0
  6
Continuous
100
AcDbCircle
 10
6.652620706315587
 20
27.39999170233522
 30
0.0
 40
2.0
100
AcDbArc
 50
199.9999999999892
 51
269.9999999999934
  0
LINE
  5
485A
330
21CC
100
AcDbEntity
  8
0
  6
Continuous
100
AcDbLine
 10
0.0
 20
31.99999742736099
 30
0.0
 11
2.289833969432152
 21
31.99999742736145
 31
0.0
  0
ARC
  5
485B
330
21CC
100
AcDbEntity
  8
0
  6
Continuous
100
AcDbCircle
 10
2.289833969432152
 20
31.19999742736126
 30
0.0
 40
0.8
100
AcDbArc
 50
19.99999999998923
 51
90.0
  0
LINE
  5
4CAF
330
21CC
100
AcDbEntity
  8
0
  6
Continuous
100
AcDbLine
 10
160.000002384186
 20
-135.2528908142244
 30
0.0
 11
160.000002384186
 21
-136.2528831997306
 31
0.0
  0
LINE
  5
4CB0
330
21CC
100
AcDbEntity
  8
0
  6
Continuous
100
AcDbLine
 10
162.0000024139883
 20
-138.2528832295329
 30
0.0
 11
233.347385646836
 21
-138.2528832295324
 31
0.0
  0
ARC
  5
4CB1
330
21CC
100
AcDbEntity
  8
0
  6
Continuous
100
AcDbCircle
 10
162.0000024139883
 20
-136.2528831997306
 30
0.0
 40
2.000000029802321
100
AcDbArc
 50
179.9999949910365
 51
269.9999956742795
  0
ARC
  5
4CB2
330
21CC
100
AcDbEntity
  8
0
  6
Continuous
100
AcDbCircle
 10
207.5147125648667
 20
-163.6528851339021
 30
0.0
 40
53.87770923789901
100
AcDbArc
 50
153.1602641787292
 51
206.8397358212706
  0
LINE
  5
4CB3
330
21CC
100
AcDbEntity
  8
0
  6
CENTER
100
AcDbLine
 10
120.0000017881393
 20
-108.2528906875645
 30
0.0
 11
120.0000017881396
 21
-219.0528795802388
 31
0.0
  0
LINE
  5
4CB4
330
21CC
100
AcDbEntity
  8
0
  6
Continuous
100
AcDbLine
 10
164.5000017881395
 20
-135.252890687564
 30
0.0
 11
123.0000017881395
 21
-135.2528906875645
 31
0.0
  0
LINE
  5
4CB5
330
21CC
100
AcDbEntity
  8
0
  6
Continuous
100
AcDbLine
 10
164.5000017881394
 20
-118.2528906875641
 30
0.0
 11
123.0000017881394
 21
-118.2528906875645
 31
0.0
  0
LINE
  5
4CB6
330
21CC
100
AcDbEntity
  8
0
  6
Continuous
100
AcDbLine
 10
172.5000017881394
 20
-121.1646538787881
 30
0.0
 11
172.5000017881394
 21
-132.3411274963418
 31
0.0
  0
LINE
  5
4CB7
330
21CC
100
AcDbEntity
  8
0
  6
Continuous
100
AcDbLine
 10
172.500002108136
 20
-121.1646539343391
 30
0.0
 11
164.5000005067028
 21
-118.2528913730702
 31
0.0
  0
LINE
  5
4CB8
330
21CC
100
AcDbEntity
  8
0
  6
Continuous
100
AcDbLine
 10
172.5000021081356
 20
-132.3411274407894
 30
0.0
 11
164.5000005067024
 21
-135.2528900020584
 31
0.0
  0
LINE
  5
4CB9
330
21CC
100
AcDbEntity
  8
0
  6
Continuous
100
AcDbLine
 10
123.0000017881394
 20
-118.2528906875645
 30
0.0
 11
123.0000017881395
 21
-135.2528906875645
 31
0.0
  0
LINE
  5
4CBA
330
21CC
100
AcDbEntity
  8
0
  6
Continuous
100
AcDbLine
 10
172.5000017881394
 20
-121.1646538787872
 30
0.0
 11
140.5000017881394
 21
-121.1646538787872
 31
0.0
  0
LINE
  5
4CBB
330
21CC
100
AcDbEntity
  8
0
  6
Continuous
100
AcDbLine
 10
172.5000017881394
 20
-132.3411274963409
 30
0.0
 11
140.5000017881394
 21
-132.3411274963414
 31
0.0
  0
LINE
  5
4CBC
330
21CC
100
AcDbEntity
  8
0
  6
Continuous
100
AcDbLine
 10
135.0000017881394
 20
-119.7528906875645
 30
0.0
 11
123.0000017881394
 21
-119.7528906875645
 31
0.0
  0
LINE
  5
4CBD
330
21CC
100
AcDbEntity
  8
0
  6
Continuous
100
AcDbLine
 10
135.0000017881394
 20
-133.7528906875645
 30
0.0
 11
123.0000017881394
 21
-133.7528906875645
 31
0.0
  0
LINE
  5
4CBE
330
21CC
100
AcDbEntity
  8
0
  6
Continuous
100
AcDbLine
 10
164.5000017881399
 20
-209.0528795802388
 30
0.0
 11
123.0000017881399
 21
-209.0528795802388
 31
0.0
  0
LINE
  5
4CBF
330
21CC
100
AcDbEntity
  8
0
  6
Continuous
100
AcDbLine
 10
164.5000017881397
 20
-192.0528795802388
 30
0.0
 11
123.0000017881397
 21
-192.0528795802388
 31
0.0
  0
LINE
  5
4CC0
330
21CC
100
AcDbEntity
  8
0
  6
Continuous
100
AcDbLine
 10
172.5000017881398
 20
-194.9646427714619
 30
0.0
 11
140.5000017881397
 21
-194.9646427714619
 31
0.0
  0
LINE
  5
4CC1
330
21CC
100
AcDbEntity
  8
0
  6
Continuous
100
AcDbLine
 10
172.5000017881399
 20
-206.1411163890156
 30
0.0
 11
140.5000017881399
 21
-206.1411163890156
 31
0.0
  0
LINE
  5
4CC2
330
21CC
100
AcDbEntity
  8
0
  6
Continuous
100
AcDbLine
 10
135.0000017881399
 20
-207.5528795802388
 30
0.0
 11
135.0000017881398
 21
-193.5528795802388
 31
0.0
  0
LINE
  5
4CC3
330
21CC
100
AcDbEntity
  8
0
  6
Continuous
100
AcDbLine
 10
135.0000017881398
 20
-193.5528795802388
 30
0.0
 11
123.0000017881397
 21
-193.5528795802388
 31
0.0
  0
LINE
  5
4CC4
330
21CC
100
AcDbEntity
  8
0
  6
Continuous
100
AcDbLine
 10
135.0000017881399
 20
-207.5528795802388
 30
0.0
 11
123.0000017881399
 21
-207.5528795802388
 31
0.0
  0
LINE
  5
4CC5
330
21CC
100
AcDbEntity
  8
0
  6
Continuous
100
AcDbLine
 10
123.0000017881399
 20
-209.0528795802388
 30
0.0
 11
123.0000017881397
 21
-192.0528795802388
 31
0.0
  0
LINE
  5
4CC6
330
21CC
100
AcDbEntity
  8
0
  6
Continuous
100
AcDbLine
 10
172.5000017881399
 20
-206.1411163890147
 30
0.0
 11
172.5000017881398
 21
-194.964642771461
 31
0.0
  0
LINE
  5
4CC7
330
21CC
100
AcDbEntity
  8
0
  6
Continuous
100
AcDbLine
 10
172.5000021081359
 20
-194.9646428270134
 30
0.0
 11
164.5000005067027
 21
-192.0528802657445
 31
0.0
  0
LINE
  5
4CC8
330
21CC
100
AcDbEntity
  8
0
  6
Continuous
100
AcDbLine
 10
172.5000021081365
 20
-206.1411163334637
 30
0.0
 11
164.5000005067032
 21
-209.0528788947326
 31
0.0
  0
LINE
  5
4CC9
330
21CC
100
AcDbEntity
  8
0
  6
Continuous
100
AcDbLine
 10
160.0000023841862
 20
-192.0528794535789
 30
0.0
 11
160.0000023841862
 21
-191.0528870680723
 31
0.0
  0
LINE
  5
4CCA
330
21CC
100
AcDbEntity
  8
0
  6
Continuous
100
AcDbLine
 10
162.0000024139885
 20
-189.05288703827
 30
0.0
 11
233.3473856468362
 21
-189.0528870382695
 31
0.0
  0
ARC
  5
4CCB
330
21CC
100
AcDbEntity
  8
0
  6
Continuous
100
AcDbCircle
 10
162.0000024139885
 20
-191.0528870680723
 30
0.0
 40
2.000000029802321
100
AcDbArc
 50
90.00000432572047
 51
180.0000050089634
  0
LINE
  5
4CCC
330
21CC
100
AcDbEntity
  8
0
  6
Continuous
100
AcDbLine
 10
240.000003576279
 20
-131.6528851339012
 30
0.0
 11
240.000003576279
 21
-195.6528851339012
 31
0.0
  0
LINE
  5
4CCD
330
21CC
100
AcDbEntity
  8
0
  6
Continuous
100
AcDbLine
 10
237.1500035762791
 20
-192.7290807337381
 30
0.0
 11
237.1500035762788
 21
-134.5766895340643
 31
0.0
  0
LINE
  5
4CCE
330
21CC
100
AcDbEntity
  8
0
  6
Continuous
100
AcDbLine
 10
234.7841970535488
 20
-188.4193394344583
 30
0.0
 11
234.7841970535486
 21
-138.886430833344
 31
0.0
  0
LINE
  5
4CCF
330
21CC
100
AcDbEntity
  8
0
  6
Continuous
100
AcDbLine
 10
236.9584155102182
 20
-195.1265012485614
 30
0.0
 11
235.2267708884081
 21
-190.368846751618
 31
0.0
  0
ARC
  5
4CD0
330
21CC
100
AcDbEntity
  8
0
  6
Continuous
100
AcDbCircle
 10
237.710169606847
 20
-194.852885133901
 30
0.0
 40
0.8
100
AcDbArc
 50
199.9999999999892
 51
270.0
  0
LINE
  5
4CD1
330
21CC
100
AcDbEntity
  8
0
  6
Continuous
100
AcDbLine
 10
240.000003576279
 20
-195.6528851339012
 30
0.0
 11
237.710169606847
 21
-195.6528851339012
 31
0.0
  0
LINE
  5
4CD2
330
21CC
100
AcDbEntity
  8
0
  6
Continuous
100
AcDbLine
 10
240.000003576279
 20
-131.6528851339012
 30
0.0
 11
237.7101696068465
 21
-131.6528851339012
 31
0.0
  0
ARC
  5
4CD3
330
21CC
100
AcDbEntity
  8
0
  6
Continuous
100
AcDbCircle
 10
237.7101696068465
 20
-132.4528851339009
 30
0.0
 40
0.8
100
AcDbArc
 50
90.0
 51
160.0000000000107
  0
LINE
  5
4CD4
330
21CC
100
AcDbEntity
  8
0
  6
Continuous
100
AcDbLine
 10
236.9584155102178
 20
-132.1792690192405
 30
0.0
 11
235.2267708884079
 21
-136.9369235161839
 31
0.0
  0
ARC
  5
4CD5
330
21CC
100
AcDbEntity
  8
0
  6
Continuous
100
AcDbCircle
 10
233.3473856468362
 20
-136.2528832295329
 30
0.0
 40
2.0
100
AcDbArc
 50
269.9999999999934
 51
340.0000000000107
  0
ARC
  5
4CD6
330
21CC
100
AcDbEntity
  8
0
  6
Continuous
100
AcDbCircle
 10
233.3473856468363
 20
-191.0528870382695
 30
0.0
 40
2.0
100
AcDbArc
 50
19.99999999998923
 51
90.0
  0
LINE
  5
4CD7
330
21CC
100
AcDbEntity
  8
0
  6
Continuous
100
AcDbLine
 10
135.0000017881394
 20
-119.7528856875642
 30
0.0
 11
135.0000017881394
 21
-133.7528856875642
 31
0.0
  0
LINE
  5
4CD8
330
21CC
100
AcDbEntity
  8
0
  6
Continuous
100
AcDbLine
 10
141.5000017881394
 20
-133.0028906875645
 30
0.0
 11
141.5000017881394
 21
-120.5028906875645
 31
0.0
  0
ARC
  5
4CD9
330
21CC
100
AcDbEntity
  8
0
  6
Continuous
100
AcDbCircle
 10
137.5251101255418
 20
-132.3820531875644
 30
0.0
 40
3.752776145935058
100
AcDbArc
 50
330.0000105759246
 51
29.99998942407543
  0
ARC
  5
4CDA
330
21CC
100
AcDbEntity
  8
0
  6
Continuous
100
AcDbCircle
 10
138.9748934507371
 20
-132.3820531875644
 30
0.0
 40
3.752776145935058
100
AcDbArc
 50
150.0000105759245
 51
209.9999894240754
  0
ARC
  5
4CDB
330
21CC
100
AcDbEntity
  8
0
  6
Continuous
100
AcDbCircle
 10
131.4234713315964
 20
-126.7528906875645
 30
0.0
 40
10.07653045654297
100
AcDbArc
 50
338.1346069180819
 51
21.86539308188901
  0
ARC
  5
4CDC
330
21CC
100
AcDbEntity
  8
0
  6
Continuous
100
AcDbCircle
 10
137.5251101255418
 20
-121.1237281875642
 30
0.0
 40
3.752776145935058
100
AcDbArc
 50
330.0000105759246
 51
29.99998942407543
  0
LINE
  5
4CDD
330
21CC
100
AcDbEntity
  8
0
  6
Continuous
100
AcDbLine
 10
140.7751099956393
 20
-119.2473406875642
 30
0.0
 11
141.5000017881394
 21
-120.5028906875645
 31
0.0
  0
LINE
  5
4CDE
330
21CC
100
AcDbEntity
  8
0
  6
Continuous
100
AcDbLine
 10
135.7248935806395
 20
-119.2473406875642
 30
0.0
 11
135.0000017881394
 21
-120.5028906875645
 31
0.0
  0
ARC
  5
4CDF
330
21CC
100
AcDbEntity
  8
0
  6
Continuous
100
AcDbCircle
 10
138.9748934507371
 20
-121.1237281875642
 30
0.0
 40
3.752776145935058
100
AcDbArc
 50
150.0000105759245
 51
209.9999894240754
  0
LINE
  5
4CE0
330
21CC
100
AcDbEntity
  8
0
  6
Continuous
100
AcDbLine
 10
135.7248936428384
 20
-119.2473406875642
 30
0.0
 11
140.7751099956393
 21
-119.2473406875642
 31
0.0
  0
ARC
  5
4CE1
330
21CC
100
AcDbEntity
  8
0
  6
Continuous
100
AcDbCircle
 10
145.0765322446824
 20
-126.7528906875645
 30
0.0
 40
10.07653045654297
100
AcDbArc
 50
158.1346069181109
 51
201.865393081889
  0
LINE
  5
4CE2
330
21CC
100
AcDbEntity
  8
0
  6
Continuous
100
AcDbLine
 10
135.7248936428384
 20
-123.0001156875646
 30
0.0
 11
140.7751099956393
 21
-123.0001156875646
 31
0.0
  0
LINE
  5
4CE3
330
21CC
100
AcDbEntity
  8
0
  6
Continuous
100
AcDbLine
 10
135.7248935732509
 20
-130.5056656875644
 30
0.0
 11
140.7751099956393
 21
-130.5056656875644
 31
0.0
  0
LINE
  5
4CE4
330
21CC
100
AcDbEntity
  8
0
  6
Continuous
100
AcDbLine
 10
140.7751099956393
 20
-134.2584406875644
 30
0.0
 11
141.5000017881394
 21
-133.0028906875645
 31
0.0
  0
LINE
  5
4CE5
330
21CC
100
AcDbEntity
  8
0
  6
Continuous
100
AcDbLine
 10
135.7248936428384
 20
-134.2584406875644
 30
0.0
 11
140.7751099956393
 21
-134.2584406875644
 31
0.0
  0
LINE
  5
4CE6
330
21CC
100
AcDbEntity
  8
0
  6
Continuous
100
AcDbLine
 10
135.7248935806395
 20
-134.2584406875644
 30
0.0
 11
135.0000017881394
 21
-133.0028906875645
 31
0.0
  0
LINE
  5
4CE7
330
21CC
100
AcDbEntity
  8
0
  6
Continuous
100
AcDbLine
 10
148.0000018998981
 20
-130.7528907471692
 30
0.0
 11
143.5000018179417
 21
-130.7528907471692
 31
0.0
  0
LINE
  5
4CE8
330
21CC
100
AcDbEntity
  8
0
  6
Continuous
100
AcDbLine
 10
143.5000018179417
 20
-131.7528907620703
 30
0.0
 11
143.5000018179417
 21
-121.7528906130587
 31
0.0
  0
LINE
  5
4CE9
330
21CC
100
AcDbEntity
  8
0
  6
Continuous
100
AcDbLine
 10
149.0000018998981
 20
-129.7528907471692
 30
0.0
 11
149.0000018998981
 21
-123.7528906279599
 31
0.0
  0
LINE
  5
4CEA
330
21CC
100
AcDbEntity
  8
0
  6
Continuous
100
AcDbLine
 10
142.5000018030406
 20
-132.7528907769715
 30
0.0
 11
141.5000017881394
 21
-132.7528907769715
 31
0.0
  0
LINE
  5
4CEB
330
21CC
100
AcDbEntity
  8
0
  6
Continuous
100
AcDbLine
 10
142.5000018030406
 20
-120.7528905981575
 30
0.0
 11
141.5000017881394
 21
-120.7528905981575
 31
0.0
  0
LINE
  5
4CEC
330
21CC
100
AcDbEntity
  8
0
  6
Continuous
100
AcDbLine
 10
148.0000018998981
 20
-122.7528906279599
 30
0.0
 11
143.5000018179417
 21
-122.7528906279599
 31
0.0
  0
ARC
  5
4CED
330
21CC
100
AcDbEntity
  8
0
  6
Continuous
100
AcDbCircle
 10
142.5000018030406
 20
-131.7528907620703
 30
0.0
 40
1.00000001490116
100
AcDbArc
 50
270.0000043257074
 51
0.000005008963459
  0
ARC
  5
4CEE
330
21CC
100
AcDbEntity
  8
0
  6
Continuous
100
AcDbCircle
 10
142.5000018030406
 20
-121.7528906130587
 30
0.0
 40
1.00000001490116
100
AcDbArc
 50
359.9999949910365
 51
89.99999567428604
  0
LINE
  5
4CEF
330
21CC
100
AcDbEntity
  8
0
  6
Continuous
100
AcDbLine
 10
149.0000018998981
 20
-123.7528906279599
 30
0.0
 11
143.5000018179417
 21
-123.7528906279599
 31
0.0
  0
LINE
  5
4CF0
330
21CC
100
AcDbEntity
  8
0
  6
Continuous
100
AcDbLine
 10
148.0000018998981
 20
-130.7528907471692
 30
0.0
 11
148.0000018998981
 21
-122.7528906279599
 31
0.0
  0
LINE
  5
4CF1
330
21CC
100
AcDbEntity
  8
0
  6
Continuous
100
AcDbLine
 10
149.0000018998981
 20
-129.7528907471692
 30
0.0
 11
143.5000018179417
 21
-129.7528907471692
 31
0.0
  0
LINE
  5
4CF2
330
21CC
100
AcDbEntity
  8
0
  6
Continuous
100
AcDbLine
 10
149.0000018998981
 20
-123.7528906279599
 30
0.0
 11
148.0000018998981
 21
-122.7528906279599
 31
0.0
  0
LINE
  5
4CF3
330
21CC
100
AcDbEntity
  8
0
  6
Continuous
100
AcDbLine
 10
149.0000018998981
 20
-129.7528907471692
 30
0.0
 11
148.0000018998981
 21
-130.7528907471692
 31
0.0
  0
LINE
  5
4CF4
330
21CC
100
AcDbEntity
  8
0
  6
Continuous
100
AcDbLine
 10
141.5000017881397
 20
-206.8028795802388
 30
0.0
 11
141.5000017881397
 21
-194.3028795802388
 31
0.0
  0
ARC
  5
4CF5
330
21CC
100
AcDbEntity
  8
0
  6
Continuous
100
AcDbCircle
 10
137.5251101255421
 20
-206.1820420802387
 30
0.0
 40
3.752776145935058
100
AcDbArc
 50
330.0000105759246
 51
29.99998942407543
  0
ARC
  5
4CF6
330
21CC
100
AcDbEntity
  8
0
  6
Continuous
100
AcDbCircle
 10
138.9748934507374
 20
-206.1820420802387
 30
0.0
 40
3.752776145935058
100
AcDbArc
 50
150.0000105759245
 51
209.9999894240754
  0
ARC
  5
4CF7
330
21CC
100
AcDbEntity
  8
0
  6
Continuous
100
AcDbCircle
 10
131.4234713315968
 20
-200.5528795802388
 30
0.0
 40
10.07653045654297
100
AcDbArc
 50
338.1346069180819
 51
21.86539308188901
  0
ARC
  5
4CF8
330
21CC
100
AcDbEntity
  8
0
  6
Continuous
100
AcDbCircle
 10
137.5251101255421
 20
-194.9237170802389
 30
0.0
 40
3.752776145935058
100
AcDbArc
 50
330.0000105759246
 51
29.99998942407543
  0
LINE
  5
4CF9
330
21CC
100
AcDbEntity
  8
0
  6
Continuous
100
AcDbLine
 10
140.7751099956396
 20
-193.0473295802389
 30
0.0
 11
141.5000017881397
 21
-194.3028795802388
 31
0.0
  0
LINE
  5
4CFA
330
21CC
100
AcDbEntity
  8
0
  6
Continuous
100
AcDbLine
 10
135.7248935806399
 20
-193.0473295802389
 30
0.0
 11
135.0000017881398
 21
-194.3028795802388
 31
0.0
  0
ARC
  5
4CFB
330
21CC
100
AcDbEntity
  8
0
  6
Continuous
100
AcDbCircle
 10
138.9748934507374
 20
-194.9237170802389
 30
0.0
 40
3.752776145935058
100
AcDbArc
 50
150.0000105759245
 51
209.9999894240754
  0
LINE
  5
4CFC
330
21CC
100
AcDbEntity
  8
0
  6
Continuous
100
AcDbLine
 10
135.7248936428387
 20
-193.0473295802389
 30
0.0
 11
140.7751099956396
 21
-193.0473295802389
 31
0.0
  0
ARC
  5
4CFD
330
21CC
100
AcDbEntity
  8
0
  6
Continuous
100
AcDbCircle
 10
145.0765322446827
 20
-200.5528795802388
 30
0.0
 40
10.07653045654297
100
AcDbArc
 50
158.1346069181109
 51
201.865393081889
  0
LINE
  5
4CFE
330
21CC
100
AcDbEntity
  8
0
  6
Continuous
100
AcDbLine
 10
135.7248936428387
 20
-196.8001045802388
 30
0.0
 11
140.7751099956396
 21
-196.8001045802388
 31
0.0
  0
LINE
  5
4CFF
330
21CC
100
AcDbEntity
  8
0
  6
Continuous
100
AcDbLine
 10
135.7248935732512
 20
-204.3056545802387
 30
0.0
 11
140.7751099956396
 21
-204.3056545802387
 31
0.0
  0
LINE
  5
4D00
330
21CC
100
AcDbEntity
  8
0
  6
Continuous
100
AcDbLine
 10
140.7751099956396
 20
-208.0584295802387
 30
0.0
 11
141.5000017881397
 21
-206.8028795802388
 31
0.0
  0
LINE
  5
4D01
330
21CC
100
AcDbEntity
  8
0
  6
Continuous
100
AcDbLine
 10
135.7248936428387
 20
-208.0584295802387
 30
0.0
 11
140.7751099956396
 21
-208.0584295802387
 31
0.0
  0
LINE
  5
4D02
330
21CC
100
AcDbEntity
  8
0
  6
Continuous
100
AcDbLine
 10
135.7248935806399
 20
-208.0584295802387
 30
0.0
 11
135.0000017881398
 21
-206.8028795802388
 31
0.0
  0
LINE
  5
4D03
330
21CC
100
AcDbEntity
  8
0
  6
Continuous
100
AcDbLine
 10
148.0000018998985
 20
-204.5528796398434
 30
0.0
 11
143.5000018179421
 21
-204.5528796398434
 31
0.0
  0
LINE
  5
4D04
330
21CC
100
AcDbEntity
  8
0
  6
Continuous
100
AcDbLine
 10
143.5000018179421
 20
-205.5528796547446
 30
0.0
 11
143.5000018179421
 21
-195.552879505733
 31
0.0
  0
LINE
  5
4D05
330
21CC
100
AcDbEntity
  8
0
  6
Continuous
100
AcDbLine
 10
149.0000018998984
 20
-203.5528796398434
 30
0.0
 11
149.0000018998984
 21
-197.5528795206341
 31
0.0
  0
LINE
  5
4D06
330
21CC
100
AcDbEntity
  8
0
  6
Continuous
100
AcDbLine
 10
142.5000018030409
 20
-206.5528796696457
 30
0.0
 11
141.5000017881397
 21
-206.5528796696457
 31
0.0
  0
LINE
  5
4D07
330
21CC
100
AcDbEntity
  8
0
  6
Continuous
100
AcDbLine
 10
142.5000018030409
 20
-194.5528794908318
 30
0.0
 11
141.5000017881397
 21
-194.5528794908318
 31
0.0
  0
LINE
  5
4D08
330
21CC
100
AcDbEntity
  8
0
  6
Continuous
100
AcDbLine
 10
148.0000018998985
 20
-196.5528795206341
 30
0.0
 11
143.5000018179421
 21
-196.5528795206341
 31
0.0
  0
ARC
  5
4D09
330
21CC
100
AcDbEntity
  8
0
  6
Continuous
100
AcDbCircle
 10
142.5000018030409
 20
-205.5528796547446
 30
0.0
 40
1.00000001490116
100
AcDbArc
 50
270.0000043257074
 51
0.000005008963459
  0
ARC
  5
4D0A
330
21CC
100
AcDbEntity
  8
0
  6
Continuous
100
AcDbCircle
 10
142.5000018030409
 20
-195.552879505733
 30
0.0
 40
1.00000001490116
100
AcDbArc
 50
359.9999949910365
 51
89.99999567428604
  0
LINE
  5
4D0B
330
21CC
100
AcDbEntity
  8
0
  6
Continuous
100
AcDbLine
 10
149.0000018998984
 20
-197.5528795206341
 30
0.0
 11
143.5000018179421
 21
-197.5528795206341
 31
0.0
  0
LINE
  5
4D0C
330
21CC
100
AcDbEntity
  8
0
  6
Continuous
100
AcDbLine
 10
148.0000018998985
 20
-204.5528796398434
 30
0.0
 11
148.0000018998985
 21
-196.5528795206341
 31
0.0
  0
LINE
  5
4D0D
330
21CC
100
AcDbEntity
  8
0
  6
Continuous
100
AcDbLine
 10
149.0000018998984
 20
-203.5528796398434
 30
0.0
 11
143.5000018179421
 21
-203.5528796398434
 31
0.0
  0
LINE
  5
4D0E
330
21CC
100
AcDbEntity
  8
0
  6
Continuous
100
AcDbLine
 10
149.0000018998984
 20
-197.5528795206341
 30
0.0
 11
148.0000018998985
 21
-196.5528795206341
 31
0.0
  0
LINE
  5
4D0F
330
21CC
100
AcDbEntity
  8
0
  6
Continuous
100
AcDbLine
 10
149.0000018998984
 20
-203.5528796398434
 30
0.0
 11
148.0000018998985
 21
-204.5528796398434
 31
0.0
  0
LINE
  5
4DB8
330
21CC
100
AcDbEntity
  8
0
  6
CENTER
100
AcDbLine
 10
120.0000017881393
 20
55.39999187369858
 30
0.0
 11
120.0000017881395
 21
-55.39999701897613
 31
0.0
  0
ENDSEC
  0
SECTION
  2
OBJECTS
  0
DICTIONARY
  5
21BA
330
0
100
AcDbDictionary
281
     1
  3
ACAD_GROUP
350
21BB
  3
ACAD_LAYOUT
350
21C7
  3
ACAD_MLINESTYLE
350
21C4
  3
ACAD_PLOTSETTINGS
350
21C6
  3
ACAD_PLOTSTYLENAME
350
21BC
  3
AcDbVariableDictionary
350
2238
  0
DICTIONARY
  5
2244
330
21B0
100
AcDbDictionary
280
     1
281
     1
  3
ACAD_LAYERSTATES
360
2245
  0
DICTIONARY
  5
21F8
330
21CC
100
AcDbDictionary
280
     1
281
     1
  3
ACAD_LAYOUTSELFREF
360
2227
  0
DICTIONARY
  5
21FA
330
21C8
100
AcDbDictionary
280
     1
281
     1
  3
ACAD_LAYOUTSELFREF
360
2226
  0
DICTIONARY
  5
21BB
102
{ACAD_REACTORS
330
21BA
102
}
330
21BA
100
AcDbDictionary
281
     1
  0
DICTIONARY
  5
21C7
102
{ACAD_REACTORS
330
21BA
102
}
330
21BA
100
AcDbDictionary
281
     1
  3
Model
350
21CF
  3
ﾚｲｱｳﾄ1
350
21CB
  0
DICTIONARY
  5
21C4
102
{ACAD_REACTORS
330
21BA
102
}
330
21BA
100
AcDbDictionary
281
     1
  3
Standard
350
21C5
  0
DICTIONARY
  5
21C6
102
{ACAD_REACTORS
330
21BA
102
}
330
21BA
100
AcDbDictionary
281
     1
  0
ACDBDICTIONARYWDFLT
  5
21BC
102
{ACAD_REACTORS
330
21BA
102
}
330
21BA
100
AcDbDictionary
281
     1
  3
Normal
350
21BD
100
AcDbDictionaryWithDefault
340
21BD
  0
DICTIONARY
  5
2238
102
{ACAD_REACTORS
330
21BA
102
}
330
21BA
100
AcDbDictionary
281
     1
  3
DIMASSOC
350
2239
  0
DICTIONARY
  5
2245
102
{ACAD_REACTORS
330
2244
102
}
330
2244
100
AcDbDictionary
281
     1
  0
XRECORD
  5
2227
102
{ACAD_REACTORS
330
21F8
102
}
330
21F8
100
AcDbXrecord
280
     1
340
21CC
  0
XRECORD
  5
2226
102
{ACAD_REACTORS
330
21FA
102
}
330
21FA
100
AcDbXrecord
280
     1
340
21C8
  0
LAYOUT
  5
21CF
102
{ACAD_REACTORS
330
21C7
102
}
330
21C7
100
AcDbPlotSettings
  1

  2
SII LP-2150 (D-SCAN C2)
  4

  6

 40
0.0
 41
0.0
 42
0.0
 43
0.0
 44
0.0
 45
0.0
 46
0.0
 47
0.0
 48
0.0
 49
0.0
140
0.0
141
0.0
142
1.0
143
1.0
 70
  1712
 72
     0
 73
     0
 74
     0
  7

 75
     0
147
1.0
148
0.0
149
0.0
100
AcDbLayout
  1
Model
 70
     1
 71
     0
 10
0.0
 20
0.0
 11
12.0
 21
9.0
 12
0.0
 22
0.0
 32
0.0
 14
0.0
 24
0.0
 34
0.0
 15
0.0
 25
0.0
 35
0.0
146
0.0
 13
0.0
 23
0.0
 33
0.0
 16
1.0
 26
0.0
 36
0.0
 17
0.0
 27
1.0
 37
0.0
 76
     0
330
21CC
  0
LAYOUT
  5
21CB
102
{ACAD_REACTORS
330
21C7
102
}
330
21C7
100
AcDbPlotSettings
  1

  2
SII LP-2150 (D-SCAN C2)
  4

  6

 40
0.0
 41
0.0
 42
0.0
 43
0.0
 44
0.0
 45
0.0
 46
0.0
 47
0.0
 48
0.0
 49
0.0
140
0.0
141
0.0
142
1.0
143
1.0
 70
   688
 72
     0
 73
     0
 74
     5
  7

 75
    16
147
1.0
148
0.0
149
0.0
100
AcDbLayout
  1
ﾚｲｱｳﾄ1
 70
     1
 71
     1
 10
0.0
 20
0.0
 11
12.0
 21
9.0
 12
0.0
 22
0.0
 32
0.0
 14
1.000000000000000E+20
 24
1.000000000000000E+20
 34
1.000000000000000E+20
 15
-1.000000000000000E+20
 25
-1.000000000000000E+20
 35
-1.000000000000000E+20
146
0.0
 13
0.0
 23
0.0
 33
0.0
 16
1.0
 26
0.0
 36
0.0
 17
0.0
 27
1.0
 37
0.0
 76
     0
330
21C8
  0
MLINESTYLE
  5
21C5
102
{ACAD_REACTORS
330
21C4
102
}
330
21C4
100
AcDbMlineStyle
  2
STANDARD
 70
     0
  3

 62
   256
 51
90.0
 52
90.0
 71
     2
 49
0.5
 62
   256
  6
BYLAYER
 49
-0.5
 62
   256
  6
BYLAYER
  0
ACDBPLACEHOLDER
  5
21BD
102
{ACAD_REACTORS
330
21BC
102
}
330
21BC
  0
DICTIONARYVAR
  5
2239
102
{ACAD_REACTORS
330
2238
102
}
330
2238
100
DictionaryVariables
280
     0
  1
1
  0
ENDSEC
  0
EOF
