  0
SECTION
  2
HEADER
  9
$ACADVER
  1
AC1015
  9
$ACADMAINTVER
 70
    14
  9
$DWGCODEPAGE
  3
ANSI_932
  9
$INSBASE
 10
0.0
 20
0.0
 30
0.0
  9
$EXTMIN
 10
-3.804394320373603
 20
-168.0106768884298
 30
-0.000000000000013
  9
$EXTMAX
 10
312.8217031934277
 20
198.0195167002879
 30
0.0000000000000023
  9
$LIMMIN
 10
0.0
 20
0.0
  9
$LIMMAX
 10
12.0
 20
9.0
  9
$ORTHOMODE
 70
     0
  9
$REGENMODE
 70
     1
  9
$FILLMODE
 70
     1
  9
$QTEXTMODE
 70
     0
  9
$MIRRTEXT
 70
     1
  9
$LTSCALE
 40
1.0
  9
$ATTMODE
 70
     1
  9
$TEXTSIZE
 40
0.2
  9
$TRACEWID
 40
0.05
  9
$TEXTSTYLE
  7
STANDARD
  9
$CLAYER
  8
0
  9
$CELTYPE
  6
CONTINUOUS
  9
$CECOLOR
 62
   256
  9
$CELTSCALE
 40
1.0
  9
$DISPSILH
 70
     0
  9
$DIMSCALE
 40
1.0
  9
$DIMASZ
 40
1.0
  9
$DIMEXO
 40
2.54
  9
$DIMDLI
 40
0.38
  9
$DIMRND
 40
0.0
  9
$DIMDLE
 40
0.0
  9
$DIMEXE
 40
2.54
  9
$DIMTP
 40
0.0
  9
$DIMTM
 40
0.0
  9
$DIMTXT
 40
3.2
  9
$DIMCEN
 40
0.09
  9
$DIMTSZ
 40
0.0
  9
$DIMTOL
 70
     0
  9
$DIMLIM
 70
     0
  9
$DIMTIH
 70
     0
  9
$DIMTOH
 70
     0
  9
$DIMSE1
 70
     0
  9
$DIMSE2
 70
     0
  9
$DIMTAD
 70
     1
  9
$DIMZIN
 70
     0
  9
$DIMBLK
  1

  9
$DIMASO
 70
     1
  9
$DIMSHO
 70
     0
  9
$DIMPOST
  1

  9
$DIMAPOST
  1

  9
$DIMALT
 70
     0
  9
$DIMALTD
 70
     2
  9
$DIMALTF
 40
25.4
  9
$DIMLFAC
 40
1.0
  9
$DIMTOFL
 70
     0
  9
$DIMTVP
 40
1.0
  9
$DIMTIX
 70
     0
  9
$DIMSOXD
 70
     0
  9
$DIMSAH
 70
     1
  9
$DIMBLK1
  1

  9
$DIMBLK2
  1

  9
$DIMSTYLE
  2
STANDARD
  9
$DIMCLRD
 70
     0
  9
$DIMCLRE
 70
     0
  9
$DIMCLRT
 70
     0
  9
$DIMTFAC
 40
1.0
  9
$DIMGAP
 40
1.6
  9
$DIMJUST
 70
     0
  9
$DIMSD1
 70
     0
  9
$DIMSD2
 70
     0
  9
$DIMTOLJ
 70
     1
  9
$DIMTZIN
 70
     0
  9
$DIMALTZ
 70
     0
  9
$DIMALTTZ
 70
     0
  9
$DIMUPT
 70
     0
  9
$DIMDEC
 70
     4
  9
$DIMTDEC
 70
     4
  9
$DIMALTU
 70
     2
  9
$DIMALTTD
 70
     2
  9
$DIMTXSTY
  7
STANDARD
  9
$DIMAUNIT
 70
     0
  9
$DIMADEC
 70
     0
  9
$DIMALTRND
 40
0.0
  9
$DIMAZIN
 70
     0
  9
$DIMDSEP
 70
    46
  9
$DIMATFIT
 70
     3
  9
$DIMFRAC
 70
     0
  9
$DIMLDRBLK
  1

  9
$DIMLUNIT
 70
     2
  9
$DIMLWD
 70
    -2
  9
$DIMLWE
 70
    -2
  9
$DIMTMOVE
 70
     0
  9
$LUNITS
 70
     2
  9
$LUPREC
 70
     4
  9
$SKETCHINC
 40
0.1
  9
$FILLETRAD
 40
0.0
  9
$AUNITS
 70
     0
  9
$AUPREC
 70
     0
  9
$MENU
  1
.
  9
$ELEVATION
 40
0.0
  9
$PELEVATION
 40
0.0
  9
$THICKNESS
 40
0.0
  9
$LIMCHECK
 70
     0
  9
$CHAMFERA
 40
0.0
  9
$CHAMFERB
 40
0.0
  9
$CHAMFERC
 40
0.0
  9
$CHAMFERD
 40
0.0
  9
$SKPOLY
 70
     0
  9
$TDCREATE
 40
2452488.423138738
  9
$TDUCREATE
 40
2452488.048138738
  9
$TDUPDATE
 40
2456906.721090637
  9
$TDUUPDATE
 40
2456906.346090637
  9
$TDINDWG
 40
0.2870737153
  9
$TDUSRTIMER
 40
0.2870735301
  9
$USRTIMER
 70
     1
  9
$ANGBASE
 50
0.0
  9
$ANGDIR
 70
     0
  9
$PDMODE
 70
     3
  9
$PDSIZE
 40
0.0
  9
$PLINEWID
 40
0.0
  9
$SPLFRAME
 70
     0
  9
$SPLINETYPE
 70
     6
  9
$SPLINESEGS
 70
     8
  9
$HANDSEED
  5
515E
  9
$SURFTAB1
 70
     6
  9
$SURFTAB2
 70
     6
  9
$SURFTYPE
 70
     6
  9
$SURFU
 70
     6
  9
$SURFV
 70
     6
  9
$UCSBASE
  2

  9
$UCSNAME
  2

  9
$UCSORG
 10
0.0
 20
0.0
 30
0.0
  9
$UCSXDIR
 10
1.0
 20
0.0
 30
0.0
  9
$UCSYDIR
 10
0.0
 20
1.0
 30
0.0
  9
$UCSORTHOREF
  2

  9
$UCSORTHOVIEW
 70
     0
  9
$UCSORGTOP
 10
0.0
 20
0.0
 30
0.0
  9
$UCSORGBOTTOM
 10
0.0
 20
0.0
 30
0.0
  9
$UCSORGLEFT
 10
0.0
 20
0.0
 30
0.0
  9
$UCSORGRIGHT
 10
0.0
 20
0.0
 30
0.0
  9
$UCSORGFRONT
 10
0.0
 20
0.0
 30
0.0
  9
$UCSORGBACK
 10
0.0
 20
0.0
 30
0.0
  9
$PUCSBASE
  2

  9
$PUCSNAME
  2

  9
$PUCSORG
 10
0.0
 20
0.0
 30
0.0
  9
$PUCSXDIR
 10
1.0
 20
0.0
 30
0.0
  9
$PUCSYDIR
 10
0.0
 20
1.0
 30
0.0
  9
$PUCSORTHOREF
  2

  9
$PUCSORTHOVIEW
 70
     0
  9
$PUCSORGTOP
 10
0.0
 20
0.0
 30
0.0
  9
$PUCSORGBOTTOM
 10
0.0
 20
0.0
 30
0.0
  9
$PUCSORGLEFT
 10
0.0
 20
0.0
 30
0.0
  9
$PUCSORGRIGHT
 10
0.0
 20
0.0
 30
0.0
  9
$PUCSORGFRONT
 10
0.0
 20
0.0
 30
0.0
  9
$PUCSORGBACK
 10
0.0
 20
0.0
 30
0.0
  9
$USERI1
 70
     0
  9
$USERI2
 70
     0
  9
$USERI3
 70
     0
  9
$USERI4
 70
     0
  9
$USERI5
 70
     0
  9
$USERR1
 40
0.0
  9
$USERR2
 40
0.0
  9
$USERR3
 40
0.0
  9
$USERR4
 40
0.0
  9
$USERR5
 40
0.0
  9
$WORLDVIEW
 70
     1
  9
$SHADEDGE
 70
     3
  9
$SHADEDIF
 70
    70
  9
$TILEMODE
 70
     1
  9
$MAXACTVP
 70
    48
  9
$PINSBASE
 10
0.0
 20
0.0
 30
0.0
  9
$PLIMCHECK
 70
     0
  9
$PEXTMIN
 10
1.000000000000000E+20
 20
1.000000000000000E+20
 30
1.000000000000000E+20
  9
$PEXTMAX
 10
-1.000000000000000E+20
 20
-1.000000000000000E+20
 30
-1.000000000000000E+20
  9
$PLIMMIN
 10
0.0
 20
0.0
  9
$PLIMMAX
 10
12.0
 20
9.0
  9
$UNITMODE
 70
     0
  9
$VISRETAIN
 70
     1
  9
$PLINEGEN
 70
     0
  9
$PSLTSCALE
 70
     1
  9
$TREEDEPTH
 70
  3020
  9
$CMLSTYLE
  2
Standard
  9
$CMLJUST
 70
     0
  9
$CMLSCALE
 40
1.0
  9
$PROXYGRAPHICS
 70
     1
  9
$MEASUREMENT
 70
     0
  9
$CELWEIGHT
370
    -1
  9
$ENDCAPS
280
     0
  9
$JOINSTYLE
280
     0
  9
$LWDISPLAY
290
     0
  9
$INSUNITS
 70
     0
  9
$HYPERLINKBASE
  1

  9
$STYLESHEET
  1

  9
$XEDIT
290
     1
  9
$CEPSNTYPE
380
     0
  9
$PSTYLEMODE
290
     1
  9
$FINGERPRINTGUID
  2
{FFE95C04-33D2-4560-80D0-1E2918E4EC86}
  9
$VERSIONGUID
  2
{1858AC88-3C5E-4789-B1CD-1E5BFD18F566}
  9
$EXTNAMES
290
     1
  9
$PSVPSCALE
 40
0.0
  9
$OLESTARTUP
290
     0
  0
ENDSEC
  0
SECTION
  2
CLASSES
  0
CLASS
  1
ACDBDICTIONARYWDFLT
  2
AcDbDictionaryWithDefault
  3
AutoCAD 2000
 90
        0
280
     0
281
     0
  0
CLASS
  1
ACDBPLACEHOLDER
  2
AcDbPlaceHolder
  3
AutoCAD 2000
 90
        0
280
     0
281
     0
  0
CLASS
  1
LAYOUT
  2
AcDbLayout
  3
AutoCAD 2000
 90
        0
280
     0
281
     0
  0
CLASS
  1
DICTIONARYVAR
  2
AcDbDictionaryVar
  3
AutoCAD 2000
 90
        0
280
     0
281
     0
  0
CLASS
  1
LONG_TRANSACTION
  2
AcDbLongTransaction
  3
AutoCAD 2000
 90
    32768
280
     0
281
     0
  0
CLASS
  1
LWPOLYLINE
  2
AcDbPolyline
  3
AutoCAD 2000
 90
    32768
280
     0
281
     1
  0
CLASS
  1
HATCH
  2
AcDbHatch
  3
AutoCAD 2000
 90
    32768
280
     0
281
     1
  0
CLASS
  1
XRECORD
  2
AcDbXrecord
  3
AutoCAD 2000
 90
    32768
280
     0
281
     0
  0
ENDSEC
  0
SECTION
  2
TABLES
  0
TABLE
  2
VPORT
  5
21B6
330
0
100
AcDbSymbolTable
 70
     2
  0
VPORT
  5
515D
330
21B6
100
AcDbSymbolTableRecord
100
AcDbViewportTableRecord
  2
*Active
 70
     0
 10
0.0
 20
0.0
 11
1.0
 21
1.0
 12
154.508654436527
 22
15.00441990592901
 13
0.0
 23
0.0
 14
1.0
 24
1.0
 15
0.0
 25
0.0
 16
0.0
 26
0.0
 36
1.0
 17
0.0
 27
0.0
 37
0.0
 40
368.3541948178524
 41
1.953389830508474
 42
50.0
 43
0.0
 44
0.0
 50
0.0
 51
0.0
 71
     0
 72
   100
 73
     1
 74
     3
 75
     0
 76
     0
 77
     0
 78
     0
281
     0
 65
     1
110
0.0
120
0.0
130
0.0
111
1.0
121
0.0
131
0.0
112
0.0
122
1.0
132
0.0
 79
     0
146
0.0
  0
ENDTAB
  0
TABLE
  2
LTYPE
  5
21B3
330
0
100
AcDbSymbolTable
 70
     2
  0
LTYPE
  5
21C1
330
21B3
100
AcDbSymbolTableRecord
100
AcDbLinetypeTableRecord
  2
ByBlock
 70
     0
  3

 72
    65
 73
     0
 40
0.0
  0
LTYPE
  5
21C2
330
21B3
100
AcDbSymbolTableRecord
100
AcDbLinetypeTableRecord
  2
ByLayer
 70
     0
  3

 72
    65
 73
     0
 40
0.0
  0
LTYPE
  5
21C3
330
21B3
100
AcDbSymbolTableRecord
100
AcDbLinetypeTableRecord
  2
CONTINUOUS
 70
     0
  3
Solid line
 72
    65
 73
     0
 40
0.0
  0
LTYPE
  5
21D1
330
21B3
100
AcDbSymbolTableRecord
100
AcDbLinetypeTableRecord
  2
CENTER
 70
     0
  3
__ . __
 72
    65
 73
     4
 40
7.0
 49
4.0
 74
     0
 49
-1.0
 74
     0
 49
1.0
 74
     0
 49
-1.0
 74
     0
  0
ENDTAB
  0
TABLE
  2
LAYER
  5
21B0
102
{ACAD_XDICTIONARY
360
2244
102
}
330
0
100
AcDbSymbolTable
 70
     1
  0
LAYER
  5
21BE
330
21B0
100
AcDbSymbolTableRecord
100
AcDbLayerTableRecord
  2
0
 70
     0
 62
     7
  6
CONTINUOUS
370
    -3
390
21BD
  0
ENDTAB
  0
TABLE
  2
STYLE
  5
21B1
330
0
100
AcDbSymbolTable
 70
     1
  0
STYLE
  5
21BF
330
21B1
100
AcDbSymbolTableRecord
100
AcDbTextStyleTableRecord
  2
STANDARD
 70
     0
 40
0.0
 41
1.0
 50
0.0
 71
     0
 42
0.2
  3
txt
  4
BIGFONT
  0
ENDTAB
  0
TABLE
  2
VIEW
  5
21B4
330
0
100
AcDbSymbolTable
 70
     1
  0
VIEW
  5
21DE
330
21B4
100
AcDbSymbolTableRecord
100
AcDbViewTableRecord
  2
OLE1
 70
     0
 40
3692.141019219747
 10
1914.591370701856
 20
1272.206200738182
 41
4595.022665841169
 11
0.0
 21
0.0
 31
1.0
 12
0.0
 22
0.0
 32
0.0
 42
50.0
 43
0.0
 44
0.0
 50
0.0
 71
     0
281
     0
 72
     1
110
0.0
120
0.0
130
0.0
111
1.0
121
0.0
131
0.0
112
0.0
122
1.0
132
0.0
 79
     0
146
0.0
  0
ENDTAB
  0
TABLE
  2
UCS
  5
21B5
330
0
100
AcDbSymbolTable
 70
     0
  0
ENDTAB
  0
TABLE
  2
APPID
  5
21B7
330
0
100
AcDbSymbolTable
 70
     8
  0
APPID
  5
21C0
330
21B7
100
AcDbSymbolTableRecord
100
AcDbRegAppTableRecord
  2
ACAD
 70
     0
  0
APPID
  5
21DF
330
21B7
100
AcDbSymbolTableRecord
100
AcDbRegAppTableRecord
  2
MCAD_NO_VIS
 70
     0
  0
APPID
  5
21E0
330
21B7
100
AcDbSymbolTableRecord
100
AcDbRegAppTableRecord
  2
ACAD_TEMP_GRAPHIC
 70
     0
  0
APPID
  5
21E1
330
21B7
100
AcDbSymbolTableRecord
100
AcDbRegAppTableRecord
  2
ACATTRIBSERVICES
 70
     0
  0
APPID
  5
21E2
330
21B7
100
AcDbSymbolTableRecord
100
AcDbRegAppTableRecord
  2
CONTENTBLOCKICON
 70
     0
  0
APPID
  5
2241
330
21B7
100
AcDbSymbolTableRecord
100
AcDbRegAppTableRecord
  2
ACAD_DSTYLE_DIMJAG
 70
     0
  0
APPID
  5
2242
330
21B7
100
AcDbSymbolTableRecord
100
AcDbRegAppTableRecord
  2
ACAD_DSTYLE_DIMTALN
 70
     0
  0
APPID
  5
2243
330
21B7
100
AcDbSymbolTableRecord
100
AcDbRegAppTableRecord
  2
ACAD_PSEXT
 70
     0
  0
ENDTAB
  0
TABLE
  2
DIMSTYLE
  5
21B8
330
0
100
AcDbSymbolTable
 70
     1
100
AcDbDimStyleTable
 71
     0
  0
DIMSTYLE
105
21E3
330
21B8
100
AcDbSymbolTableRecord
100
AcDbDimStyleTableRecord
  2
STANDARD
 70
     0
279
     2
340
21BF
  0
ENDTAB
  0
TABLE
  2
BLOCK_RECORD
  5
21AF
330
0
100
AcDbSymbolTable
 70
     1
  0
BLOCK_RECORD
  5
21CC
102
{ACAD_XDICTIONARY
360
21F8
102
}
330
21AF
100
AcDbSymbolTableRecord
100
AcDbBlockTableRecord
  2
*Model_Space
340
21CF
  0
BLOCK_RECORD
  5
21C8
102
{ACAD_XDICTIONARY
360
21FA
102
}
330
21AF
100
AcDbSymbolTableRecord
100
AcDbBlockTableRecord
  2
*Paper_Space
340
21CB
  0
BLOCK_RECORD
  5
4F3D
330
21AF
100
AcDbSymbolTableRecord
100
AcDbBlockTableRecord
  2
n23s08
340
0
102
{BLKREFS
331
50EF
331
512A
102
}
  0
ENDTAB
  0
ENDSEC
  0
SECTION
  2
BLOCKS
  0
BLOCK
  5
21CD
330
21CC
100
AcDbEntity
  8
0
100
AcDbBlockBegin
  2
*Model_Space
 70
     0
 10
0.0
 20
0.0
 30
0.0
  3
*Model_Space
  1

  0
ENDBLK
  5
21CE
330
21CC
100
AcDbEntity
  8
0
100
AcDbBlockEnd
  0
BLOCK
  5
21C9
330
21C8
100
AcDbEntity
 67
     1
  8
0
100
AcDbBlockBegin
  2
*Paper_Space
 70
     0
 10
0.0
 20
0.0
 30
0.0
  3
*Paper_Space
  1

  0
ENDBLK
  5
21CA
330
21C8
100
AcDbEntity
 67
     1
  8
0
100
AcDbBlockEnd
  0
BLOCK
  5
4F4E
330
4F3D
100
AcDbEntity
  8
0
100
AcDbBlockBegin
  2
n23s08
 70
     0
 10
0.0
 20
0.0
 30
0.0
  3
n23s08
  1

  0
LINE
  5
4F3E
330
4F3D
100
AcDbEntity
  8
0
  6
ByBlock
 62
     0
 48
0.3
100
AcDbLine
 10
-6.5
 20
6.249999999999943
 30
0.0
 11
-6.5
 21
-6.25
 31
0.0
  0
ARC
  5
4F3F
330
4F3D
100
AcDbEntity
  8
0
  6
ByBlock
 62
     0
 48
0.3
100
AcDbCircle
 10
-2.525108337402343
 20
5.629162499999921
 30
0.0
 40
3.752776145935058
100
AcDbArc
 50
150.000010575927
 51
209.9999894240728
  0
LINE
  5
4F40
330
4F3D
100
AcDbEntity
  8
0
  6
ByBlock
 62
     0
 48
0.3
100
AcDbLine
 10
0.0
 20
6.249999999999943
 30
0.0
 11
0.0
 21
-6.25
 31
0.0
  0
ARC
  5
4F41
330
4F3D
100
AcDbEntity
  8
0
  6
ByBlock
 62
     0
 48
0.3
100
AcDbCircle
 10
-3.974891662597656
 20
5.629162499999921
 30
0.0
 40
3.752776145935058
100
AcDbArc
 50
330.0000105759271
 51
29.99998942407289
  0
ARC
  5
4F42
330
4F3D
100
AcDbEntity
  8
0
  6
ByBlock
 62
     0
 48
0.3
100
AcDbCircle
 10
3.576530456542968
 20
0.0
 30
0.0
 40
10.07653045654297
100
AcDbArc
 50
158.1346069180964
 51
201.8653930819034
  0
ARC
  5
4F43
330
4F3D
100
AcDbEntity
  8
0
  6
ByBlock
 62
     0
 48
0.3
100
AcDbCircle
 10
-2.525108337402343
 20
-5.629162500000006
 30
0.0
 40
3.752776145935058
100
AcDbArc
 50
150.000010575927
 51
209.9999894240728
  0
LINE
  5
4F44
330
4F3D
100
AcDbEntity
  8
0
  6
ByBlock
 62
     0
 48
0.3
100
AcDbLine
 10
-5.775108207499897
 20
-7.505549999999999
 30
0.0
 11
-6.5
 21
-6.25
 31
0.0
  0
LINE
  5
4F45
330
4F3D
100
AcDbEntity
  8
0
  6
ByBlock
 62
     0
 48
0.3
100
AcDbLine
 10
-0.7248917925001024
 20
-7.505549999999999
 30
0.0
 11
0.0
 21
-6.25
 31
0.0
  0
ARC
  5
4F46
330
4F3D
100
AcDbEntity
  8
0
  6
ByBlock
 62
     0
 48
0.3
100
AcDbCircle
 10
-3.974891662597656
 20
-5.629162500000006
 30
0.0
 40
3.752776145935058
100
AcDbArc
 50
330.0000105759271
 51
29.99998942407289
  0
LINE
  5
4F47
330
4F3D
100
AcDbEntity
  8
0
  6
ByBlock
 62
     0
 48
0.3
100
AcDbLine
 10
-0.7248918546989103
 20
-7.505549999999999
 30
0.0
 11
-5.775108207499897
 21
-7.505549999999999
 31
0.0
  0
ARC
  5
4F48
330
4F3D
100
AcDbEntity
  8
0
  6
ByBlock
 62
     0
 48
0.3
100
AcDbCircle
 10
-10.07653045654296
 20
0.0
 30
0.0
 40
10.07653045654297
100
AcDbArc
 50
338.1346069180967
 51
21.86539308190332
  0
LINE
  5
4F49
330
4F3D
100
AcDbEntity
  8
0
  6
ByBlock
 62
     0
 48
0.3
100
AcDbLine
 10
-0.7248918546989103
 20
-3.752774999999957
 30
0.0
 11
-5.775108207499897
 21
-3.752775000000013
 31
0.0
  0
LINE
  5
4F4A
330
4F3D
100
AcDbEntity
  8
0
  6
ByBlock
 62
     0
 48
0.3
100
AcDbLine
 10
-0.7248917851114812
 20
3.752774999999957
 30
0.0
 11
-5.775108207499897
 21
3.752774999999957
 31
0.0
  0
LINE
  5
4F4B
330
4F3D
100
AcDbEntity
  8
0
  6
ByBlock
 62
     0
 48
0.3
100
AcDbLine
 10
-5.775108207499897
 20
7.505549999999942
 30
0.0
 11
-6.5
 21
6.249999999999943
 31
0.0
  0
LINE
  5
4F4C
330
4F3D
100
AcDbEntity
  8
0
  6
ByBlock
 62
     0
 48
0.3
100
AcDbLine
 10
-0.7248918546989103
 20
7.505549999999942
 30
0.0
 11
-5.775108207499897
 21
7.505549999999942
 31
0.0
  0
LINE
  5
4F4D
330
4F3D
100
AcDbEntity
  8
0
  6
ByBlock
 62
     0
 48
0.3
100
AcDbLine
 10
-0.7248917925001024
 20
7.505549999999942
 30
0.0
 11
0.0
 21
6.249999999999943
 31
0.0
  0
ENDBLK
  5
4F4F
330
4F3D
100
AcDbEntity
  8
0
100
AcDbBlockEnd
  0
ENDSEC
  0
SECTION
  2
ENTITIES
  0
TEXT
  5
F6E
330
21CC
100
AcDbEntity
  8
0
  6
Continuous
100
AcDbText
 10
0.0
 20
150.0
 30
0.0
 40
48.000002
  1
SGQ 1S
 41
1.32095
100
AcDbText
  0
LINE
  5
5054
330
21CC
100
AcDbEntity
  8
0
  6
Continuous
100
AcDbLine
 10
80.0
 20
-96.53348075454459
 30
0.0
 11
80.0
 21
-167.9942046314977
 31
0.0
  0
LINE
  5
5055
330
21CC
100
AcDbEntity
  8
0
  6
Continuous
100
AcDbLine
 10
7.417816162109375
 20
-142.2553588063024
 30
0.0
 11
7.417816162109375
 21
-117.5888091236852
 31
0.0
  0
LINE
  5
5056
330
21CC
100
AcDbEntity
  8
0
  6
Continuous
100
AcDbLine
 10
3.04157555039643
 20
-154.6457388682511
 30
0.0
 11
6.938863071980563
 21
-143.9380297890019
 31
0.0
  0
LINE
  5
5057
330
21CC
100
AcDbEntity
  8
0
  6
Continuous
100
AcDbLine
 10
0.0
 20
-155.1720763355992
 30
0.0
 11
2.28985595703125
 21
-155.1720763355992
 31
0.0
  0
LINE
  5
5058
330
21CC
100
AcDbEntity
  8
0
  6
Continuous
100
AcDbLine
 10
2.8499755859375
 20
-152.9792510182164
 30
0.0
 11
2.8499755859375
 21
-106.8649321705602
 31
0.0
  0
LINE
  5
5059
330
21CC
100
AcDbEntity
  8
0
  6
Continuous
100
AcDbLine
 10
3.041606951953724
 20
-105.1984138408006
 30
0.0
 11
6.938881100328558
 21
-115.9060861774605
 31
0.0
  0
LINE
  5
505A
330
21CC
100
AcDbEntity
  8
0
  6
Continuous
100
AcDbLine
 10
0.0
 20
-104.6720915943883
 30
0.0
 11
2.28985595703125
 21
-104.6720915943883
 31
0.0
  0
LINE
  5
505B
330
21CC
100
AcDbEntity
  8
0
  6
Continuous
100
AcDbLine
 10
0.0
 20
-104.6720915943883
 30
0.0
 11
0.0
 21
-155.1720763355992
 31
0.0
  0
LINE
  5
505C
330
21CC
100
AcDbEntity
  8
0
  6
Continuous
100
AcDbLine
 10
51.5
 20
-142.6220732838414
 30
0.0
 11
8.818206787109375
 21
-142.6220732838414
 31
0.0
  0
LINE
  5
505D
330
21CC
100
AcDbEntity
  8
0
  6
Continuous
100
AcDbLine
 10
51.0
 20
-117.2220946461461
 30
0.0
 11
8.818206787109375
 21
-117.2220946461461
 31
0.0
  0
LINE
  5
505E
330
21CC
100
AcDbEntity
  8
0
  6
Continuous
100
AcDbLine
 10
53.0
 20
-117.2220946461461
 30
0.0
 11
53.0
 21
-142.6220732838414
 31
0.0
  0
LINE
  5
505F
330
21CC
100
AcDbEntity
  8
0
  6
CENTER
100
AcDbLine
 10
-3.7852783203125
 20
-129.9220763355992
 30
0.0
 11
163.7852783203125
 21
-129.9220763355992
 31
0.0
  0
LINE
  5
5060
330
21CC
100
AcDbEntity
  8
0
  6
Continuous
100
AcDbLine
 10
42.0001220703125
 20
-103.5779143482945
 30
0.0
 11
61.14801025390625
 21
-103.5779143482945
 31
0.0
  0
LINE
  5
5061
330
21CC
100
AcDbEntity
  8
0
  6
Continuous
100
AcDbLine
 10
76.61007690429688
 20
-101.1720763355992
 30
0.0
 11
76.61007690429688
 21
-115.6720763355992
 31
0.0
  0
LINE
  5
5062
330
21CC
100
AcDbEntity
  8
0
  6
Continuous
100
AcDbLine
 10
66.610107421875
 20
-115.4220763355992
 30
0.0
 11
76.61007690429688
 21
-115.4220763355992
 31
0.0
  0
LINE
  5
5063
330
21CC
100
AcDbEntity
  8
0
  6
Continuous
100
AcDbLine
 10
61.83502197265625
 20
-112.1748534352086
 30
0.0
 11
66.610107421875
 21
-112.1748534352086
 31
0.0
  0
LINE
  5
5064
330
21CC
100
AcDbEntity
  8
0
  6
Continuous
100
AcDbLine
 10
48.61008310898023
 20
-101.1720776499429
 30
0.0
 11
42.00011639104206
 21
-103.5779088709115
 31
0.0
  0
LINE
  5
5065
330
21CC
100
AcDbEntity
  8
0
  6
Continuous
100
AcDbLine
 10
48.61007318850671
 20
-115.6720700824471
 30
0.0
 11
42.0000777934257
 21
-113.2662284238517
 31
0.0
  0
LINE
  5
5066
330
21CC
100
AcDbEntity
  8
0
  6
Continuous
100
AcDbLine
 10
48.610107421875
 20
-115.6720763355992
 30
0.0
 11
61.65858992187509
 21
-115.6720763355992
 31
0.0
  0
LINE
  5
5067
330
21CC
100
AcDbEntity
  8
0
  6
Continuous
100
AcDbLine
 10
66.610107421875
 20
-115.6720763355992
 30
0.0
 11
76.61007690429688
 21
-115.6720763355992
 31
0.0
  0
LINE
  5
5068
330
21CC
100
AcDbEntity
  8
0
  6
Continuous
100
AcDbLine
 10
66.610107421875
 20
-101.1720763355992
 30
0.0
 11
66.610107421875
 21
-115.6720763355992
 31
0.0
  0
LINE
  5
5069
330
21CC
100
AcDbEntity
  8
0
  6
Continuous
100
AcDbLine
 10
76.61007690429688
 20
-112.4220763355992
 30
0.0
 11
83.38992309570313
 21
-112.4220763355992
 31
0.0
  0
LINE
  5
506A
330
21CC
100
AcDbEntity
  8
0
  6
Continuous
100
AcDbLine
 10
48.610107421875
 20
-101.1720763355992
 30
0.0
 11
61.65858992187509
 21
-101.1720763355992
 31
0.0
  0
LINE
  5
506B
330
21CC
100
AcDbEntity
  8
0
  6
Continuous
100
AcDbLine
 10
66.610107421875
 20
-101.1720763355992
 30
0.0
 11
76.61007690429688
 21
-101.1720763355992
 31
0.0
  0
LINE
  5
506C
330
21CC
100
AcDbEntity
  8
0
  6
Continuous
100
AcDbLine
 10
42.0001220703125
 20
-113.2662383229039
 30
0.0
 11
61.110107421875
 21
-113.2662383229039
 31
0.0
  0
LINE
  5
506D
330
21CC
100
AcDbEntity
  8
0
  6
Continuous
100
AcDbLine
 10
76.91984558105469
 20
-114.0419341236852
 30
0.0
 11
83.0801544189453
 21
-114.0419341236852
 31
0.0
  0
LINE
  5
506E
330
21CC
100
AcDbEntity
  8
0
  6
Continuous
100
AcDbLine
 10
61.83502197265625
 20
-104.6692992359899
 30
0.0
 11
66.610107421875
 21
-104.6692992359899
 31
0.0
  0
LINE
  5
506F
330
21CC
100
AcDbEntity
  8
0
  6
Continuous
100
AcDbLine
 10
76.61007690429688
 20
-104.4220763355992
 30
0.0
 11
83.38992309570313
 21
-104.4220763355992
 31
0.0
  0
LINE
  5
5070
330
21CC
100
AcDbEntity
  8
0
  6
Continuous
100
AcDbLine
 10
66.610107421875
 20
-101.4220763355992
 30
0.0
 11
76.61007690429688
 21
-101.4220763355992
 31
0.0
  0
LINE
  5
5071
330
21CC
100
AcDbEntity
  8
0
  6
Continuous
100
AcDbLine
 10
42.0001220703125
 20
-103.5779143482945
 30
0.0
 11
42.0001220703125
 21
-113.2662383229039
 31
0.0
  0
LINE
  5
5072
330
21CC
100
AcDbEntity
  8
0
  6
Continuous
100
AcDbLine
 10
77.0
 20
-102.4220915943883
 30
0.0
 11
83.0
 21
-102.4220915943883
 31
0.0
  0
ARC
  5
5073
330
21CC
100
AcDbEntity
  8
0
  6
Continuous
100
AcDbCircle
 10
51.0
 20
-115.222079387357
 30
0.0
 40
2.0
100
AcDbArc
 50
270.0000043257106
 51
346.9972115642062
  0
ARC
  5
5074
330
21CC
100
AcDbEntity
  8
0
  6
Continuous
100
AcDbCircle
 10
2.28985595703125
 20
-105.472079387357
 30
0.0
 40
0.8000000715255737
100
AcDbArc
 50
20.0000045408282
 51
89.99999567428931
  0
ARC
  5
5075
330
21CC
100
AcDbEntity
  8
0
  6
Continuous
100
AcDbCircle
 10
2.28985595703125
 20
-154.3720885426305
 30
0.0
 40
0.8000000715255737
100
AcDbArc
 50
270.0000043257106
 51
339.9999954591717
  0
ARC
  5
5076
330
21CC
100
AcDbEntity
  8
0
  6
Continuous
100
AcDbCircle
 10
8.818206787109375
 20
-144.6220885426305
 30
0.0
 40
2.0
100
AcDbArc
 50
90.00000250447845
 51
159.9999953454902
  0
ARC
  5
5077
330
21CC
100
AcDbEntity
  8
0
  6
Continuous
100
AcDbCircle
 10
8.818206787109375
 20
-115.222079387357
 30
0.0
 40
2.0
100
AcDbArc
 50
200.0000046545097
 51
269.9999974955215
  0
LINE
  5
5078
330
21CC
100
AcDbEntity
  8
0
  6
Continuous
100
AcDbLine
 10
77.0
 20
-54.99999237060547
 30
0.0
 11
77.0
 21
-28.84440237060539
 31
0.0
  0
LINE
  5
5079
330
21CC
100
AcDbEntity
  8
0
  6
Continuous
100
AcDbLine
 10
67.0
 20
-54.99999237060547
 30
0.0
 11
67.0
 21
-35.70713437060544
 31
0.0
  0
LINE
  5
507A
330
21CC
100
AcDbEntity
  8
0
  6
Continuous
100
AcDbLine
 10
83.0
 20
-54.99999237060547
 30
0.0
 11
83.0
 21
-28.84440237060539
 31
0.0
  0
LINE
  5
507B
330
21CC
100
AcDbEntity
  8
0
  6
Continuous
100
AcDbLine
 10
93.0
 20
-54.99999237060547
 30
0.0
 11
93.0
 21
-35.70713437060544
 31
0.0
  0
LINE
  5
507C
330
21CC
100
AcDbEntity
  8
0
  6
Continuous
100
AcDbLine
 10
67.0
 20
55.00000762939453
 30
0.0
 11
67.0
 21
35.70714962939451
 31
0.0
  0
LINE
  5
507D
330
21CC
100
AcDbEntity
  8
0
  6
Continuous
100
AcDbLine
 10
76.99999999999988
 20
55.00000762939453
 30
0.0
 11
77.0
 21
28.84441762939445
 31
0.0
  0
LINE
  5
507E
330
21CC
100
AcDbEntity
  8
0
  6
Continuous
100
AcDbLine
 10
82.99999999999988
 20
55.00000762939453
 30
0.0
 11
83.0
 21
28.84441762939445
 31
0.0
  0
LINE
  5
507F
330
21CC
100
AcDbEntity
  8
0
  6
Continuous
100
AcDbLine
 10
92.99999999999988
 20
55.00000762939453
 30
0.0
 11
93.0
 21
35.70714962939451
 31
0.0
  0
LINE
  5
5080
330
21CC
100
AcDbEntity
  8
0
  6
Continuous
100
AcDbLine
 10
67.0
 20
-54.99999237060547
 30
0.0
 11
77.0
 21
-54.99999237060547
 31
0.0
  0
LINE
  5
5081
330
21CC
100
AcDbEntity
  8
0
  6
Continuous
100
AcDbLine
 10
93.0
 20
-54.99999237060547
 30
0.0
 11
83.0
 21
-54.99999237060547
 31
0.0
  0
LINE
  5
5082
330
21CC
100
AcDbEntity
  8
0
  6
Continuous
100
AcDbLine
 10
67.0
 20
55.00000762939453
 30
0.0
 11
76.99999999999988
 21
55.00000762939453
 31
0.0
  0
LINE
  5
5083
330
21CC
100
AcDbEntity
  8
0
  6
Continuous
100
AcDbLine
 10
92.99999999999988
 20
55.00000762939453
 30
0.0
 11
82.99999999999988
 21
55.00000762939453
 31
0.0
  0
LINE
  5
5084
330
21CC
100
AcDbEntity
  8
0
  6
Continuous
100
AcDbLine
 10
82.99999999999988
 20
52.00000762939453
 30
0.0
 11
76.99999999999988
 21
52.00000762939453
 31
0.0
  0
LINE
  5
5085
330
21CC
100
AcDbEntity
  8
0
  6
Continuous
100
AcDbLine
 10
82.99999999999988
 20
44.00000762939453
 30
0.0
 11
76.99999999999988
 21
44.00000762939453
 31
0.0
  0
LINE
  5
5086
330
21CC
100
AcDbEntity
  8
0
  6
Continuous
100
AcDbLine
 10
83.0
 20
-51.99999237060547
 30
0.0
 11
77.0
 21
-51.99999237060547
 31
0.0
  0
LINE
  5
5087
330
21CC
100
AcDbEntity
  8
0
  6
Continuous
100
AcDbLine
 10
83.0
 20
-43.99999237060547
 30
0.0
 11
77.0
 21
-43.99999237060547
 31
0.0
  0
LINE
  5
5088
330
21CC
100
AcDbEntity
  8
0
  6
Continuous
100
AcDbLine
 10
83.0
 20
-47.99999237060546
 30
0.0
 11
77.0
 21
-47.99999237060546
 31
0.0
  0
LINE
  5
5089
330
21CC
100
AcDbEntity
  8
0
  6
Continuous
100
AcDbLine
 10
101.5
 20
43.00000762939453
 30
0.0
 11
101.4999999999998
 21
53.00000762939453
 31
0.0
  0
LINE
  5
508A
330
21CC
100
AcDbEntity
  8
0
  6
Continuous
100
AcDbLine
 10
100.5
 20
42.00000762939453
 30
0.0
 11
99.50000000000001
 21
42.00000762939453
 31
0.0
  0
LINE
  5
508B
330
21CC
100
AcDbEntity
  8
0
  6
Continuous
100
AcDbLine
 10
100.4999999999998
 20
54.00000762939453
 30
0.0
 11
99.49999999999988
 21
54.00000762939453
 31
0.0
  0
LINE
  5
508C
330
21CC
100
AcDbEntity
  8
0
  6
Continuous
100
AcDbLine
 10
98.77510599999993
 20
48.00000762939453
 30
0.0
 11
93.72489399999995
 21
48.00000762939453
 31
0.0
  0
LINE
  5
508D
330
21CC
100
AcDbEntity
  8
0
  6
Continuous
100
AcDbLine
 10
99.49999999999988
 20
54.50000762939453
 30
0.0
 11
99.50000000000001
 21
41.50000762939453
 31
0.0
  0
LINE
  5
508E
330
21CC
100
AcDbEntity
  8
0
  6
Continuous
100
AcDbLine
 10
99.49999999999988
 20
54.50000762939453
 30
0.0
 11
92.99999999999988
 21
54.50000762939453
 31
0.0
  0
LINE
  5
508F
330
21CC
100
AcDbEntity
  8
0
  6
Continuous
100
AcDbLine
 10
99.50000000000001
 20
41.50000762939453
 30
0.0
 11
92.99999999999988
 21
41.50000762939453
 31
0.0
  0
LINE
  5
5090
330
21CC
100
AcDbEntity
  8
0
  6
Continuous
100
AcDbLine
 10
101.5
 20
-42.99999237060546
 30
0.0
 11
101.5
 21
-52.99999237060546
 31
0.0
  0
LINE
  5
5091
330
21CC
100
AcDbEntity
  8
0
  6
Continuous
100
AcDbLine
 10
100.5
 20
-41.99999237060547
 30
0.0
 11
99.50000000000001
 21
-41.99999237060547
 31
0.0
  0
LINE
  5
5092
330
21CC
100
AcDbEntity
  8
0
  6
Continuous
100
AcDbLine
 10
100.5
 20
-53.99999237060547
 30
0.0
 11
99.50000000000001
 21
-53.99999237060547
 31
0.0
  0
LINE
  5
5093
330
21CC
100
AcDbEntity
  8
0
  6
Continuous
100
AcDbLine
 10
98.77510599999993
 20
-47.99999237060546
 30
0.0
 11
93.72489399999995
 21
-47.99999237060546
 31
0.0
  0
LINE
  5
5094
330
21CC
100
AcDbEntity
  8
0
  6
Continuous
100
AcDbLine
 10
99.50000000000001
 20
-54.49999237060547
 30
0.0
 11
99.50000000000001
 21
-41.49999237060547
 31
0.0
  0
LINE
  5
5095
330
21CC
100
AcDbEntity
  8
0
  6
Continuous
100
AcDbLine
 10
99.50000000000001
 20
-54.49999237060547
 30
0.0
 11
93.0
 21
-54.49999237060547
 31
0.0
  0
LINE
  5
5096
330
21CC
100
AcDbEntity
  8
0
  6
Continuous
100
AcDbLine
 10
99.50000000000001
 20
-41.49999237060547
 30
0.0
 11
93.0
 21
-41.49999237060547
 31
0.0
  0
LINE
  5
5097
330
21CC
100
AcDbEntity
  8
0
  6
Continuous
100
AcDbLine
 10
62.22489399999995
 20
-47.99999237060546
 30
0.0
 11
67.0
 21
-47.99999237060546
 31
0.0
  0
LINE
  5
5098
330
21CC
100
AcDbEntity
  8
0
  6
Continuous
100
AcDbLine
 10
61.5
 20
-44.74999237060546
 30
0.0
 11
61.5
 21
-51.24999237060547
 31
0.0
  0
LINE
  5
5099
330
21CC
100
AcDbEntity
  8
0
  6
Continuous
100
AcDbLine
 10
62.22489399999995
 20
-41.49999237060547
 30
0.0
 11
67.0
 21
-41.49999237060547
 31
0.0
  0
LINE
  5
509A
330
21CC
100
AcDbEntity
  8
0
  6
Continuous
100
AcDbLine
 10
62.22489399999995
 20
-54.49999237060547
 30
0.0
 11
67.0
 21
-54.49999237060547
 31
0.0
  0
LINE
  5
509B
330
21CC
100
AcDbEntity
  8
0
  6
Continuous
100
AcDbLine
 10
62.22489399999995
 20
48.00000762939453
 30
0.0
 11
67.0
 21
48.00000762939453
 31
0.0
  0
LINE
  5
509C
330
21CC
100
AcDbEntity
  8
0
  6
Continuous
100
AcDbLine
 10
61.5
 20
44.75000762939453
 30
0.0
 11
61.5
 21
51.25000762939453
 31
0.0
  0
LINE
  5
509D
330
21CC
100
AcDbEntity
  8
0
  6
Continuous
100
AcDbLine
 10
62.22489399999995
 20
41.50000762939453
 30
0.0
 11
67.0
 21
41.50000762939453
 31
0.0
  0
LINE
  5
509E
330
21CC
100
AcDbEntity
  8
0
  6
Continuous
100
AcDbLine
 10
62.22489399999995
 20
54.50000762939453
 30
0.0
 11
67.0
 21
54.50000762939453
 31
0.0
  0
ARC
  5
509F
330
21CC
100
AcDbEntity
  8
0
  6
Continuous
100
AcDbCircle
 10
80.0
 20
0.0000076293945313
 30
0.0
 40
38.0
100
AcDbArc
 50
274.5280649999996
 51
85.47193999999988
  0
ARC
  5
50A0
330
21CC
100
AcDbEntity
  8
0
  6
Continuous
100
AcDbCircle
 10
80.0
 20
0.0000076293945313
 30
0.0
 40
29.0
100
AcDbArc
 50
275.937774999998
 51
84.06223000000457
  0
ARC
  5
50A1
330
21CC
100
AcDbEntity
  8
0
  6
Continuous
100
AcDbCircle
 10
80.0
 20
0.0000076293945313
 30
0.0
 40
31.0
100
AcDbArc
 50
275.937774999998
 51
84.06223000000457
  0
ARC
  5
50A2
330
21CC
100
AcDbEntity
  8
0
  6
Continuous
100
AcDbCircle
 10
80.0
 20
0.0000076293945313
 30
0.0
 40
38.0
100
AcDbArc
 50
94.52806301380784
 51
265.4719370000054
  0
ARC
  5
50A3
330
21CC
100
AcDbEntity
  8
0
  6
Continuous
100
AcDbCircle
 10
80.0
 20
0.0000076293945313
 30
0.0
 40
29.0
100
AcDbArc
 50
95.93778000000069
 51
264.0622270000003
  0
ARC
  5
50A4
330
21CC
100
AcDbEntity
  8
0
  6
Continuous
100
AcDbCircle
 10
80.0
 20
0.0000076293945313
 30
0.0
 40
31.0
100
AcDbArc
 50
95.5534441956534
 51
264.0622270000003
  0
ARC
  5
50A5
330
21CC
100
AcDbEntity
  8
0
  6
Continuous
100
AcDbCircle
 10
100.5
 20
43.00000762939453
 30
0.0
 40
1.0
100
AcDbArc
 50
270.0000040000056
 51
0.0000100000010064
  0
ARC
  5
50A6
330
21CC
100
AcDbEntity
  8
0
  6
Continuous
100
AcDbCircle
 10
100.4999999999998
 20
53.00000762939453
 30
0.0
 40
1.0
100
AcDbArc
 50
359.999994991043
 51
90.0
  0
ARC
  5
50A7
330
21CC
100
AcDbEntity
  8
0
  6
Continuous
100
AcDbCircle
 10
91.85200499999996
 20
51.25000762939453
 30
0.0
 40
7.647994999999999
100
AcDbArc
 50
334.8526250000029
 51
25.14737000000189
  0
ARC
  5
50A8
330
21CC
100
AcDbEntity
  8
0
  6
Continuous
100
AcDbCircle
 10
91.85200499999996
 20
44.75000762939453
 30
0.0
 40
7.647994999999999
100
AcDbArc
 50
334.852632000002
 51
25.14737000000189
  0
ARC
  5
50A9
330
21CC
100
AcDbEntity
  8
0
  6
Continuous
100
AcDbCircle
 10
100.6479949999999
 20
51.25000762939453
 30
0.0
 40
7.647994999999999
100
AcDbArc
 50
154.8526300000053
 51
205.1473699999946
  0
ARC
  5
50AA
330
21CC
100
AcDbEntity
  8
0
  6
Continuous
100
AcDbCircle
 10
100.6479949999999
 20
44.75000762939453
 30
0.0
 40
7.647994999999999
100
AcDbArc
 50
154.8526300000053
 51
205.1473699999946
  0
ARC
  5
50AB
330
21CC
100
AcDbEntity
  8
0
  6
Continuous
100
AcDbCircle
 10
100.5
 20
-42.99999237060546
 30
0.0
 40
1.0
100
AcDbArc
 50
359.999994991043
 51
90.0
  0
ARC
  5
50AC
330
21CC
100
AcDbEntity
  8
0
  6
Continuous
100
AcDbCircle
 10
100.5
 20
-52.99999237060546
 30
0.0
 40
1.0
100
AcDbArc
 50
270.0000040000056
 51
0.0000100000010064
  0
ARC
  5
50AD
330
21CC
100
AcDbEntity
  8
0
  6
Continuous
100
AcDbCircle
 10
91.85200499999996
 20
-51.24999237060547
 30
0.0
 40
7.647994999999999
100
AcDbArc
 50
334.8526279999942
 51
25.14737999999946
  0
ARC
  5
50AE
330
21CC
100
AcDbEntity
  8
0
  6
Continuous
100
AcDbCircle
 10
91.85200499999996
 20
-44.74999237060546
 30
0.0
 40
7.647994999999999
100
AcDbArc
 50
334.8526279999942
 51
25.14737000000189
  0
ARC
  5
50AF
330
21CC
100
AcDbEntity
  8
0
  6
Continuous
100
AcDbCircle
 10
100.6479949999999
 20
-51.24999237060547
 30
0.0
 40
7.647994999999999
100
AcDbArc
 50
154.8526300000053
 51
205.1473699999946
  0
ARC
  5
50B0
330
21CC
100
AcDbEntity
  8
0
  6
Continuous
100
AcDbCircle
 10
100.6479949999999
 20
-44.74999237060546
 30
0.0
 40
7.647994999999999
100
AcDbArc
 50
154.8526300000053
 51
205.1473699999946
  0
ARC
  5
50B1
330
21CC
100
AcDbEntity
  8
0
  6
Continuous
100
AcDbCircle
 10
69.14799499999992
 20
-44.74999237060546
 30
0.0
 40
7.647994500000001
100
AcDbArc
 50
154.8526300000053
 51
205.1473699999946
  0
ARC
  5
50B2
330
21CC
100
AcDbEntity
  8
0
  6
Continuous
100
AcDbCircle
 10
69.14799499999992
 20
-51.24999237060547
 30
0.0
 40
7.647994500000001
100
AcDbArc
 50
154.8526300000053
 51
205.1473699999946
  0
ARC
  5
50B3
330
21CC
100
AcDbEntity
  8
0
  6
Continuous
100
AcDbCircle
 10
69.14799499999992
 20
44.75000762939453
 30
0.0
 40
7.647994500000001
100
AcDbArc
 50
154.8526300000053
 51
205.1473699999946
  0
ARC
  5
50B4
330
21CC
100
AcDbEntity
  8
0
  6
Continuous
100
AcDbCircle
 10
69.14799499999992
 20
51.25000762939453
 30
0.0
 40
7.647994500000001
100
AcDbArc
 50
154.8526300000053
 51
205.1473699999946
  0
LINE
  5
50B5
330
21CC
100
AcDbEntity
  8
0
  6
CENTER
100
AcDbLine
 10
80.0
 20
-55.75947126288269
 30
0.0
 11
80.0
 21
55.75948652167176
 31
0.0
  0
CIRCLE
  5
50B6
330
21CC
100
AcDbEntity
  8
0
  6
Continuous
100
AcDbCircle
 10
80.0
 20
0.0000076293945313
 30
0.0
 40
14.5
  0
CIRCLE
  5
50B7
330
21CC
100
AcDbEntity
  8
0
  6
Continuous
100
AcDbCircle
 10
80.0
 20
0.0000076293945313
 30
0.0
 40
12.5
  0
LINE
  5
50B8
330
21CC
100
AcDbEntity
  8
0
  6
Continuous
100
AcDbLine
 10
7.417816162109375
 20
-12.33327484130859
 30
0.0
 11
7.417816162109375
 21
12.33327484130859
 31
0.0
  0
LINE
  5
50B9
330
21CC
100
AcDbEntity
  8
0
  6
Continuous
100
AcDbLine
 10
3.04157555039643
 20
-24.72365490325728
 30
0.0
 11
6.938863071980563
 21
-14.0159458240081
 31
0.0
  0
LINE
  5
50BA
330
21CC
100
AcDbEntity
  8
0
  6
Continuous
100
AcDbLine
 10
0.0
 20
-25.24999237060546
 30
0.0
 11
2.28985595703125
 21
-25.24999237060546
 31
0.0
  0
LINE
  5
50BB
330
21CC
100
AcDbEntity
  8
0
  6
Continuous
100
AcDbLine
 10
2.8499755859375
 20
-23.05716705322265
 30
0.0
 11
2.8499755859375
 21
23.05715179443359
 31
0.0
  0
LINE
  5
50BC
330
21CC
100
AcDbEntity
  8
0
  6
Continuous
100
AcDbLine
 10
3.041606951953724
 20
24.72367012419317
 30
0.0
 11
6.938881100328558
 21
14.01599778753325
 31
0.0
  0
LINE
  5
50BD
330
21CC
100
AcDbEntity
  8
0
  6
Continuous
100
AcDbLine
 10
0.0
 20
25.24999237060546
 30
0.0
 11
2.28985595703125
 21
25.24999237060546
 31
0.0
  0
LINE
  5
50BE
330
21CC
100
AcDbEntity
  8
0
  6
Continuous
100
AcDbLine
 10
0.0
 20
25.24999237060546
 30
0.0
 11
0.0
 21
-25.24999237060546
 31
0.0
  0
LINE
  5
50BF
330
21CC
100
AcDbEntity
  8
0
  6
Continuous
100
AcDbLine
 10
44.18505790155961
 20
-12.69998931884765
 30
0.0
 11
8.818206787109375
 21
-12.69998931884765
 31
0.0
  0
LINE
  5
50C0
330
21CC
100
AcDbEntity
  8
0
  6
Continuous
100
AcDbLine
 10
44.18505249078878
 20
12.69998931884765
 30
0.0
 11
8.818206787109375
 21
12.69998931884765
 31
0.0
  0
ARC
  5
50C1
330
21CC
100
AcDbEntity
  8
0
  6
Continuous
100
AcDbCircle
 10
2.28985595703125
 20
24.45000457763672
 30
0.0
 40
0.8000000715255737
100
AcDbArc
 50
20.0000045408282
 51
89.99999567428931
  0
ARC
  5
50C2
330
21CC
100
AcDbEntity
  8
0
  6
Continuous
100
AcDbCircle
 10
2.28985595703125
 20
-24.45000457763672
 30
0.0
 40
0.8000000715255737
100
AcDbArc
 50
270.0000043257106
 51
339.9999954591717
  0
ARC
  5
50C3
330
21CC
100
AcDbEntity
  8
0
  6
Continuous
100
AcDbCircle
 10
8.818206787109375
 20
-14.70000457763672
 30
0.0
 40
2.0
100
AcDbArc
 50
90.00000250447845
 51
159.9999953454902
  0
ARC
  5
50C4
330
21CC
100
AcDbEntity
  8
0
  6
Continuous
100
AcDbCircle
 10
8.818206787109375
 20
14.70000457763672
 30
0.0
 40
2.0
100
AcDbArc
 50
200.0000046545097
 51
269.9999974955215
  0
LINE
  5
50C5
330
21CC
100
AcDbEntity
  8
0
  6
Continuous
100
AcDbLine
 10
152.5821838378906
 20
-12.33327484130859
 30
0.0
 11
152.5821838378906
 21
12.33327484130859
 31
0.0
  0
LINE
  5
50C6
330
21CC
100
AcDbEntity
  8
0
  6
Continuous
100
AcDbLine
 10
156.9584244496036
 20
-24.72365490325728
 30
0.0
 11
153.0611369280194
 21
-14.0159458240081
 31
0.0
  0
LINE
  5
50C7
330
21CC
100
AcDbEntity
  8
0
  6
Continuous
100
AcDbLine
 10
160.0
 20
-25.24999237060546
 30
0.0
 11
157.7101440429687
 21
-25.24999237060546
 31
0.0
  0
LINE
  5
50C8
330
21CC
100
AcDbEntity
  8
0
  6
Continuous
100
AcDbLine
 10
157.1500244140624
 20
-23.05716705322265
 30
0.0
 11
157.1500244140624
 21
23.05715179443359
 31
0.0
  0
LINE
  5
50C9
330
21CC
100
AcDbEntity
  8
0
  6
Continuous
100
AcDbLine
 10
156.9583930480462
 20
24.72367012419317
 30
0.0
 11
153.0611188996714
 21
14.01599778753325
 31
0.0
  0
LINE
  5
50CA
330
21CC
100
AcDbEntity
  8
0
  6
Continuous
100
AcDbLine
 10
160.0
 20
25.24999237060546
 30
0.0
 11
157.7101440429687
 21
25.24999237060546
 31
0.0
  0
LINE
  5
50CB
330
21CC
100
AcDbEntity
  8
0
  6
Continuous
100
AcDbLine
 10
160.0
 20
25.24999237060546
 30
0.0
 11
160.0
 21
-25.24999237060546
 31
0.0
  0
LINE
  5
50CC
330
21CC
100
AcDbEntity
  8
0
  6
Continuous
100
AcDbLine
 10
115.8149420984403
 20
-12.69998931884765
 30
0.0
 11
151.1817932128906
 21
-12.69998931884765
 31
0.0
  0
LINE
  5
50CD
330
21CC
100
AcDbEntity
  8
0
  6
Continuous
100
AcDbLine
 10
115.8149475092111
 20
12.69998931884765
 30
0.0
 11
151.1817932128906
 21
12.69998931884765
 31
0.0
  0
ARC
  5
50CE
330
21CC
100
AcDbEntity
  8
0
  6
Continuous
100
AcDbCircle
 10
157.7101440429687
 20
24.45000457763672
 30
0.0
 40
0.8000000715255737
100
AcDbArc
 50
90.00000432570741
 51
159.9999954591718
  0
ARC
  5
50CF
330
21CC
100
AcDbEntity
  8
0
  6
Continuous
100
AcDbCircle
 10
157.7101440429687
 20
-24.45000457763672
 30
0.0
 40
0.8000000715255737
100
AcDbArc
 50
200.0000045408282
 51
269.9999956742925
  0
ARC
  5
50D0
330
21CC
100
AcDbEntity
  8
0
  6
Continuous
100
AcDbCircle
 10
151.1817932128906
 20
-14.70000457763672
 30
0.0
 40
2.0
100
AcDbArc
 50
20.00000465450973
 51
89.99999749551827
  0
ARC
  5
50D1
330
21CC
100
AcDbEntity
  8
0
  6
Continuous
100
AcDbCircle
 10
151.1817932128906
 20
14.70000457763672
 30
0.0
 40
2.0
100
AcDbArc
 50
270.0000025044817
 51
339.9999953454902
  0
LINE
  5
50D2
330
21CC
100
AcDbEntity
  8
0
  6
Continuous
100
AcDbLine
 10
152.5821838378906
 20
-142.2553588063024
 30
0.0
 11
152.5821838378906
 21
-117.5888091236852
 31
0.0
  0
LINE
  5
50D3
330
21CC
100
AcDbEntity
  8
0
  6
Continuous
100
AcDbLine
 10
156.9584244496036
 20
-154.6457388682511
 30
0.0
 11
153.0611369280194
 21
-143.9380297890019
 31
0.0
  0
LINE
  5
50D4
330
21CC
100
AcDbEntity
  8
0
  6
Continuous
100
AcDbLine
 10
160.0
 20
-155.1720763355992
 30
0.0
 11
157.7101440429687
 21
-155.1720763355992
 31
0.0
  0
LINE
  5
50D5
330
21CC
100
AcDbEntity
  8
0
  6
Continuous
100
AcDbLine
 10
157.1500244140624
 20
-152.9792510182164
 30
0.0
 11
157.1500244140624
 21
-106.8649321705602
 31
0.0
  0
LINE
  5
50D6
330
21CC
100
AcDbEntity
  8
0
  6
Continuous
100
AcDbLine
 10
156.9583930480462
 20
-105.1984138408006
 30
0.0
 11
153.0611188996714
 21
-115.9060861774605
 31
0.0
  0
LINE
  5
50D7
330
21CC
100
AcDbEntity
  8
0
  6
Continuous
100
AcDbLine
 10
160.0
 20
-104.6720915943883
 30
0.0
 11
157.7101440429687
 21
-104.6720915943883
 31
0.0
  0
LINE
  5
50D8
330
21CC
100
AcDbEntity
  8
0
  6
Continuous
100
AcDbLine
 10
160.0
 20
-104.6720915943883
 30
0.0
 11
160.0
 21
-155.1720763355992
 31
0.0
  0
LINE
  5
50D9
330
21CC
100
AcDbEntity
  8
0
  6
Continuous
100
AcDbLine
 10
108.4999999999999
 20
-142.6220732838414
 30
0.0
 11
151.1817932128906
 21
-142.6220732838414
 31
0.0
  0
LINE
  5
50DA
330
21CC
100
AcDbEntity
  8
0
  6
Continuous
100
AcDbLine
 10
109.0
 20
-117.2220946461461
 30
0.0
 11
151.1817932128906
 21
-117.2220946461461
 31
0.0
  0
LINE
  5
50DB
330
21CC
100
AcDbEntity
  8
0
  6
Continuous
100
AcDbLine
 10
107.0
 20
-117.2220946461461
 30
0.0
 11
107.0
 21
-142.6220732838414
 31
0.0
  0
LINE
  5
50DC
330
21CC
100
AcDbEntity
  8
0
  6
Continuous
100
AcDbLine
 10
117.9998779296875
 20
-103.5779143482945
 30
0.0
 11
101.8898925781249
 21
-103.5779143482944
 31
0.0
  0
LINE
  5
50DD
330
21CC
100
AcDbEntity
  8
0
  6
Continuous
100
AcDbLine
 10
83.38992309570313
 20
-101.1720763355992
 30
0.0
 11
83.38992309570313
 21
-115.6720763355992
 31
0.0
  0
LINE
  5
50DE
330
21CC
100
AcDbEntity
  8
0
  6
Continuous
100
AcDbLine
 10
93.389892578125
 20
-115.4220763355992
 30
0.0
 11
83.38992309570313
 21
-115.4220763355992
 31
0.0
  0
LINE
  5
50DF
330
21CC
100
AcDbEntity
  8
0
  6
Continuous
100
AcDbLine
 10
111.3899168910197
 20
-101.1720776499429
 30
0.0
 11
117.9998836089579
 21
-103.5779088709115
 31
0.0
  0
LINE
  5
50E0
330
21CC
100
AcDbEntity
  8
0
  6
Continuous
100
AcDbLine
 10
111.3899268114932
 20
-115.6720700824471
 30
0.0
 11
117.9999222065742
 21
-113.2662284238517
 31
0.0
  0
LINE
  5
50E1
330
21CC
100
AcDbEntity
  8
0
  6
Continuous
100
AcDbLine
 10
111.3898925781249
 20
-115.6720763355992
 30
0.0
 11
99.31254257812476
 21
-115.6720763355993
 31
0.0
  0
LINE
  5
50E2
330
21CC
100
AcDbEntity
  8
0
  6
Continuous
100
AcDbLine
 10
93.96724257812513
 20
-115.6720763355993
 30
0.0
 11
83.38992309570313
 21
-115.6720763355992
 31
0.0
  0
LINE
  5
50E3
330
21CC
100
AcDbEntity
  8
0
  6
Continuous
100
AcDbLine
 10
93.389892578125
 20
-101.1720763355992
 30
0.0
 11
93.389892578125
 21
-115.6720763355992
 31
0.0
  0
LINE
  5
50E4
330
21CC
100
AcDbEntity
  8
0
  6
Continuous
100
AcDbLine
 10
111.3898925781249
 20
-101.1720763355992
 30
0.0
 11
99.31254257812476
 21
-101.1720763355993
 31
0.0
  0
LINE
  5
50E5
330
21CC
100
AcDbEntity
  8
0
  6
Continuous
100
AcDbLine
 10
93.96724257812492
 20
-101.1720763355993
 30
0.0
 11
83.38992309570313
 21
-101.1720763355992
 31
0.0
  0
LINE
  5
50E6
330
21CC
100
AcDbEntity
  8
0
  6
Continuous
100
AcDbLine
 10
117.9998779296875
 20
-113.2662383229039
 30
0.0
 11
101.8898925781249
 21
-113.2662383229041
 31
0.0
  0
LINE
  5
50E7
330
21CC
100
AcDbEntity
  8
0
  6
Continuous
100
AcDbLine
 10
93.389892578125
 20
-101.4220763355992
 30
0.0
 11
83.38992309570313
 21
-101.4220763355992
 31
0.0
  0
LINE
  5
50E8
330
21CC
100
AcDbEntity
  8
0
  6
Continuous
100
AcDbLine
 10
117.9998779296875
 20
-103.5779143482945
 30
0.0
 11
117.9998779296875
 21
-113.2662383229039
 31
0.0
  0
ARC
  5
50E9
330
21CC
100
AcDbEntity
  8
0
  6
Continuous
100
AcDbCircle
 10
109.0
 20
-115.222079387357
 30
0.0
 40
2.0
100
AcDbArc
 50
193.0027884357938
 51
269.9999956742925
  0
ARC
  5
50EA
330
21CC
100
AcDbEntity
  8
0
  6
Continuous
100
AcDbCircle
 10
157.7101440429687
 20
-105.472079387357
 30
0.0
 40
0.8000000715255737
100
AcDbArc
 50
90.00000432570741
 51
159.9999954591718
  0
ARC
  5
50EB
330
21CC
100
AcDbEntity
  8
0
  6
Continuous
100
AcDbCircle
 10
157.7101440429687
 20
-154.3720885426305
 30
0.0
 40
0.8000000715255737
100
AcDbArc
 50
200.0000045408282
 51
269.9999956742925
  0
ARC
  5
50EC
330
21CC
100
AcDbEntity
  8
0
  6
Continuous
100
AcDbCircle
 10
151.1817932128906
 20
-144.6220885426305
 30
0.0
 40
2.0
100
AcDbArc
 50
20.00000465450973
 51
89.99999749551827
  0
ARC
  5
50ED
330
21CC
100
AcDbEntity
  8
0
  6
Continuous
100
AcDbCircle
 10
151.1817932128906
 20
-115.222079387357
 30
0.0
 40
2.0
100
AcDbArc
 50
270.0000025044817
 51
339.9999953454902
  0
LINE
  5
50EE
330
21CC
100
AcDbEntity
  8
0
  6
CENTER
100
AcDbLine
 10
-3.7852783203125
 20
0.0000076293945313
 30
0.0
 11
163.7852783203125
 21
0.0000076293945313
 31
0.0
  0
INSERT
  5
50EF
330
21CC
100
AcDbEntity
  8
0
  6
Continuous
100
AcDbBlockReference
  2
n23s08
 10
93.389892578125
 20
-108.4220763355992
 30
0.0
 50
180.0
  0
LINE
  5
50F0
330
21CC
100
AcDbEntity
  8
0
  6
ByBlock
 62
     0
100
AcDbLine
 10
66.610107421875
 20
-100.9165263355993
 30
0.0
 11
66.610107421875
 21
-115.9276263355992
 31
0.0
  0
LINE
  5
50F1
330
21CC
100
AcDbEntity
  8
0
  6
ByBlock
 62
     0
100
AcDbLine
 10
66.610107421875
 20
-115.9276263355992
 30
0.0
 11
61.80613171437494
 21
-115.9276263355992
 31
0.0
  0
LINE
  5
50F2
330
21CC
100
AcDbEntity
  8
0
  6
ByBlock
 62
     0
100
AcDbLine
 10
66.610107421875
 20
-100.9165263355993
 30
0.0
 11
61.80613171437506
 21
-100.9165263355993
 31
0.0
  0
LINE
  5
50F3
330
21CC
100
AcDbEntity
  8
0
  6
ByBlock
 62
     0
100
AcDbLine
 10
61.80613171437494
 20
-115.9276263355992
 30
0.0
 11
61.110107421875
 21
-114.7220763355992
 31
0.0
  0
LINE
  5
50F4
330
21CC
100
AcDbEntity
  8
0
  6
ByBlock
 62
     0
100
AcDbLine
 10
61.80613171437506
 20
-100.9165263355993
 30
0.0
 11
61.110107421875
 21
-102.1220763355993
 31
0.0
  0
LINE
  5
50F5
330
21CC
100
AcDbEntity
  8
0
  6
ByBlock
 62
     0
100
AcDbLine
 10
61.110107421875
 20
-102.1220763355993
 30
0.0
 11
61.110107421875
 21
-114.7220763355992
 31
0.0
  0
ARC
  5
50F6
330
21CC
100
AcDbEntity
  8
0
  6
ByBlock
 62
     0
100
AcDbCircle
 10
71.57509422302246
 20
-108.4220763355992
 30
0.0
 40
10.46498680114746
100
AcDbArc
 50
158.9855776422157
 51
201.0144223577842
  0
ARC
  5
50F7
330
21CC
100
AcDbEntity
  8
0
  6
ByBlock
 62
     0
100
AcDbCircle
 10
65.05613136291504
 20
-102.7929138355993
 30
0.0
 40
3.752776145935058
100
AcDbArc
 50
150.0000088846052
 51
209.9999911153947
  0
ARC
  5
50F8
330
21CC
100
AcDbEntity
  8
0
  6
ByBlock
 62
     0
100
AcDbCircle
 10
65.05613136291504
 20
-114.0512388355992
 30
0.0
 40
3.752776145935058
100
AcDbArc
 50
150.0000088846052
 51
209.9999911153947
  0
LINE
  5
50F9
330
21CC
100
AcDbEntity
  8
0
  6
ByBlock
 62
     0
100
AcDbLine
 10
66.610107421875
 20
-112.1748513355992
 30
0.0
 11
61.80613171437494
 21
-112.1748513355992
 31
0.0
  0
LINE
  5
50FA
330
21CC
100
AcDbEntity
  8
0
  6
ByBlock
 62
     0
100
AcDbLine
 10
66.610107421875
 20
-104.6693013355993
 30
0.0
 11
61.80613171437494
 21
-104.6693013355993
 31
0.0
  0
LINE
  5
50FB
330
21CC
100
AcDbEntity
  8
0
  6
ByBlock
 62
     0
100
AcDbLine
 10
101.8898925781249
 20
-112.4220763355992
 30
0.0
 11
105.4101074218749
 21
-112.4220763355992
 31
0.0
  0
LINE
  5
50FC
330
21CC
100
AcDbEntity
  8
0
  6
ByBlock
 62
     0
100
AcDbLine
 10
101.8898925781249
 20
-104.4220763355994
 30
0.0
 11
105.4101074218749
 21
-104.4220763355994
 31
0.0
  0
LINE
  5
50FD
330
21CC
100
AcDbEntity
  8
0
  6
ByBlock
 62
     0
100
AcDbLine
 10
105.4101074218749
 20
-112.4220763355992
 30
0.0
 11
106.610107421875
 21
-111.2220763355993
 31
0.0
  0
LINE
  5
50FE
330
21CC
100
AcDbEntity
  8
0
  6
ByBlock
 62
     0
100
AcDbLine
 10
105.4101074218749
 20
-104.4220763355994
 30
0.0
 11
106.610107421875
 21
-105.6220763355993
 31
0.0
  0
LINE
  5
50FF
330
21CC
100
AcDbEntity
  8
0
  6
ByBlock
 62
     0
100
AcDbLine
 10
106.610107421875
 20
-105.6220763355993
 30
0.0
 11
106.610107421875
 21
-111.2220763355993
 31
0.0
  0
LINE
  5
5100
330
21CC
100
AcDbEntity
  8
0
  6
ByBlock
 62
     0
100
AcDbLine
 10
105.4101074218749
 20
-104.4220763355994
 30
0.0
 11
105.4101074218749
 21
-112.4220763355992
 31
0.0
  0
LINE
  5
5101
330
21CC
100
AcDbEntity
  8
0
  6
ByBlock
 62
     0
100
AcDbLine
 10
101.8898925781249
 20
-111.6720763355991
 30
0.0
 11
106.1601074218749
 21
-111.6720763355992
 31
0.0
  0
LINE
  5
5102
330
21CC
100
AcDbEntity
  8
0
  6
ByBlock
 62
     0
100
AcDbLine
 10
101.8898925781249
 20
-105.1720763355993
 30
0.0
 11
106.1601074218749
 21
-105.1720763355993
 31
0.0
  0
LINE
  5
5103
330
21CC
100
AcDbEntity
  8
0
  6
Continuous
100
AcDbLine
 10
101.8898925781249
 20
-103.4220763355992
 30
0.0
 11
101.8898925781249
 21
-113.4220763355992
 31
0.0
  0
LINE
  5
5104
330
21CC
100
AcDbEntity
  8
0
  6
Continuous
100
AcDbLine
 10
100.8898925781249
 20
-102.4220763355992
 30
0.0
 11
99.889892578125
 21
-102.4220763355992
 31
0.0
  0
ARC
  5
5105
330
21CC
100
AcDbEntity
  8
0
  6
Continuous
100
AcDbCircle
 10
100.8898925781249
 20
-103.4220763355992
 30
0.0
 40
1.0
100
AcDbArc
 50
359.999994991043
 51
90.0
  0
ARC
  5
5106
330
21CC
100
AcDbEntity
  8
0
  6
Continuous
100
AcDbCircle
 10
100.8898925781249
 20
-113.4220763355992
 30
0.0
 40
1.0
100
AcDbArc
 50
270.0000040000056
 51
0.0000100000010064
  0
LINE
  5
5107
330
21CC
100
AcDbEntity
  8
0
  6
Continuous
100
AcDbLine
 10
100.8898926479382
 20
-114.4220763355992
 30
0.0
 11
99.88989264793827
 21
-114.4220763355992
 31
0.0
  0
LINE
  5
5108
330
21CC
100
AcDbEntity
  8
0
  6
Continuous
100
AcDbLine
 10
42.0001220703125
 20
-156.2662383229039
 30
0.0
 11
61.14801025390625
 21
-156.2662383229039
 31
0.0
  0
LINE
  5
5109
330
21CC
100
AcDbEntity
  8
0
  6
Continuous
100
AcDbLine
 10
76.61007690429688
 20
-158.6720763355993
 30
0.0
 11
76.61007690429688
 21
-144.1720763355992
 31
0.0
  0
LINE
  5
510A
330
21CC
100
AcDbEntity
  8
0
  6
Continuous
100
AcDbLine
 10
66.610107421875
 20
-144.4220763355992
 30
0.0
 11
76.61007690429688
 21
-144.4220763355992
 31
0.0
  0
LINE
  5
510B
330
21CC
100
AcDbEntity
  8
0
  6
Continuous
100
AcDbLine
 10
61.83502197265625
 20
-147.6692992359899
 30
0.0
 11
66.610107421875
 21
-147.6692992359899
 31
0.0
  0
LINE
  5
510C
330
21CC
100
AcDbEntity
  8
0
  6
Continuous
100
AcDbLine
 10
48.61008310898023
 20
-158.6720750212556
 30
0.0
 11
42.00011639104206
 21
-156.266243800287
 31
0.0
  0
LINE
  5
510D
330
21CC
100
AcDbEntity
  8
0
  6
Continuous
100
AcDbLine
 10
48.61007318850671
 20
-144.1720825887514
 30
0.0
 11
42.0000777934257
 21
-146.5779242473468
 31
0.0
  0
LINE
  5
510E
330
21CC
100
AcDbEntity
  8
0
  6
Continuous
100
AcDbLine
 10
48.610107421875
 20
-144.1720763355992
 30
0.0
 11
61.65858992187509
 21
-144.1720763355992
 31
0.0
  0
LINE
  5
510F
330
21CC
100
AcDbEntity
  8
0
  6
Continuous
100
AcDbLine
 10
66.610107421875
 20
-144.1720763355992
 30
0.0
 11
76.61007690429688
 21
-144.1720763355992
 31
0.0
  0
LINE
  5
5110
330
21CC
100
AcDbEntity
  8
0
  6
Continuous
100
AcDbLine
 10
66.610107421875
 20
-158.6720763355993
 30
0.0
 11
66.610107421875
 21
-144.1720763355992
 31
0.0
  0
LINE
  5
5111
330
21CC
100
AcDbEntity
  8
0
  6
Continuous
100
AcDbLine
 10
76.61007690429688
 20
-147.4220763355992
 30
0.0
 11
83.38992309570313
 21
-147.4220763355992
 31
0.0
  0
LINE
  5
5112
330
21CC
100
AcDbEntity
  8
0
  6
Continuous
100
AcDbLine
 10
48.610107421875
 20
-158.6720763355993
 30
0.0
 11
61.65858992187509
 21
-158.6720763355993
 31
0.0
  0
LINE
  5
5113
330
21CC
100
AcDbEntity
  8
0
  6
Continuous
100
AcDbLine
 10
66.610107421875
 20
-158.6720763355993
 30
0.0
 11
76.61007690429688
 21
-158.6720763355993
 31
0.0
  0
LINE
  5
5114
330
21CC
100
AcDbEntity
  8
0
  6
Continuous
100
AcDbLine
 10
42.0001220703125
 20
-146.5779143482945
 30
0.0
 11
61.110107421875
 21
-146.5779143482945
 31
0.0
  0
LINE
  5
5115
330
21CC
100
AcDbEntity
  8
0
  6
Continuous
100
AcDbLine
 10
76.91984558105469
 20
-145.8022185475133
 30
0.0
 11
83.0801544189453
 21
-145.8022185475133
 31
0.0
  0
LINE
  5
5116
330
21CC
100
AcDbEntity
  8
0
  6
Continuous
100
AcDbLine
 10
61.83502197265625
 20
-155.1748534352086
 30
0.0
 11
66.610107421875
 21
-155.1748534352086
 31
0.0
  0
LINE
  5
5117
330
21CC
100
AcDbEntity
  8
0
  6
Continuous
100
AcDbLine
 10
76.61007690429688
 20
-155.4220763355992
 30
0.0
 11
83.38992309570313
 21
-155.4220763355992
 31
0.0
  0
LINE
  5
5118
330
21CC
100
AcDbEntity
  8
0
  6
Continuous
100
AcDbLine
 10
66.610107421875
 20
-158.4220763355992
 30
0.0
 11
76.61007690429688
 21
-158.4220763355992
 31
0.0
  0
LINE
  5
5119
330
21CC
100
AcDbEntity
  8
0
  6
Continuous
100
AcDbLine
 10
42.0001220703125
 20
-156.2662383229039
 30
0.0
 11
42.0001220703125
 21
-146.5779143482945
 31
0.0
  0
LINE
  5
511A
330
21CC
100
AcDbEntity
  8
0
  6
Continuous
100
AcDbLine
 10
77.0
 20
-157.4220610768102
 30
0.0
 11
83.0
 21
-157.4220610768102
 31
0.0
  0
ARC
  5
511B
330
21CC
100
AcDbEntity
  8
0
  6
Continuous
100
AcDbCircle
 10
51.0
 20
-144.6220732838414
 30
0.0
 40
2.0
100
AcDbArc
 50
13.00278843579381
 51
89.99999567428931
  0
LINE
  5
511C
330
21CC
100
AcDbEntity
  8
0
  6
Continuous
100
AcDbLine
 10
117.9998779296875
 20
-156.2662383229039
 30
0.0
 11
101.8898925781249
 21
-156.266238322904
 31
0.0
  0
LINE
  5
511D
330
21CC
100
AcDbEntity
  8
0
  6
Continuous
100
AcDbLine
 10
83.38992309570313
 20
-158.6720763355993
 30
0.0
 11
83.38992309570313
 21
-144.1720763355992
 31
0.0
  0
LINE
  5
511E
330
21CC
100
AcDbEntity
  8
0
  6
Continuous
100
AcDbLine
 10
93.389892578125
 20
-144.4220763355992
 30
0.0
 11
83.38992309570313
 21
-144.4220763355992
 31
0.0
  0
LINE
  5
511F
330
21CC
100
AcDbEntity
  8
0
  6
Continuous
100
AcDbLine
 10
111.3899168910197
 20
-158.6720750212556
 30
0.0
 11
117.9998836089579
 21
-156.266243800287
 31
0.0
  0
LINE
  5
5120
330
21CC
100
AcDbEntity
  8
0
  6
Continuous
100
AcDbLine
 10
111.3899268114932
 20
-144.1720825887514
 30
0.0
 11
117.9999222065742
 21
-146.5779242473468
 31
0.0
  0
LINE
  5
5121
330
21CC
100
AcDbEntity
  8
0
  6
Continuous
100
AcDbLine
 10
111.3898925781249
 20
-144.1720763355992
 30
0.0
 11
99.31254257812476
 21
-144.1720763355991
 31
0.0
  0
LINE
  5
5122
330
21CC
100
AcDbEntity
  8
0
  6
Continuous
100
AcDbLine
 10
93.96724257812513
 20
-144.1720763355991
 30
0.0
 11
83.38992309570313
 21
-144.1720763355992
 31
0.0
  0
LINE
  5
5123
330
21CC
100
AcDbEntity
  8
0
  6
Continuous
100
AcDbLine
 10
93.389892578125
 20
-158.6720763355993
 30
0.0
 11
93.389892578125
 21
-144.1720763355992
 31
0.0
  0
LINE
  5
5124
330
21CC
100
AcDbEntity
  8
0
  6
Continuous
100
AcDbLine
 10
111.3898925781249
 20
-158.6720763355993
 30
0.0
 11
99.31254257812476
 21
-158.6720763355991
 31
0.0
  0
LINE
  5
5125
330
21CC
100
AcDbEntity
  8
0
  6
Continuous
100
AcDbLine
 10
93.96724257812492
 20
-158.6720763355991
 30
0.0
 11
83.38992309570313
 21
-158.6720763355993
 31
0.0
  0
LINE
  5
5126
330
21CC
100
AcDbEntity
  8
0
  6
Continuous
100
AcDbLine
 10
117.9998779296875
 20
-146.5779143482945
 30
0.0
 11
101.8898925781249
 21
-146.5779143482944
 31
0.0
  0
LINE
  5
5127
330
21CC
100
AcDbEntity
  8
0
  6
Continuous
100
AcDbLine
 10
93.389892578125
 20
-158.4220763355992
 30
0.0
 11
83.38992309570313
 21
-158.4220763355992
 31
0.0
  0
LINE
  5
5128
330
21CC
100
AcDbEntity
  8
0
  6
Continuous
100
AcDbLine
 10
117.9998779296875
 20
-156.2662383229039
 30
0.0
 11
117.9998779296875
 21
-146.5779143482945
 31
0.0
  0
ARC
  5
5129
330
21CC
100
AcDbEntity
  8
0
  6
Continuous
100
AcDbCircle
 10
109.0
 20
-144.6220732838414
 30
0.0
 40
2.0
100
AcDbArc
 50
90.00000432570741
 51
166.9972115642061
  0
INSERT
  5
512A
330
21CC
100
AcDbEntity
  8
0
  6
Continuous
100
AcDbBlockReference
  2
n23s08
 10
93.389892578125
 20
-151.4220763355992
 30
0.0
 41
-1.0
  0
LINE
  5
512B
330
21CC
100
AcDbEntity
  8
0
  6
ByBlock
 62
     0
100
AcDbLine
 10
66.610107421875
 20
-158.9276263355992
 30
0.0
 11
66.610107421875
 21
-143.9165263355993
 31
0.0
  0
LINE
  5
512C
330
21CC
100
AcDbEntity
  8
0
  6
ByBlock
 62
     0
100
AcDbLine
 10
66.610107421875
 20
-143.9165263355993
 30
0.0
 11
61.80613171437494
 21
-143.9165263355993
 31
0.0
  0
LINE
  5
512D
330
21CC
100
AcDbEntity
  8
0
  6
ByBlock
 62
     0
100
AcDbLine
 10
66.610107421875
 20
-158.9276263355992
 30
0.0
 11
61.80613171437506
 21
-158.9276263355992
 31
0.0
  0
LINE
  5
512E
330
21CC
100
AcDbEntity
  8
0
  6
ByBlock
 62
     0
100
AcDbLine
 10
61.80613171437494
 20
-143.9165263355993
 30
0.0
 11
61.110107421875
 21
-145.1220763355993
 31
0.0
  0
LINE
  5
512F
330
21CC
100
AcDbEntity
  8
0
  6
ByBlock
 62
     0
100
AcDbLine
 10
61.80613171437506
 20
-158.9276263355992
 30
0.0
 11
61.110107421875
 21
-157.7220763355992
 31
0.0
  0
LINE
  5
5130
330
21CC
100
AcDbEntity
  8
0
  6
ByBlock
 62
     0
100
AcDbLine
 10
61.110107421875
 20
-157.7220763355992
 30
0.0
 11
61.110107421875
 21
-145.1220763355993
 31
0.0
  0
ARC
  5
5131
330
21CC
100
AcDbEntity
  8
0
  6
ByBlock
 62
     0
100
AcDbCircle
 10
71.57509422302246
 20
-151.4220763355992
 30
0.0
 40
10.46498680114746
100
AcDbArc
 50
158.9855776422084
 51
201.0144223577915
  0
ARC
  5
5132
330
21CC
100
AcDbEntity
  8
0
  6
ByBlock
 62
     0
100
AcDbCircle
 10
65.05613136291504
 20
-157.0512388355991
 30
0.0
 40
3.752776145935058
100
AcDbArc
 50
150.0000088846052
 51
209.9999911153947
  0
ARC
  5
5133
330
21CC
100
AcDbEntity
  8
0
  6
ByBlock
 62
     0
100
AcDbCircle
 10
65.05613136291504
 20
-145.7929138355992
 30
0.0
 40
3.752776145935058
100
AcDbArc
 50
150.0000088846052
 51
209.9999911153947
  0
LINE
  5
5134
330
21CC
100
AcDbEntity
  8
0
  6
ByBlock
 62
     0
100
AcDbLine
 10
66.610107421875
 20
-147.6693013355993
 30
0.0
 11
61.80613171437494
 21
-147.6693013355993
 31
0.0
  0
LINE
  5
5135
330
21CC
100
AcDbEntity
  8
0
  6
ByBlock
 62
     0
100
AcDbLine
 10
66.610107421875
 20
-155.1748513355992
 30
0.0
 11
61.80613171437494
 21
-155.1748513355992
 31
0.0
  0
LINE
  5
5136
330
21CC
100
AcDbEntity
  8
0
  6
ByBlock
 62
     0
100
AcDbLine
 10
101.8898925781249
 20
-147.4220763355992
 30
0.0
 11
105.4101074218749
 21
-147.4220763355992
 31
0.0
  0
LINE
  5
5137
330
21CC
100
AcDbEntity
  8
0
  6
ByBlock
 62
     0
100
AcDbLine
 10
101.8898925781249
 20
-155.4220763355991
 30
0.0
 11
105.4101074218749
 21
-155.4220763355991
 31
0.0
  0
LINE
  5
5138
330
21CC
100
AcDbEntity
  8
0
  6
ByBlock
 62
     0
100
AcDbLine
 10
105.4101074218749
 20
-147.4220763355992
 30
0.0
 11
106.610107421875
 21
-148.6220763355992
 31
0.0
  0
LINE
  5
5139
330
21CC
100
AcDbEntity
  8
0
  6
ByBlock
 62
     0
100
AcDbLine
 10
105.4101074218749
 20
-155.4220763355991
 30
0.0
 11
106.610107421875
 21
-154.2220763355992
 31
0.0
  0
LINE
  5
513A
330
21CC
100
AcDbEntity
  8
0
  6
ByBlock
 62
     0
100
AcDbLine
 10
106.610107421875
 20
-154.2220763355992
 30
0.0
 11
106.610107421875
 21
-148.6220763355992
 31
0.0
  0
LINE
  5
513B
330
21CC
100
AcDbEntity
  8
0
  6
ByBlock
 62
     0
100
AcDbLine
 10
105.4101074218749
 20
-155.4220763355991
 30
0.0
 11
105.4101074218749
 21
-147.4220763355992
 31
0.0
  0
LINE
  5
513C
330
21CC
100
AcDbEntity
  8
0
  6
ByBlock
 62
     0
100
AcDbLine
 10
101.8898925781249
 20
-148.1720763355994
 30
0.0
 11
106.1601074218749
 21
-148.1720763355992
 31
0.0
  0
LINE
  5
513D
330
21CC
100
AcDbEntity
  8
0
  6
ByBlock
 62
     0
100
AcDbLine
 10
101.8898925781249
 20
-154.6720763355991
 30
0.0
 11
106.1601074218749
 21
-154.6720763355991
 31
0.0
  0
LINE
  5
513E
330
21CC
100
AcDbEntity
  8
0
  6
Continuous
100
AcDbLine
 10
101.8898925781249
 20
-156.4220763355992
 30
0.0
 11
101.8898925781249
 21
-146.4220763355992
 31
0.0
  0
LINE
  5
513F
330
21CC
100
AcDbEntity
  8
0
  6
Continuous
100
AcDbLine
 10
100.8898925781249
 20
-157.4220763355992
 30
0.0
 11
99.889892578125
 21
-157.4220763355992
 31
0.0
  0
ARC
  5
5140
330
21CC
100
AcDbEntity
  8
0
  6
Continuous
100
AcDbCircle
 10
100.8898925781249
 20
-156.4220763355992
 30
0.0
 40
1.0
100
AcDbArc
 50
270.0
 51
0.000005008963459
  0
ARC
  5
5141
330
21CC
100
AcDbEntity
  8
0
  6
Continuous
100
AcDbCircle
 10
100.8898925781249
 20
-146.4220763355992
 30
0.0
 40
1.0
100
AcDbArc
 50
359.999989999999
 51
89.99999599999439
  0
LINE
  5
5142
330
21CC
100
AcDbEntity
  8
0
  6
Continuous
100
AcDbLine
 10
100.8898926479382
 20
-145.4220763355992
 30
0.0
 11
99.88989264793827
 21
-145.4220763355992
 31
0.0
  0
LINE
  5
5143
330
21CC
100
AcDbEntity
  8
0
  6
ByBlock
 62
     0
100
AcDbLine
 10
101.5
 20
-51.99999237060547
 30
0.0
 11
105.0202148437499
 21
-51.99999237060547
 31
0.0
  0
LINE
  5
5144
330
21CC
100
AcDbEntity
  8
0
  6
ByBlock
 62
     0
100
AcDbLine
 10
101.5
 20
-43.99999237060558
 30
0.0
 11
105.0202148437499
 21
-43.99999237060558
 31
0.0
  0
LINE
  5
5145
330
21CC
100
AcDbEntity
  8
0
  6
ByBlock
 62
     0
100
AcDbLine
 10
105.0202148437499
 20
-51.99999237060547
 30
0.0
 11
106.2202148437499
 21
-50.79999237060554
 31
0.0
  0
LINE
  5
5146
330
21CC
100
AcDbEntity
  8
0
  6
ByBlock
 62
     0
100
AcDbLine
 10
105.0202148437499
 20
-43.99999237060558
 30
0.0
 11
106.2202148437499
 21
-45.19999237060551
 31
0.0
  0
LINE
  5
5147
330
21CC
100
AcDbEntity
  8
0
  6
ByBlock
 62
     0
100
AcDbLine
 10
106.2202148437499
 20
-45.19999237060551
 30
0.0
 11
106.2202148437499
 21
-50.79999237060554
 31
0.0
  0
LINE
  5
5148
330
21CC
100
AcDbEntity
  8
0
  6
ByBlock
 62
     0
100
AcDbLine
 10
105.0202148437499
 20
-43.99999237060558
 30
0.0
 11
105.0202148437499
 21
-51.99999237060547
 31
0.0
  0
LINE
  5
5149
330
21CC
100
AcDbEntity
  8
0
  6
ByBlock
 62
     0
100
AcDbLine
 10
101.5
 20
-51.24999237060535
 30
0.0
 11
105.7702148437499
 21
-51.24999237060547
 31
0.0
  0
LINE
  5
514A
330
21CC
100
AcDbEntity
  8
0
  6
ByBlock
 62
     0
100
AcDbLine
 10
101.5
 20
-44.74999237060558
 30
0.0
 11
105.7702148437499
 21
-44.74999237060558
 31
0.0
  0
LINE
  5
514B
330
21CC
100
AcDbEntity
  8
0
  6
ByBlock
 62
     0
100
AcDbLine
 10
101.5
 20
44.00000762939453
 30
0.0
 11
105.0202148437499
 21
44.00000762939453
 31
0.0
  0
LINE
  5
514C
330
21CC
100
AcDbEntity
  8
0
  6
ByBlock
 62
     0
100
AcDbLine
 10
101.5
 20
52.00000762939442
 30
0.0
 11
105.0202148437499
 21
52.00000762939442
 31
0.0
  0
LINE
  5
514D
330
21CC
100
AcDbEntity
  8
0
  6
ByBlock
 62
     0
100
AcDbLine
 10
105.0202148437499
 20
44.00000762939453
 30
0.0
 11
106.2202148437499
 21
45.20000762939446
 31
0.0
  0
LINE
  5
514E
330
21CC
100
AcDbEntity
  8
0
  6
ByBlock
 62
     0
100
AcDbLine
 10
105.0202148437499
 20
52.00000762939442
 30
0.0
 11
106.2202148437499
 21
50.80000762939448
 31
0.0
  0
LINE
  5
514F
330
21CC
100
AcDbEntity
  8
0
  6
ByBlock
 62
     0
100
AcDbLine
 10
106.2202148437499
 20
50.80000762939448
 30
0.0
 11
106.2202148437499
 21
45.20000762939446
 31
0.0
  0
LINE
  5
5150
330
21CC
100
AcDbEntity
  8
0
  6
ByBlock
 62
     0
100
AcDbLine
 10
105.0202148437499
 20
52.00000762939442
 30
0.0
 11
105.0202148437499
 21
44.00000762939453
 31
0.0
  0
LINE
  5
5151
330
21CC
100
AcDbEntity
  8
0
  6
ByBlock
 62
     0
100
AcDbLine
 10
101.5
 20
44.75000762939465
 30
0.0
 11
105.7702148437499
 21
44.75000762939453
 31
0.0
  0
LINE
  5
5152
330
21CC
100
AcDbEntity
  8
0
  6
ByBlock
 62
     0
100
AcDbLine
 10
101.5
 20
51.25000762939442
 30
0.0
 11
105.7702148437499
 21
51.25000762939442
 31
0.0
  0
ENDSEC
  0
SECTION
  2
OBJECTS
  0
DICTIONARY
  5
21BA
330
0
100
AcDbDictionary
281
     1
  3
ACAD_GROUP
350
21BB
  3
ACAD_LAYOUT
350
21C7
  3
ACAD_MLINESTYLE
350
21C4
  3
ACAD_PLOTSETTINGS
350
21C6
  3
ACAD_PLOTSTYLENAME
350
21BC
  3
AcDbVariableDictionary
350
2238
  0
DICTIONARY
  5
2244
330
21B0
100
AcDbDictionary
280
     1
281
     1
  3
ACAD_LAYERSTATES
360
2245
  0
DICTIONARY
  5
21F8
330
21CC
100
AcDbDictionary
280
     1
281
     1
  3
ACAD_LAYOUTSELFREF
360
2227
  0
DICTIONARY
  5
21FA
330
21C8
100
AcDbDictionary
280
     1
281
     1
  3
ACAD_LAYOUTSELFREF
360
2226
  0
DICTIONARY
  5
21BB
102
{ACAD_REACTORS
330
21BA
102
}
330
21BA
100
AcDbDictionary
281
     1
  0
DICTIONARY
  5
21C7
102
{ACAD_REACTORS
330
21BA
102
}
330
21BA
100
AcDbDictionary
281
     1
  3
Model
350
21CF
  3
ﾚｲｱｳﾄ1
350
21CB
  0
DICTIONARY
  5
21C4
102
{ACAD_REACTORS
330
21BA
102
}
330
21BA
100
AcDbDictionary
281
     1
  3
Standard
350
21C5
  0
DICTIONARY
  5
21C6
102
{ACAD_REACTORS
330
21BA
102
}
330
21BA
100
AcDbDictionary
281
     1
  0
ACDBDICTIONARYWDFLT
  5
21BC
102
{ACAD_REACTORS
330
21BA
102
}
330
21BA
100
AcDbDictionary
281
     1
  3
Normal
350
21BD
100
AcDbDictionaryWithDefault
340
21BD
  0
DICTIONARY
  5
2238
102
{ACAD_REACTORS
330
21BA
102
}
330
21BA
100
AcDbDictionary
281
     1
  3
DIMASSOC
350
2239
  0
DICTIONARY
  5
2245
102
{ACAD_REACTORS
330
2244
102
}
330
2244
100
AcDbDictionary
281
     1
  0
XRECORD
  5
2227
102
{ACAD_REACTORS
330
21F8
102
}
330
21F8
100
AcDbXrecord
280
     1
340
21CC
  0
XRECORD
  5
2226
102
{ACAD_REACTORS
330
21FA
102
}
330
21FA
100
AcDbXrecord
280
     1
340
21C8
  0
LAYOUT
  5
21CF
102
{ACAD_REACTORS
330
21C7
102
}
330
21C7
100
AcDbPlotSettings
  1

  2
SII LP-2150 (D-SCAN C2)
  4

  6

 40
0.0
 41
0.0
 42
0.0
 43
0.0
 44
0.0
 45
0.0
 46
0.0
 47
0.0
 48
0.0
 49
0.0
140
0.0
141
0.0
142
1.0
143
1.0
 70
  1712
 72
     0
 73
     0
 74
     0
  7

 75
     0
147
1.0
148
0.0
149
0.0
100
AcDbLayout
  1
Model
 70
     1
 71
     0
 10
0.0
 20
0.0
 11
12.0
 21
9.0
 12
0.0
 22
0.0
 32
0.0
 14
0.0
 24
0.0
 34
0.0
 15
0.0
 25
0.0
 35
0.0
146
0.0
 13
0.0
 23
0.0
 33
0.0
 16
1.0
 26
0.0
 36
0.0
 17
0.0
 27
1.0
 37
0.0
 76
     0
330
21CC
  0
LAYOUT
  5
21CB
102
{ACAD_REACTORS
330
21C7
102
}
330
21C7
100
AcDbPlotSettings
  1

  2
SII LP-2150 (D-SCAN C2)
  4

  6

 40
0.0
 41
0.0
 42
0.0
 43
0.0
 44
0.0
 45
0.0
 46
0.0
 47
0.0
 48
0.0
 49
0.0
140
0.0
141
0.0
142
1.0
143
1.0
 70
   688
 72
     0
 73
     0
 74
     5
  7

 75
    16
147
1.0
148
0.0
149
0.0
100
AcDbLayout
  1
ﾚｲｱｳﾄ1
 70
     1
 71
     1
 10
0.0
 20
0.0
 11
12.0
 21
9.0
 12
0.0
 22
0.0
 32
0.0
 14
1.000000000000000E+20
 24
1.000000000000000E+20
 34
1.000000000000000E+20
 15
-1.000000000000000E+20
 25
-1.000000000000000E+20
 35
-1.000000000000000E+20
146
0.0
 13
0.0
 23
0.0
 33
0.0
 16
1.0
 26
0.0
 36
0.0
 17
0.0
 27
1.0
 37
0.0
 76
     0
330
21C8
  0
MLINESTYLE
  5
21C5
102
{ACAD_REACTORS
330
21C4
102
}
330
21C4
100
AcDbMlineStyle
  2
STANDARD
 70
     0
  3

 62
   256
 51
90.0
 52
90.0
 71
     2
 49
0.5
 62
   256
  6
BYLAYER
 49
-0.5
 62
   256
  6
BYLAYER
  0
ACDBPLACEHOLDER
  5
21BD
102
{ACAD_REACTORS
330
21BC
102
}
330
21BC
  0
DICTIONARYVAR
  5
2239
102
{ACAD_REACTORS
330
2238
102
}
330
2238
100
DictionaryVariables
280
     0
  1
1
  0
ENDSEC
  0
EOF
