  0
SECTION
  2
HEADER
  9
$ACADVER
  1
AC1015
  9
$ACADMAINTVER
 70
    14
  9
$DWGCODEPAGE
  3
ANSI_932
  9
$INSBASE
 10
0.0
 20
0.0
 30
0.0
  9
$EXTMIN
 10
-5.902082692850967
 20
-70.00408648500775
 30
-0.0000000000112498
  9
$EXTMAX
 10
481.914131429907
 20
198.0040922291532
 30
0.0000000000002956
  9
$LIMMIN
 10
0.0
 20
0.0
  9
$LIMMAX
 10
12.0
 20
9.0
  9
$ORTHOMODE
 70
     0
  9
$REGENMODE
 70
     1
  9
$FILLMODE
 70
     1
  9
$QTEXTMODE
 70
     0
  9
$MIRRTEXT
 70
     1
  9
$LTSCALE
 40
1.0
  9
$ATTMODE
 70
     1
  9
$TEXTSIZE
 40
0.2
  9
$TRACEWID
 40
0.05
  9
$TEXTSTYLE
  7
STANDARD
  9
$CLAYER
  8
0
  9
$CELTYPE
  6
CONTINUOUS
  9
$CECOLOR
 62
   256
  9
$CELTSCALE
 40
1.0
  9
$DISPSILH
 70
     0
  9
$DIMSCALE
 40
1.0
  9
$DIMASZ
 40
1.0
  9
$DIMEXO
 40
2.54
  9
$DIMDLI
 40
0.38
  9
$DIMRND
 40
0.0
  9
$DIMDLE
 40
0.0
  9
$DIMEXE
 40
2.54
  9
$DIMTP
 40
0.0
  9
$DIMTM
 40
0.0
  9
$DIMTXT
 40
3.2
  9
$DIMCEN
 40
0.09
  9
$DIMTSZ
 40
0.0
  9
$DIMTOL
 70
     0
  9
$DIMLIM
 70
     0
  9
$DIMTIH
 70
     0
  9
$DIMTOH
 70
     0
  9
$DIMSE1
 70
     0
  9
$DIMSE2
 70
     0
  9
$DIMTAD
 70
     1
  9
$DIMZIN
 70
     0
  9
$DIMBLK
  1

  9
$DIMASO
 70
     1
  9
$DIMSHO
 70
     0
  9
$DIMPOST
  1

  9
$DIMAPOST
  1

  9
$DIMALT
 70
     0
  9
$DIMALTD
 70
     2
  9
$DIMALTF
 40
25.4
  9
$DIMLFAC
 40
1.0
  9
$DIMTOFL
 70
     0
  9
$DIMTVP
 40
1.0
  9
$DIMTIX
 70
     0
  9
$DIMSOXD
 70
     0
  9
$DIMSAH
 70
     1
  9
$DIMBLK1
  1

  9
$DIMBLK2
  1

  9
$DIMSTYLE
  2
STANDARD
  9
$DIMCLRD
 70
     0
  9
$DIMCLRE
 70
     0
  9
$DIMCLRT
 70
     0
  9
$DIMTFAC
 40
1.0
  9
$DIMGAP
 40
1.6
  9
$DIMJUST
 70
     0
  9
$DIMSD1
 70
     0
  9
$DIMSD2
 70
     0
  9
$DIMTOLJ
 70
     1
  9
$DIMTZIN
 70
     0
  9
$DIMALTZ
 70
     0
  9
$DIMALTTZ
 70
     0
  9
$DIMUPT
 70
     0
  9
$DIMDEC
 70
     4
  9
$DIMTDEC
 70
     4
  9
$DIMALTU
 70
     2
  9
$DIMALTTD
 70
     2
  9
$DIMTXSTY
  7
STANDARD
  9
$DIMAUNIT
 70
     0
  9
$DIMADEC
 70
     0
  9
$DIMALTRND
 40
0.0
  9
$DIMAZIN
 70
     0
  9
$DIMDSEP
 70
    46
  9
$DIMATFIT
 70
     3
  9
$DIMFRAC
 70
     0
  9
$DIMLDRBLK
  1

  9
$DIMLUNIT
 70
     2
  9
$DIMLWD
 70
    -2
  9
$DIMLWE
 70
    -2
  9
$DIMTMOVE
 70
     0
  9
$LUNITS
 70
     2
  9
$LUPREC
 70
     4
  9
$SKETCHINC
 40
0.1
  9
$FILLETRAD
 40
0.0
  9
$AUNITS
 70
     0
  9
$AUPREC
 70
     0
  9
$MENU
  1
.
  9
$ELEVATION
 40
0.0
  9
$PELEVATION
 40
0.0
  9
$THICKNESS
 40
0.0
  9
$LIMCHECK
 70
     0
  9
$CHAMFERA
 40
0.0
  9
$CHAMFERB
 40
0.0
  9
$CHAMFERC
 40
0.0
  9
$CHAMFERD
 40
0.0
  9
$SKPOLY
 70
     0
  9
$TDCREATE
 40
2452488.423138738
  9
$TDUCREATE
 40
2452488.048138738
  9
$TDUPDATE
 40
2456906.721130636
  9
$TDUUPDATE
 40
2456906.346130636
  9
$TDINDWG
 40
0.2850380440
  9
$TDUSRTIMER
 40
0.2850378588
  9
$USRTIMER
 70
     1
  9
$ANGBASE
 50
0.0
  9
$ANGDIR
 70
     0
  9
$PDMODE
 70
     3
  9
$PDSIZE
 40
0.0
  9
$PLINEWID
 40
0.0
  9
$SPLFRAME
 70
     0
  9
$SPLINETYPE
 70
     6
  9
$SPLINESEGS
 70
     8
  9
$HANDSEED
  5
26D9
  9
$SURFTAB1
 70
     6
  9
$SURFTAB2
 70
     6
  9
$SURFTYPE
 70
     6
  9
$SURFU
 70
     6
  9
$SURFV
 70
     6
  9
$UCSBASE
  2

  9
$UCSNAME
  2

  9
$UCSORG
 10
0.0
 20
0.0
 30
0.0
  9
$UCSXDIR
 10
1.0
 20
0.0
 30
0.0
  9
$UCSYDIR
 10
0.0
 20
1.0
 30
0.0
  9
$UCSORTHOREF
  2

  9
$UCSORTHOVIEW
 70
     0
  9
$UCSORGTOP
 10
0.0
 20
0.0
 30
0.0
  9
$UCSORGBOTTOM
 10
0.0
 20
0.0
 30
0.0
  9
$UCSORGLEFT
 10
0.0
 20
0.0
 30
0.0
  9
$UCSORGRIGHT
 10
0.0
 20
0.0
 30
0.0
  9
$UCSORGFRONT
 10
0.0
 20
0.0
 30
0.0
  9
$UCSORGBACK
 10
0.0
 20
0.0
 30
0.0
  9
$PUCSBASE
  2

  9
$PUCSNAME
  2

  9
$PUCSORG
 10
0.0
 20
0.0
 30
0.0
  9
$PUCSXDIR
 10
1.0
 20
0.0
 30
0.0
  9
$PUCSYDIR
 10
0.0
 20
1.0
 30
0.0
  9
$PUCSORTHOREF
  2

  9
$PUCSORTHOVIEW
 70
     0
  9
$PUCSORGTOP
 10
0.0
 20
0.0
 30
0.0
  9
$PUCSORGBOTTOM
 10
0.0
 20
0.0
 30
0.0
  9
$PUCSORGLEFT
 10
0.0
 20
0.0
 30
0.0
  9
$PUCSORGRIGHT
 10
0.0
 20
0.0
 30
0.0
  9
$PUCSORGFRONT
 10
0.0
 20
0.0
 30
0.0
  9
$PUCSORGBACK
 10
0.0
 20
0.0
 30
0.0
  9
$USERI1
 70
     0
  9
$USERI2
 70
     0
  9
$USERI3
 70
     0
  9
$USERI4
 70
     0
  9
$USERI5
 70
     0
  9
$USERR1
 40
0.0
  9
$USERR2
 40
0.0
  9
$USERR3
 40
0.0
  9
$USERR4
 40
0.0
  9
$USERR5
 40
0.0
  9
$WORLDVIEW
 70
     1
  9
$SHADEDGE
 70
     3
  9
$SHADEDIF
 70
    70
  9
$TILEMODE
 70
     1
  9
$MAXACTVP
 70
    48
  9
$PINSBASE
 10
0.0
 20
0.0
 30
0.0
  9
$PLIMCHECK
 70
     0
  9
$PEXTMIN
 10
1.000000000000000E+20
 20
1.000000000000000E+20
 30
1.000000000000000E+20
  9
$PEXTMAX
 10
-1.000000000000000E+20
 20
-1.000000000000000E+20
 30
-1.000000000000000E+20
  9
$PLIMMIN
 10
0.0
 20
0.0
  9
$PLIMMAX
 10
12.0
 20
9.0
  9
$UNITMODE
 70
     0
  9
$VISRETAIN
 70
     1
  9
$PLINEGEN
 70
     0
  9
$PSLTSCALE
 70
     1
  9
$TREEDEPTH
 70
  3020
  9
$CMLSTYLE
  2
Standard
  9
$CMLJUST
 70
     0
  9
$CMLSCALE
 40
1.0
  9
$PROXYGRAPHICS
 70
     1
  9
$MEASUREMENT
 70
     0
  9
$CELWEIGHT
370
    -1
  9
$ENDCAPS
280
     0
  9
$JOINSTYLE
280
     0
  9
$LWDISPLAY
290
     0
  9
$INSUNITS
 70
     0
  9
$HYPERLINKBASE
  1

  9
$STYLESHEET
  1

  9
$XEDIT
290
     1
  9
$CEPSNTYPE
380
     0
  9
$PSTYLEMODE
290
     1
  9
$FINGERPRINTGUID
  2
{FFE95C04-33D2-4560-80D0-1E2918E4EC86}
  9
$VERSIONGUID
  2
{1320ECAE-A4EE-4A36-AADA-DC3CE87F420C}
  9
$EXTNAMES
290
     1
  9
$PSVPSCALE
 40
0.0
  9
$OLESTARTUP
290
     0
  0
ENDSEC
  0
SECTION
  2
CLASSES
  0
CLASS
  1
ACDBDICTIONARYWDFLT
  2
AcDbDictionaryWithDefault
  3
AutoCAD 2000
 90
        0
280
     0
281
     0
  0
CLASS
  1
ACDBPLACEHOLDER
  2
AcDbPlaceHolder
  3
AutoCAD 2000
 90
        0
280
     0
281
     0
  0
CLASS
  1
LAYOUT
  2
AcDbLayout
  3
AutoCAD 2000
 90
        0
280
     0
281
     0
  0
CLASS
  1
DICTIONARYVAR
  2
AcDbDictionaryVar
  3
AutoCAD 2000
 90
        0
280
     0
281
     0
  0
CLASS
  1
LONG_TRANSACTION
  2
AcDbLongTransaction
  3
AutoCAD 2000
 90
    32768
280
     0
281
     0
  0
CLASS
  1
LWPOLYLINE
  2
AcDbPolyline
  3
AutoCAD 2000
 90
    32768
280
     0
281
     1
  0
CLASS
  1
HATCH
  2
AcDbHatch
  3
AutoCAD 2000
 90
    32768
280
     0
281
     1
  0
CLASS
  1
XRECORD
  2
AcDbXrecord
  3
AutoCAD 2000
 90
    32768
280
     0
281
     0
  0
ENDSEC
  0
SECTION
  2
TABLES
  0
TABLE
  2
VPORT
  5
21B6
330
0
100
AcDbSymbolTable
 70
     2
  0
VPORT
  5
26D8
330
21B6
100
AcDbSymbolTableRecord
100
AcDbViewportTableRecord
  2
*Active
 70
     0
 10
0.0
 20
0.0
 11
1.0
 21
1.0
 12
238.0060243685279
 22
64.00000287207274
 13
0.0
 23
0.0
 14
1.0
 24
1.0
 15
0.0
 25
0.0
 16
0.0
 26
0.0
 36
1.0
 17
0.0
 27
0.0
 37
0.0
 40
269.7098179440921
 41
1.953389830508474
 42
50.0
 43
0.0
 44
0.0
 50
0.0
 51
0.0
 71
     0
 72
   100
 73
     1
 74
     3
 75
     0
 76
     0
 77
     0
 78
     0
281
     0
 65
     1
110
0.0
120
0.0
130
0.0
111
1.0
121
0.0
131
0.0
112
0.0
122
1.0
132
0.0
 79
     0
146
0.0
  0
ENDTAB
  0
TABLE
  2
LTYPE
  5
21B3
330
0
100
AcDbSymbolTable
 70
     2
  0
LTYPE
  5
21C1
330
21B3
100
AcDbSymbolTableRecord
100
AcDbLinetypeTableRecord
  2
ByBlock
 70
     0
  3

 72
    65
 73
     0
 40
0.0
  0
LTYPE
  5
21C2
330
21B3
100
AcDbSymbolTableRecord
100
AcDbLinetypeTableRecord
  2
ByLayer
 70
     0
  3

 72
    65
 73
     0
 40
0.0
  0
LTYPE
  5
21C3
330
21B3
100
AcDbSymbolTableRecord
100
AcDbLinetypeTableRecord
  2
CONTINUOUS
 70
     0
  3
Solid line
 72
    65
 73
     0
 40
0.0
  0
LTYPE
  5
21D1
330
21B3
100
AcDbSymbolTableRecord
100
AcDbLinetypeTableRecord
  2
CENTER
 70
     0
  3
__ . __
 72
    65
 73
     4
 40
7.0
 49
4.0
 74
     0
 49
-1.0
 74
     0
 49
1.0
 74
     0
 49
-1.0
 74
     0
  0
ENDTAB
  0
TABLE
  2
LAYER
  5
21B0
102
{ACAD_XDICTIONARY
360
2244
102
}
330
0
100
AcDbSymbolTable
 70
     1
  0
LAYER
  5
21BE
330
21B0
100
AcDbSymbolTableRecord
100
AcDbLayerTableRecord
  2
0
 70
     0
 62
     7
  6
CONTINUOUS
370
    -3
390
21BD
  0
ENDTAB
  0
TABLE
  2
STYLE
  5
21B1
330
0
100
AcDbSymbolTable
 70
     1
  0
STYLE
  5
21BF
330
21B1
100
AcDbSymbolTableRecord
100
AcDbTextStyleTableRecord
  2
STANDARD
 70
     0
 40
0.0
 41
1.0
 50
0.0
 71
     0
 42
0.2
  3
txt
  4
BIGFONT
  0
ENDTAB
  0
TABLE
  2
VIEW
  5
21B4
330
0
100
AcDbSymbolTable
 70
     1
  0
VIEW
  5
21DE
330
21B4
100
AcDbSymbolTableRecord
100
AcDbViewTableRecord
  2
OLE1
 70
     0
 40
3692.141019219747
 10
1914.591370701856
 20
1272.206200738182
 41
4595.022665841169
 11
0.0
 21
0.0
 31
1.0
 12
0.0
 22
0.0
 32
0.0
 42
50.0
 43
0.0
 44
0.0
 50
0.0
 71
     0
281
     0
 72
     1
110
0.0
120
0.0
130
0.0
111
1.0
121
0.0
131
0.0
112
0.0
122
1.0
132
0.0
 79
     0
146
0.0
  0
ENDTAB
  0
TABLE
  2
UCS
  5
21B5
330
0
100
AcDbSymbolTable
 70
     0
  0
ENDTAB
  0
TABLE
  2
APPID
  5
21B7
330
0
100
AcDbSymbolTable
 70
     8
  0
APPID
  5
21C0
330
21B7
100
AcDbSymbolTableRecord
100
AcDbRegAppTableRecord
  2
ACAD
 70
     0
  0
APPID
  5
21DF
330
21B7
100
AcDbSymbolTableRecord
100
AcDbRegAppTableRecord
  2
MCAD_NO_VIS
 70
     0
  0
APPID
  5
21E0
330
21B7
100
AcDbSymbolTableRecord
100
AcDbRegAppTableRecord
  2
ACAD_TEMP_GRAPHIC
 70
     0
  0
APPID
  5
21E1
330
21B7
100
AcDbSymbolTableRecord
100
AcDbRegAppTableRecord
  2
ACATTRIBSERVICES
 70
     0
  0
APPID
  5
21E2
330
21B7
100
AcDbSymbolTableRecord
100
AcDbRegAppTableRecord
  2
CONTENTBLOCKICON
 70
     0
  0
APPID
  5
2241
330
21B7
100
AcDbSymbolTableRecord
100
AcDbRegAppTableRecord
  2
ACAD_DSTYLE_DIMJAG
 70
     0
  0
APPID
  5
2242
330
21B7
100
AcDbSymbolTableRecord
100
AcDbRegAppTableRecord
  2
ACAD_DSTYLE_DIMTALN
 70
     0
  0
APPID
  5
2243
330
21B7
100
AcDbSymbolTableRecord
100
AcDbRegAppTableRecord
  2
ACAD_PSEXT
 70
     0
  0
ENDTAB
  0
TABLE
  2
DIMSTYLE
  5
21B8
330
0
100
AcDbSymbolTable
 70
     1
100
AcDbDimStyleTable
 71
     0
  0
DIMSTYLE
105
21E3
330
21B8
100
AcDbSymbolTableRecord
100
AcDbDimStyleTableRecord
  2
STANDARD
 70
     0
279
     2
340
21BF
  0
ENDTAB
  0
TABLE
  2
BLOCK_RECORD
  5
21AF
330
0
100
AcDbSymbolTable
 70
     0
  0
BLOCK_RECORD
  5
21CC
102
{ACAD_XDICTIONARY
360
21F8
102
}
330
21AF
100
AcDbSymbolTableRecord
100
AcDbBlockTableRecord
  2
*Model_Space
340
21CF
  0
BLOCK_RECORD
  5
21C8
102
{ACAD_XDICTIONARY
360
21FA
102
}
330
21AF
100
AcDbSymbolTableRecord
100
AcDbBlockTableRecord
  2
*Paper_Space
340
21CB
  0
ENDTAB
  0
ENDSEC
  0
SECTION
  2
BLOCKS
  0
BLOCK
  5
21CD
330
21CC
100
AcDbEntity
  8
0
100
AcDbBlockBegin
  2
*Model_Space
 70
     0
 10
0.0
 20
0.0
 30
0.0
  3
*Model_Space
  1

  0
ENDBLK
  5
21CE
330
21CC
100
AcDbEntity
  8
0
100
AcDbBlockEnd
  0
BLOCK
  5
21C9
330
21C8
100
AcDbEntity
 67
     1
  8
0
100
AcDbBlockBegin
  2
*Paper_Space
 70
     0
 10
0.0
 20
0.0
 30
0.0
  3
*Paper_Space
  1

  0
ENDBLK
  5
21CA
330
21C8
100
AcDbEntity
 67
     1
  8
0
100
AcDbBlockEnd
  0
ENDSEC
  0
SECTION
  2
ENTITIES
  0
TEXT
  5
F6E
330
21CC
100
AcDbEntity
  8
0
  6
Continuous
100
AcDbText
 10
0.0
 20
150.0
 30
0.0
 40
48.000002
  1
SGLS 2.5S
 41
1.32095
100
AcDbText
  0
ARC
  5
250F
330
21CC
100
AcDbEntity
  8
0
100
AcDbCircle
 10
24.78359999999992
 20
-46.63878333333332
 30
0.0
 40
3.783614666666666
100
AcDbArc
 50
139.5701800000002
 51
220.4298199999997
  0
LINE
  5
2510
330
21CC
100
AcDbEntity
  8
0
100
AcDbLine
 10
20.9999833333332
 20
-61.36121666666667
 30
0.0
 11
20.9999833333332
 21
-46.63878333333332
 31
0.0
  0
ARC
  5
2511
330
21CC
100
AcDbEntity
  8
0
100
AcDbCircle
 10
24.78359999999992
 20
-61.36121666666667
 30
0.0
 40
3.783614666666666
100
AcDbArc
 50
139.5701800000002
 51
220.4298199999997
  0
ARC
  5
2512
330
21CC
100
AcDbEntity
  8
0
100
AcDbCircle
 10
34.77918333333326
 20
-54.0
 30
0.0
 40
13.77916816666666
100
AcDbArc
 50
159.1359000000016
 51
200.8640999999983
  0
LINE
  5
2513
330
21CC
100
AcDbEntity
  8
0
100
AcDbLine
 10
21.90349999999984
 20
-58.90748333333329
 30
0.0
 11
26.99999999999994
 21
-58.90748333333329
 31
0.0
  0
LINE
  5
2514
330
21CC
100
AcDbEntity
  8
0
100
AcDbLine
 10
21.90349999999984
 20
-63.81496666666669
 30
0.0
 11
26.99999999999994
 21
-63.81496666666669
 31
0.0
  0
LINE
  5
2515
330
21CC
100
AcDbEntity
  8
0
100
AcDbLine
 10
21.90349999999984
 20
-49.09251666666659
 30
0.0
 11
26.99999999999994
 21
-49.09251666666659
 31
0.0
  0
LINE
  5
2516
330
21CC
100
AcDbEntity
  8
0
100
AcDbLine
 10
-0.0000000000000568
 20
-38.75
 30
0.0
 11
0.0000000000000568
 21
38.75
 31
0.0
  0
LINE
  5
2517
330
21CC
100
AcDbEntity
  8
0
100
AcDbLine
 10
6.798250000000223
 20
-31.74998333333337
 30
0.0
 11
25.49999999999994
 21
-31.75
 31
0.0
  0
LINE
  5
2518
330
21CC
100
AcDbEntity
  8
0
100
AcDbLine
 10
5.397799999999904
 20
-30.81721296417572
 30
0.0
 11
5.397800000000017
 21
30.81721296417572
 31
0.0
  0
LINE
  5
2519
330
21CC
100
AcDbEntity
  8
0
100
AcDbLine
 10
2.849983333333454
 20
-35.0951907116588
 30
0.0
 11
2.849983333333568
 21
35.0951907116588
 31
0.0
  0
LINE
  5
251A
330
21CC
100
AcDbEntity
  8
0
100
AcDbLine
 10
-0.0000000000000568
 20
-38.75
 30
0.0
 11
2.359866666666619
 21
-38.75
 31
0.0
  0
ARC
  5
251B
330
21CC
100
AcDbEntity
  8
0
100
AcDbCircle
 10
2.359866666666619
 20
-38.04998333333333
 30
0.0
 40
0.6999999833333334
100
AcDbArc
 50
270.0
 51
340.0008900000035
  0
ARC
  5
251C
330
21CC
100
AcDbEntity
  8
0
100
AcDbCircle
 10
6.798250000000223
 20
-33.75
 30
0.0
 40
2.0
100
AcDbArc
 50
90.0
 51
159.9995899999995
  0
LINE
  5
251D
330
21CC
100
AcDbEntity
  8
0
100
AcDbLine
 10
3.017633333333549
 20
-38.2894
 30
0.0
 11
4.91876666666684
 21
-33.06594999999993
 31
0.0
  0
LINE
  5
251E
330
21CC
100
AcDbEntity
  8
0
100
AcDbLine
 10
21.90349999999984
 20
-44.18503333333331
 30
0.0
 11
26.99999999999994
 21
-44.18503333333331
 31
0.0
  0
ARC
  5
251F
330
21CC
100
AcDbEntity
  8
0
100
AcDbCircle
 10
145.2163999999999
 20
-46.63878333333332
 30
0.0
 40
3.783614666666666
100
AcDbArc
 50
319.5701800000002
 51
40.42982500000397
  0
LINE
  5
2520
330
21CC
100
AcDbEntity
  8
0
100
AcDbLine
 10
149.0000166666665
 20
-61.36121666666667
 30
0.0
 11
149.0000166666665
 21
-46.63878333333332
 31
0.0
  0
LINE
  5
2521
330
21CC
100
AcDbEntity
  8
0
100
AcDbLine
 10
148.0965
 20
-49.09251666666659
 30
0.0
 11
142.9999999999999
 21
-49.09251666666659
 31
0.0
  0
LINE
  5
2522
330
21CC
100
AcDbEntity
  8
0
100
AcDbLine
 10
148.0965
 20
-58.90748333333329
 30
0.0
 11
142.9999999999999
 21
-58.90748333333329
 31
0.0
  0
LINE
  5
2523
330
21CC
100
AcDbEntity
  8
0
100
AcDbLine
 10
148.0965
 20
-63.81496666666669
 30
0.0
 11
142.9999999999999
 21
-63.81496666666669
 31
0.0
  0
ARC
  5
2524
330
21CC
100
AcDbEntity
  8
0
100
AcDbCircle
 10
135.2208499999999
 20
-54.0
 30
0.0
 40
13.77916816666666
100
AcDbArc
 50
339.1359299999977
 51
20.86406699999809
  0
ARC
  5
2525
330
21CC
100
AcDbEntity
  8
0
100
AcDbCircle
 10
145.2163999999999
 20
-61.36121666666667
 30
0.0
 40
3.783614666666666
100
AcDbArc
 50
319.5701800000002
 51
40.42982500000397
  0
LINE
  5
2526
330
21CC
100
AcDbEntity
  8
0
100
AcDbLine
 10
169.9999999999999
 20
-38.75
 30
0.0
 11
170.0
 21
38.74999999999988
 31
0.0
  0
LINE
  5
2527
330
21CC
100
AcDbEntity
  8
0
100
AcDbLine
 10
148.0965
 20
-44.18503333333331
 30
0.0
 11
142.9999999999999
 21
-44.18503333333331
 31
0.0
  0
LINE
  5
2528
330
21CC
100
AcDbEntity
  8
0
100
AcDbLine
 10
164.6022307438355
 20
-31.0969043711658
 30
0.0
 11
164.6022307438357
 21
31.09690437116569
 31
0.0
  0
LINE
  5
2529
330
21CC
100
AcDbEntity
  8
0
100
AcDbLine
 10
167.1500101526129
 20
-35.82617705836117
 30
0.0
 11
167.1500101526131
 21
35.82617705836105
 31
0.0
  0
LINE
  5
252A
330
21CC
100
AcDbEntity
  8
0
100
AcDbLine
 10
169.9999999999999
 20
-38.75
 30
0.0
 11
167.6401566332817
 21
-38.75
 31
0.0
  0
LINE
  5
252B
330
21CC
100
AcDbEntity
  8
0
100
AcDbLine
 10
166.9823712461361
 20
-38.28941258207919
 30
0.0
 11
165.0811990480555
 21
-33.06594738453566
 31
0.0
  0
ARC
  5
252C
330
21CC
100
AcDbEntity
  8
0
100
AcDbCircle
 10
163.2018122276399
 20
-33.74998333333337
 30
0.0
 40
2.0
100
AcDbArc
 50
19.99986775430793
 51
90.0
  0
ARC
  5
252D
330
21CC
100
AcDbEntity
  8
0
100
AcDbCircle
 10
167.6401566332817
 20
-38.04999999999995
 30
0.0
 40
0.7
100
AcDbArc
 50
199.9998677543079
 51
270.0
  0
LINE
  5
252E
330
21CC
100
AcDbEntity
  8
0
  6
CENTER
100
AcDbLine
 10
174.9999999999999
 20
-0.0000000000001137
 30
0.0
 11
-5.896579606151192
 21
0.0
 31
0.0
  0
LINE
  5
252F
330
21CC
100
AcDbEntity
  8
0
100
AcDbLine
 10
142.9999999999999
 20
-70.0
 30
0.0
 11
26.99999999999994
 21
-70.0
 31
0.0
  0
LINE
  5
2530
330
21CC
100
AcDbEntity
  8
0
100
AcDbLine
 10
144.4999999999999
 20
-31.75
 30
0.0
 11
163.2018122276399
 21
-31.74998333333337
 31
0.0
  0
ARC
  5
2531
330
21CC
100
AcDbEntity
  8
0
100
AcDbCircle
 10
144.4999999999999
 20
-34.25
 30
0.0
 40
2.5
100
AcDbArc
 50
90.0
 51
126.8698976458456
  0
ARC
  5
2532
330
21CC
100
AcDbEntity
  8
0
100
AcDbCircle
 10
25.49999999999994
 20
-34.25
 30
0.0
 40
2.5
100
AcDbArc
 50
53.13010235415435
 51
90.0
  0
LINE
  5
2533
330
21CC
100
AcDbEntity
  8
0
  6
CENTER
100
AcDbLine
 10
13.49999999999994
 20
-54.0
 30
0.0
 11
161.5000119999999
 21
-54.0
 31
0.0
  0
LINE
  5
2534
330
21CC
100
AcDbEntity
  8
0
100
AcDbLine
 10
17.99999999999994
 20
-49.0
 30
0.0
 11
20.9999833333332
 21
-49.0
 31
0.0
  0
LINE
  5
2535
330
21CC
100
AcDbEntity
  8
0
100
AcDbLine
 10
17.99999999999994
 20
-59.00000099999999
 30
0.0
 11
20.9999833333332
 21
-59.00000099999999
 31
0.0
  0
LINE
  5
2536
330
21CC
100
AcDbEntity
  8
0
100
AcDbLine
 10
157.0000119999999
 20
-49.0
 30
0.0
 11
157.0000119999999
 21
-59.00000099999999
 31
0.0
  0
LINE
  5
2537
330
21CC
100
AcDbEntity
  8
0
100
AcDbLine
 10
17.99999999999994
 20
-49.0
 30
0.0
 11
17.99999999999994
 21
-59.00000099999999
 31
0.0
  0
LINE
  5
2538
330
21CC
100
AcDbEntity
  8
0
100
AcDbLine
 10
17.99999999999994
 20
-50.0
 30
0.0
 11
20.9999833333332
 21
-50.0
 31
0.0
  0
LINE
  5
2539
330
21CC
100
AcDbEntity
  8
0
100
AcDbLine
 10
17.99999999999994
 20
-58.0
 30
0.0
 11
20.9999833333332
 21
-58.0
 31
0.0
  0
ARC
  5
253A
330
21CC
100
AcDbEntity
  8
0
100
AcDbCircle
 10
25.49999999999994
 20
-54.0
 30
0.0
 40
9.0
100
AcDbArc
 50
146.4426899999999
 51
213.55731
  0
ARC
  5
253B
330
21CC
100
AcDbEntity
  8
0
100
AcDbCircle
 10
149.5000119999999
 20
-54.0
 30
0.0
 40
9.0
100
AcDbArc
 50
326.4426899999999
 51
33.55731100000213
  0
LINE
  5
253C
330
21CC
100
AcDbEntity
  8
0
100
AcDbLine
 10
149.0000166666665
 20
-59.00000099999999
 30
0.0
 11
157.0000119999999
 21
-59.00000099999999
 31
0.0
  0
LINE
  5
253D
330
21CC
100
AcDbEntity
  8
0
100
AcDbLine
 10
149.0000166666665
 20
-50.0
 30
0.0
 11
157.0000119999999
 21
-50.0
 31
0.0
  0
LINE
  5
253E
330
21CC
100
AcDbEntity
  8
0
100
AcDbLine
 10
149.0000166666665
 20
-58.0
 30
0.0
 11
157.0000119999999
 21
-58.0
 31
0.0
  0
LINE
  5
253F
330
21CC
100
AcDbEntity
  8
0
100
AcDbLine
 10
149.0000166666665
 20
-49.0
 30
0.0
 11
157.0000119999999
 21
-49.0
 31
0.0
  0
LINE
  5
2540
330
21CC
100
AcDbEntity
  8
0
100
AcDbLine
 10
27.00000000000005
 20
70.0
 30
0.0
 11
26.99999999999994
 21
-70.0
 31
0.0
  0
LINE
  5
2541
330
21CC
100
AcDbEntity
  8
0
100
AcDbLine
 10
143.0
 20
69.99999999999989
 30
0.0
 11
142.9999999999999
 21
-70.0
 31
0.0
  0
ARC
  5
25FC
330
21CC
100
AcDbEntity
  8
0
100
AcDbCircle
 10
24.78360000000003
 20
46.63878333333332
 30
0.0
 40
3.783614666666666
100
AcDbArc
 50
139.5701800000002
 51
220.4298199999997
  0
LINE
  5
25FD
330
21CC
100
AcDbEntity
  8
0
100
AcDbLine
 10
20.99998333333331
 20
61.36121666666667
 30
0.0
 11
20.99998333333331
 21
46.63878333333332
 31
0.0
  0
ARC
  5
25FE
330
21CC
100
AcDbEntity
  8
0
100
AcDbCircle
 10
24.78360000000003
 20
61.36121666666667
 30
0.0
 40
3.783614666666666
100
AcDbArc
 50
139.5701800000002
 51
220.4298199999997
  0
ARC
  5
25FF
330
21CC
100
AcDbEntity
  8
0
100
AcDbCircle
 10
34.77918333333338
 20
54.0
 30
0.0
 40
13.77916816666666
100
AcDbArc
 50
159.1359000000016
 51
200.8640999999983
  0
LINE
  5
2600
330
21CC
100
AcDbEntity
  8
0
100
AcDbLine
 10
21.90349999999995
 20
58.90748333333329
 30
0.0
 11
27.00000000000005
 21
58.90748333333329
 31
0.0
  0
LINE
  5
2601
330
21CC
100
AcDbEntity
  8
0
100
AcDbLine
 10
21.90349999999995
 20
63.81496666666669
 30
0.0
 11
27.00000000000005
 21
63.81496666666669
 31
0.0
  0
LINE
  5
2602
330
21CC
100
AcDbEntity
  8
0
100
AcDbLine
 10
21.90349999999995
 20
49.09251666666659
 30
0.0
 11
27.00000000000005
 21
49.09251666666659
 31
0.0
  0
LINE
  5
2603
330
21CC
100
AcDbEntity
  8
0
100
AcDbLine
 10
6.798250000000336
 20
31.74998333333337
 30
0.0
 11
25.50000000000006
 21
31.75
 31
0.0
  0
LINE
  5
2604
330
21CC
100
AcDbEntity
  8
0
100
AcDbLine
 10
0.0000000000000568
 20
38.75
 30
0.0
 11
2.359866666666732
 21
38.75
 31
0.0
  0
ARC
  5
2605
330
21CC
100
AcDbEntity
  8
0
100
AcDbCircle
 10
2.359866666666732
 20
38.04998333333333
 30
0.0
 40
0.6999999833333334
100
AcDbArc
 50
19.99910999999638
 51
90.0
  0
ARC
  5
2606
330
21CC
100
AcDbEntity
  8
0
100
AcDbCircle
 10
6.798250000000336
 20
33.75
 30
0.0
 40
2.0
100
AcDbArc
 50
200.0004100000004
 51
270.0
  0
LINE
  5
2607
330
21CC
100
AcDbEntity
  8
0
100
AcDbLine
 10
3.017633333333662
 20
38.2894
 30
0.0
 11
4.918766666666954
 21
33.06594999999993
 31
0.0
  0
LINE
  5
2608
330
21CC
100
AcDbEntity
  8
0
100
AcDbLine
 10
21.90349999999995
 20
44.18503333333331
 30
0.0
 11
27.00000000000005
 21
44.18503333333331
 31
0.0
  0
ARC
  5
2609
330
21CC
100
AcDbEntity
  8
0
100
AcDbCircle
 10
145.2164
 20
46.63878333333321
 30
0.0
 40
3.783614666666666
100
AcDbArc
 50
319.570174999996
 51
40.42981999999977
  0
LINE
  5
260A
330
21CC
100
AcDbEntity
  8
0
100
AcDbLine
 10
149.0000166666666
 20
61.36121666666657
 30
0.0
 11
149.0000166666666
 21
46.63878333333321
 31
0.0
  0
LINE
  5
260B
330
21CC
100
AcDbEntity
  8
0
100
AcDbLine
 10
148.0965000000001
 20
49.09251666666648
 30
0.0
 11
143.0
 21
49.09251666666648
 31
0.0
  0
LINE
  5
260C
330
21CC
100
AcDbEntity
  8
0
100
AcDbLine
 10
148.0965000000001
 20
58.90748333333317
 30
0.0
 11
143.0
 21
58.90748333333317
 31
0.0
  0
LINE
  5
260D
330
21CC
100
AcDbEntity
  8
0
100
AcDbLine
 10
148.0965000000001
 20
63.81496666666658
 30
0.0
 11
143.0
 21
63.81496666666658
 31
0.0
  0
ARC
  5
260E
330
21CC
100
AcDbEntity
  8
0
100
AcDbCircle
 10
135.2208500000001
 20
53.99999999999988
 30
0.0
 40
13.77916816666666
100
AcDbArc
 50
339.1359330000018
 51
20.86407000000222
  0
ARC
  5
260F
330
21CC
100
AcDbEntity
  8
0
100
AcDbCircle
 10
145.2164
 20
61.36121666666657
 30
0.0
 40
3.783614666666666
100
AcDbArc
 50
319.570174999996
 51
40.42981999999977
  0
LINE
  5
2610
330
21CC
100
AcDbEntity
  8
0
100
AcDbLine
 10
148.0965000000001
 20
44.18503333333319
 30
0.0
 11
143.0
 21
44.18503333333319
 31
0.0
  0
LINE
  5
2611
330
21CC
100
AcDbEntity
  8
0
100
AcDbLine
 10
170.0
 20
38.74999999999988
 30
0.0
 11
167.6401566332818
 21
38.74999999999988
 31
0.0
  0
LINE
  5
2612
330
21CC
100
AcDbEntity
  8
0
100
AcDbLine
 10
166.9823712461362
 20
38.28941258207908
 30
0.0
 11
165.0811990480556
 21
33.06594738453554
 31
0.0
  0
ARC
  5
2613
330
21CC
100
AcDbEntity
  8
0
100
AcDbCircle
 10
163.20181222764
 20
33.74998333333326
 30
0.0
 40
2.0
100
AcDbArc
 50
270.0
 51
340.0001322456921
  0
ARC
  5
2614
330
21CC
100
AcDbEntity
  8
0
100
AcDbCircle
 10
167.6401566332818
 20
38.04999999999984
 30
0.0
 40
0.7
100
AcDbArc
 50
90.0
 51
160.000132245692
  0
LINE
  5
2615
330
21CC
100
AcDbEntity
  8
0
100
AcDbLine
 10
143.0
 20
69.99999999999989
 30
0.0
 11
27.00000000000005
 21
70.0
 31
0.0
  0
LINE
  5
2616
330
21CC
100
AcDbEntity
  8
0
100
AcDbLine
 10
144.5
 20
31.74999999999988
 30
0.0
 11
163.20181222764
 21
31.74998333333326
 31
0.0
  0
ARC
  5
2617
330
21CC
100
AcDbEntity
  8
0
100
AcDbCircle
 10
144.5
 20
34.24999999999988
 30
0.0
 40
2.5
100
AcDbArc
 50
233.1301023541543
 51
270.0
  0
ARC
  5
2618
330
21CC
100
AcDbEntity
  8
0
100
AcDbCircle
 10
25.50000000000006
 20
34.25
 30
0.0
 40
2.5
100
AcDbArc
 50
270.0
 51
306.8698976458456
  0
LINE
  5
2619
330
21CC
100
AcDbEntity
  8
0
  6
CENTER
100
AcDbLine
 10
13.50000000000005
 20
54.0
 30
0.0
 11
161.500012
 21
53.99999999999988
 31
0.0
  0
LINE
  5
261A
330
21CC
100
AcDbEntity
  8
0
100
AcDbLine
 10
18.00000000000005
 20
49.0
 30
0.0
 11
20.99998333333331
 21
49.0
 31
0.0
  0
LINE
  5
261B
330
21CC
100
AcDbEntity
  8
0
100
AcDbLine
 10
18.00000000000005
 20
59.00000099999999
 30
0.0
 11
20.99998333333331
 21
59.00000099999999
 31
0.0
  0
LINE
  5
261C
330
21CC
100
AcDbEntity
  8
0
100
AcDbLine
 10
157.000012
 20
48.99999999999988
 30
0.0
 11
157.000012
 21
59.00000099999989
 31
0.0
  0
LINE
  5
261D
330
21CC
100
AcDbEntity
  8
0
100
AcDbLine
 10
18.00000000000005
 20
49.0
 30
0.0
 11
18.00000000000005
 21
59.00000099999999
 31
0.0
  0
LINE
  5
261E
330
21CC
100
AcDbEntity
  8
0
100
AcDbLine
 10
18.00000000000005
 20
50.0
 30
0.0
 11
20.99998333333331
 21
50.0
 31
0.0
  0
LINE
  5
261F
330
21CC
100
AcDbEntity
  8
0
100
AcDbLine
 10
18.00000000000005
 20
58.0
 30
0.0
 11
20.99998333333331
 21
58.0
 31
0.0
  0
ARC
  5
2620
330
21CC
100
AcDbEntity
  8
0
100
AcDbCircle
 10
25.50000000000006
 20
54.0
 30
0.0
 40
9.0
100
AcDbArc
 50
146.4426899999999
 51
213.55731
  0
ARC
  5
2621
330
21CC
100
AcDbEntity
  8
0
100
AcDbCircle
 10
149.500012
 20
53.99999999999988
 30
0.0
 40
9.0
100
AcDbArc
 50
326.4426889999977
 51
33.55731000000002
  0
LINE
  5
2622
330
21CC
100
AcDbEntity
  8
0
100
AcDbLine
 10
149.0000166666666
 20
59.00000099999989
 30
0.0
 11
157.000012
 21
59.00000099999989
 31
0.0
  0
LINE
  5
2623
330
21CC
100
AcDbEntity
  8
0
100
AcDbLine
 10
149.0000166666666
 20
49.99999999999989
 30
0.0
 11
157.000012
 21
49.99999999999989
 31
0.0
  0
LINE
  5
2624
330
21CC
100
AcDbEntity
  8
0
100
AcDbLine
 10
149.0000166666666
 20
57.99999999999989
 30
0.0
 11
157.000012
 21
57.99999999999989
 31
0.0
  0
LINE
  5
2625
330
21CC
100
AcDbEntity
  8
0
100
AcDbLine
 10
149.0000166666666
 20
48.99999999999988
 30
0.0
 11
157.000012
 21
48.99999999999988
 31
0.0
  0
ENDSEC
  0
SECTION
  2
OBJECTS
  0
DICTIONARY
  5
21BA
330
0
100
AcDbDictionary
281
     1
  3
ACAD_GROUP
350
21BB
  3
ACAD_LAYOUT
350
21C7
  3
ACAD_MLINESTYLE
350
21C4
  3
ACAD_PLOTSETTINGS
350
21C6
  3
ACAD_PLOTSTYLENAME
350
21BC
  3
AcDbVariableDictionary
350
2238
  0
DICTIONARY
  5
2244
330
21B0
100
AcDbDictionary
280
     1
281
     1
  3
ACAD_LAYERSTATES
360
2245
  0
DICTIONARY
  5
21F8
330
21CC
100
AcDbDictionary
280
     1
281
     1
  3
ACAD_LAYOUTSELFREF
360
2227
  0
DICTIONARY
  5
21FA
330
21C8
100
AcDbDictionary
280
     1
281
     1
  3
ACAD_LAYOUTSELFREF
360
2226
  0
DICTIONARY
  5
21BB
102
{ACAD_REACTORS
330
21BA
102
}
330
21BA
100
AcDbDictionary
281
     1
  0
DICTIONARY
  5
21C7
102
{ACAD_REACTORS
330
21BA
102
}
330
21BA
100
AcDbDictionary
281
     1
  3
Model
350
21CF
  3
ﾚｲｱｳﾄ1
350
21CB
  0
DICTIONARY
  5
21C4
102
{ACAD_REACTORS
330
21BA
102
}
330
21BA
100
AcDbDictionary
281
     1
  3
Standard
350
21C5
  0
DICTIONARY
  5
21C6
102
{ACAD_REACTORS
330
21BA
102
}
330
21BA
100
AcDbDictionary
281
     1
  0
ACDBDICTIONARYWDFLT
  5
21BC
102
{ACAD_REACTORS
330
21BA
102
}
330
21BA
100
AcDbDictionary
281
     1
  3
Normal
350
21BD
100
AcDbDictionaryWithDefault
340
21BD
  0
DICTIONARY
  5
2238
102
{ACAD_REACTORS
330
21BA
102
}
330
21BA
100
AcDbDictionary
281
     1
  3
DIMASSOC
350
2239
  0
DICTIONARY
  5
2245
102
{ACAD_REACTORS
330
2244
102
}
330
2244
100
AcDbDictionary
281
     1
  0
XRECORD
  5
2227
102
{ACAD_REACTORS
330
21F8
102
}
330
21F8
100
AcDbXrecord
280
     1
340
21CC
  0
XRECORD
  5
2226
102
{ACAD_REACTORS
330
21FA
102
}
330
21FA
100
AcDbXrecord
280
     1
340
21C8
  0
LAYOUT
  5
21CF
102
{ACAD_REACTORS
330
21C7
102
}
330
21C7
100
AcDbPlotSettings
  1

  2
SII LP-2150 (D-SCAN C2)
  4

  6

 40
0.0
 41
0.0
 42
0.0
 43
0.0
 44
0.0
 45
0.0
 46
0.0
 47
0.0
 48
0.0
 49
0.0
140
0.0
141
0.0
142
1.0
143
1.0
 70
  1712
 72
     0
 73
     0
 74
     0
  7

 75
     0
147
1.0
148
0.0
149
0.0
100
AcDbLayout
  1
Model
 70
     1
 71
     0
 10
0.0
 20
0.0
 11
12.0
 21
9.0
 12
0.0
 22
0.0
 32
0.0
 14
0.0
 24
0.0
 34
0.0
 15
0.0
 25
0.0
 35
0.0
146
0.0
 13
0.0
 23
0.0
 33
0.0
 16
1.0
 26
0.0
 36
0.0
 17
0.0
 27
1.0
 37
0.0
 76
     0
330
21CC
  0
LAYOUT
  5
21CB
102
{ACAD_REACTORS
330
21C7
102
}
330
21C7
100
AcDbPlotSettings
  1

  2
SII LP-2150 (D-SCAN C2)
  4

  6

 40
0.0
 41
0.0
 42
0.0
 43
0.0
 44
0.0
 45
0.0
 46
0.0
 47
0.0
 48
0.0
 49
0.0
140
0.0
141
0.0
142
1.0
143
1.0
 70
   688
 72
     0
 73
     0
 74
     5
  7

 75
    16
147
1.0
148
0.0
149
0.0
100
AcDbLayout
  1
ﾚｲｱｳﾄ1
 70
     1
 71
     1
 10
0.0
 20
0.0
 11
12.0
 21
9.0
 12
0.0
 22
0.0
 32
0.0
 14
1.000000000000000E+20
 24
1.000000000000000E+20
 34
1.000000000000000E+20
 15
-1.000000000000000E+20
 25
-1.000000000000000E+20
 35
-1.000000000000000E+20
146
0.0
 13
0.0
 23
0.0
 33
0.0
 16
1.0
 26
0.0
 36
0.0
 17
0.0
 27
1.0
 37
0.0
 76
     0
330
21C8
  0
MLINESTYLE
  5
21C5
102
{ACAD_REACTORS
330
21C4
102
}
330
21C4
100
AcDbMlineStyle
  2
STANDARD
 70
     0
  3

 62
   256
 51
90.0
 52
90.0
 71
     2
 49
0.5
 62
   256
  6
BYLAYER
 49
-0.5
 62
   256
  6
BYLAYER
  0
ACDBPLACEHOLDER
  5
21BD
102
{ACAD_REACTORS
330
21BC
102
}
330
21BC
  0
DICTIONARYVAR
  5
2239
102
{ACAD_REACTORS
330
2238
102
}
330
2238
100
DictionaryVariables
280
     0
  1
1
  0
ENDSEC
  0
EOF
