  0
SECTION
  2
HEADER
  9
$ACADVER
  1
AC1009
  9
$INSBASE
 10
0.0
 20
0.0
 30
0.0
  9
$EXTMIN
 10
-62.5
 20
-105.0000000000109
 30
0.0
  9
$EXTMAX
 10
2279.3458123922101
 20
588.2813975037534
 30
0.0
  9
$LIMMIN
 10
0.0
 20
0.0
  9
$LIMMAX
 10
420.0
 20
297.0
  9
$ORTHOMODE
 70
     0
  9
$REGENMODE
 70
     1
  9
$FILLMODE
 70
     1
  9
$QTEXTMODE
 70
     0
  9
$MIRRTEXT
 70
     1
  9
$DRAGMODE
 70
     2
  9
$LTSCALE
 40
1.0
  9
$OSMODE
 70
    37
  9
$ATTMODE
 70
     1
  9
$TEXTSIZE
 40
73.985717453579113
  9
$TRACEWID
 40
1.0
  9
$TEXTSTYLE
  7
STANDARD
  9
$CLAYER
  8
0
  9
$CELTYPE
  6
BYLAYER
  9
$CECOLOR
 62
   256
  9
$DIMSCALE
 40
1.0
  9
$DIMASZ
 40
0.18
  9
$DIMEXO
 40
0.0625
  9
$DIMDLI
 40
0.38
  9
$DIMRND
 40
0.0
  9
$DIMDLE
 40
0.0
  9
$DIMEXE
 40
0.18
  9
$DIMTP
 40
0.0
  9
$DIMTM
 40
0.0
  9
$DIMTXT
 40
0.18
  9
$DIMCEN
 40
0.09
  9
$DIMTSZ
 40
0.0
  9
$DIMTOL
 70
     0
  9
$DIMLIM
 70
     0
  9
$DIMTIH
 70
     1
  9
$DIMTOH
 70
     1
  9
$DIMSE1
 70
     0
  9
$DIMSE2
 70
     0
  9
$DIMTAD
 70
     0
  9
$DIMZIN
 70
     0
  9
$DIMBLK
  1

  9
$DIMASO
 70
     1
  9
$DIMSHO
 70
     1
  9
$DIMPOST
  1

  9
$DIMAPOST
  1

  9
$DIMALT
 70
     0
  9
$DIMALTD
 70
     2
  9
$DIMALTF
 40
25.399999999999999
  9
$DIMLFAC
 40
1.0
  9
$DIMTOFL
 70
     0
  9
$DIMTVP
 40
0.0
  9
$DIMTIX
 70
     0
  9
$DIMSOXD
 70
     0
  9
$DIMSAH
 70
     0
  9
$DIMBLK1
  1

  9
$DIMBLK2
  1

  9
$DIMSTYLE
  2
STANDARD
  9
$DIMCLRD
 70
     0
  9
$DIMCLRE
 70
     0
  9
$DIMCLRT
 70
     0
  9
$DIMTFAC
 40
1.0
  9
$DIMGAP
 40
0.09
  9
$LUNITS
 70
     2
  9
$LUPREC
 70
     8
  9
$SKETCHINC
 40
1.0
  9
$FILLETRAD
 40
0.0
  9
$AUNITS
 70
     0
  9
$AUPREC
 70
     8
  9
$MENU
  1
.
  9
$ELEVATION
 40
0.0
  9
$PELEVATION
 40
0.0
  9
$THICKNESS
 40
0.0
  9
$LIMCHECK
 70
     0
  9
$BLIPMODE
 70
     0
  9
$CHAMFERA
 40
2.5
  9
$CHAMFERB
 40
2.5
  9
$SKPOLY
 70
     0
  9
$TDCREATE
 40
2454739.7204081588
  9
$TDUPDATE
 40
2454748.5624120482
  9
$TDINDWG
 40
0.2619321644
  9
$TDUSRTIMER
 40
0.2619321644
  9
$USRTIMER
 70
     1
  9
$ANGBASE
 50
0.0
  9
$ANGDIR
 70
     1
  9
$PDMODE
 70
     0
  9
$PDSIZE
 40
0.0
  9
$PLINEWID
 40
0.0
  9
$COORDS
 70
     1
  9
$SPLFRAME
 70
     0
  9
$SPLINETYPE
 70
     6
  9
$SPLINESEGS
 70
     8
  9
$ATTDIA
 70
     0
  9
$ATTREQ
 70
     1
  9
$HANDLING
 70
 22529
  9
$HANDSEED
  5
6704
  9
$SURFTAB1
 70
     6
  9
$SURFTAB2
 70
     6
  9
$SURFTYPE
 70
     6
  9
$SURFU
 70
     6
  9
$SURFV
 70
     6
  9
$UCSNAME
  2

  9
$UCSORG
 10
0.0
 20
0.0
 30
0.0
  9
$UCSXDIR
 10
1.0
 20
0.0
 30
0.0
  9
$UCSYDIR
 10
0.0
 20
1.0
 30
0.0
  9
$PUCSNAME
  2

  9
$PUCSORG
 10
0.0
 20
0.0
 30
0.0
  9
$PUCSXDIR
 10
1.0
 20
0.0
 30
0.0
  9
$PUCSYDIR
 10
0.0
 20
1.0
 30
0.0
  9
$USERI1
 70
     0
  9
$USERI2
 70
     0
  9
$USERI3
 70
     0
  9
$USERI4
 70
     0
  9
$USERI5
 70
     0
  9
$USERR1
 40
0.0
  9
$USERR2
 40
0.0
  9
$USERR3
 40
0.0
  9
$USERR4
 40
0.0
  9
$USERR5
 40
0.0
  9
$WORLDVIEW
 70
     1
  9
$SHADEDGE
 70
     3
  9
$SHADEDIF
 70
    70
  9
$TILEMODE
 70
     1
  9
$MAXACTVP
 70
    48
  9
$PLIMCHECK
 70
     0
  9
$PEXTMIN
 10
1.0000000000000000E+020
 20
1.0000000000000000E+020
 30
1.0000000000000000E+020
  9
$PEXTMAX
 10
-1.0000000000000000E+020
 20
-1.0000000000000000E+020
 30
-1.0000000000000000E+020
  9
$PLIMMIN
 10
0.0
 20
0.0
  9
$PLIMMAX
 10
420.0
 20
297.0
  9
$UNITMODE
 70
     0
  9
$VISRETAIN
 70
     1
  9
$PLINEGEN
 70
     0
  9
$PSLTSCALE
 70
     1
  0
ENDSEC
  0
SECTION
  2
TABLES
  0
TABLE
  2
VPORT
 70
     2
  0
VPORT
  2
*ACTIVE
 70
     0
 10
0.0
 20
0.0
 11
1.0
 21
1.0
 12
1447.1231154380109
 22
241.637489245007
 13
0.0
 23
0.0
 14
2.5
 24
2.5
 15
10.0
 25
10.0
 16
0.0
 26
0.0
 36
1.0
 17
0.0
 27
0.0
 37
0.0
 40
1536.5528036174121
 41
1.9727626459143961
 42
50.0
 43
0.0
 44
0.0
 50
0.0
 51
0.0
 71
     0
 72
   100
 73
     1
 74
     3
 75
     0
 76
     0
 77
     0
 78
     0
  0
ENDTAB
  0
TABLE
  2
LTYPE
 70
     2
  0
LTYPE
  2
CONTINUOUS
 70
     0
  3
Solid line
 72
    65
 73
     0
 40
0.0
  0
LTYPE
  2
CENTER
 70
     0
  3
__ . __
 72
    65
 73
     4
 40
7.0
 49
4.0
 49
-1.0
 49
1.0
 49
-1.0
  0
ENDTAB
  0
TABLE
  2
LAYER
 70
     2
  0
LAYER
  2
0
 70
     0
 62
     7
  6
CONTINUOUS
  0
LAYER
  2
AM_0_T3
 70
     0
 62
     7
  6
CONTINUOUS
  0
ENDTAB
  0
TABLE
  2
STYLE
 70
     2
  0
STYLE
  2
STANDARD
 70
     0
 40
0.0
 41
0.7
 50
0.0
 71
     0
 42
73.985717453579113
  3
romans.shx
  4
bigfont.shx
  0
STYLE
  2
TSKDIM
 70
     0
 40
0.0
 41
0.75
 50
0.0
 71
     0
 42
4.0
  3
romans.shx
  4
EXTFONT.SHX
  0
ENDTAB
  0
TABLE
  2
VIEW
 70
     0
  0
ENDTAB
  0
TABLE
  2
UCS
 70
     0
  0
ENDTAB
  0
TABLE
  2
APPID
 70
    41
  0
APPID
  2
ACAD
 70
     0
  0
APPID
  2
MCAD_NO_VIS
 70
     0
  0
APPID
  2
ACAD_TEMP_GRAPHIC
 70
     0
  0
APPID
  2
ACATTRIBSERVICES
 70
     0
  0
APPID
  2
AD_DRAW
 70
     0
  0
APPID
  2
DESIGNERASSEMBLIES
 70
     0
  0
APPID
  2
ASURF_PCURVE_APPNAME
 70
     0
  0
APPID
  2
ACADM_DIM_EDIT
 70
     0
  0
APPID
  2
GENIUS_GENDIM_13
 70
     0
  0
APPID
  2
GENIUS_GENDTOL_13
 70
     0
  0
APPID
  2
GENIUS_GE3DTOL_13
 70
     0
  0
APPID
  2
AMG_3D2D_5_0
 70
     0
  0
APPID
  2
AMDT_DM_ADJ
 70
     0
  0
APPID
  2
CK_MATE-SERIES
 70
     0
  0
APPID
  2
GEVID1042077799
 70
     0
  0
APPID
  2
GEVMK
 70
     0
  0
APPID
  2
GEVDC
 70
     0
  0
APPID
  2
GENIUS_GENBH_13
 70
     0
  0
APPID
  2
GENIUS_GENOLIS_13
 70
     0
  0
APPID
  2
GENIUS_GENOENT_13
 70
     0
  0
APPID
  2
GENIUS_GENODEF_13
 70
     0
  0
APPID
  2
GENIUS_GENOBJ-NBEHI-BHF_13
 70
     0
  0
APPID
  2
GENIUS_GENOREF_13
 70
     0
  0
APPID
  2
GENIUS_GENOBJ-NBEHI-BHB_13
 70
     0
  0
APPID
  2
GEVID1042183772
 70
     0
  0
APPID
  2
GEVID1042183773
 70
     0
  0
APPID
  2
GEVID1042183774
 70
     0
  0
APPID
  2
DCO15
 70
     0
  0
APPID
  2
ACAD_DSTYLE_DIMARC_LENGTH_
 70
     0
  0
APPID
  2
ACAD_DSTYLE_DIMJOGGED_JOGA
 70
     0
  0
APPID
  2
ACAD_MLEADERVER
 70
     0
  0
APPID
  2
ACAD_DSTYLE_DIMJAG
 70
     0
  0
APPID
  2
ACAD_DSTYLE_DIMTALN
 70
     0
  0
APPID
  2
ACAD_PSEXT
 70
     0
  0
APPID
  2
ACAD_EXEMPT_FROM_CAD_STANDARDS
 70
     0
  0
APPID
  2
ACAD_DSTYLE_DIMINSPECT
 70
     0
  0
APPID
  2
ACAD_DSTYLE_DIMANGULAR_EXT
 70
     0
  0
APPID
  2
GENIUS_GENOBJ-N-FIL_13
 70
     0
  0
APPID
  2
ACAD_DSTYLE_DIM_LINETYPE
 70
     0
  0
APPID
  2
ACAD_DSTYLE_DIM_EXT1_LINETYPE
 70
     0
  0
APPID
  2
ACAD_DSTYLE_DIM_EXT2_LINETYPE
 70
     0
  0
ENDTAB
  0
TABLE
  2
DIMSTYLE
 70
     1
  0
DIMSTYLE
  2
STANDARD
 70
     0
  3

  4

  5

  6

  7

 40
1.0
 41
0.18
 42
0.0625
 43
0.38
 44
0.18
 45
0.0
 46
0.0
 47
0.0
 48
0.0
140
0.18
141
0.09
142
0.0
143
25.399999999999999
144
1.0
145
0.0
146
1.0
147
0.09
 71
     0
 72
     0
 73
     1
 74
     1
 75
     0
 76
     0
 77
     0
 78
     0
170
     0
171
     2
172
     0
173
     0
174
     0
175
     0
176
     0
177
     0
178
     0
  0
ENDTAB
  0
ENDSEC
  0
SECTION
  2
BLOCKS
  0
BLOCK
  8
0
  2
$MODEL_SPACE
 70
     0
 10
0.0
 20
0.0
 30
0.0
  3
$MODEL_SPACE
  1

  0
ENDBLK
  5
21
  8
0
  0
BLOCK
 67
     1
  8
0
  2
$PAPER_SPACE
 70
     0
 10
0.0
 20
0.0
 30
0.0
  3
$PAPER_SPACE
  1

  0
ENDBLK
  5
1D
 67
     1
  8
0
  0
BLOCK
  8
0
  2
_OPEN
 70
     0
 10
0.0
 20
0.0
 30
0.0
  3
_OPEN
  1

  0
LINE
  5
15A
  8
0
  6
BYBLOCK
 62
     0
 10
-1.0
 20
0.1666666666666666
 30
0.0
 11
0.0
 21
0.0
 31
0.0
  0
LINE
  5
15B
  8
0
  6
BYBLOCK
 62
     0
 10
-1.0
 20
-0.1666666666666666
 30
0.0
 11
0.0
 21
0.0
 31
0.0
  0
LINE
  5
15C
  8
0
  6
BYBLOCK
 62
     0
 10
0.0
 20
0.0
 30
0.0
 11
-1.0
 21
0.0
 31
0.0
  0
ENDBLK
  5
15E
  8
0
  0
ENDSEC
  0
SECTION
  2
ENTITIES
  0
LINE
  5
204C
  8
0
 10
261.951249576934
 20
-95.000000000010459
 30
0.0
 11
261.951249576934
 21
-81.000000000010445
 31
0.0
  0
LINE
  5
204D
  8
0
  6
CENTER
 10
279.451249576934
 20
-104.0000000000113
 30
0.0
 11
279.451249576934
 21
-71.000000000011369
 31
0.0
  0
LINE
  5
204E
  8
0
  6
CENTER
 10
369.451249576934
 20
-104.0000000000113
 30
0.0
 11
369.451249576934
 21
-71.000000000011369
 31
0.0
  0
LINE
  5
204F
  8
0
 10
386.951249576934
 20
-81.000000000011354
 30
0.0
 11
386.951249576934
 21
-95.000000000011354
 31
0.0
  0
LINE
  5
2050
  8
0
 10
386.951249576934
 20
-95.000000000011354
 30
0.0
 11
261.951249576934
 21
-95.000000000010459
 31
0.0
  0
LINE
  5
2051
  8
0
 10
261.951249576934
 20
-81.000000000010445
 30
0.0
 11
386.951249576934
 21
-81.000000000011354
 31
0.0
  0
LINE
  5
2097
  8
0
 10
1202.480402222465
 20
-41.500000000003631
 30
0.0
 11
1268.422096931401
 21
-41.500000000003631
 31
0.0
  0
LINE
  5
2098
  8
0
 10
1198.7512495769331
 20
-35.04091814876346
 30
0.0
 11
1202.480402222465
 21
-41.500000000003631
 31
0.0
  0
LINE
  5
2099
  8
0
 10
1272.151249576933
 20
-31.75000000000318
 30
0.0
 11
2228.7012495769341
 21
-31.75000000000318
 31
0.0
  0
LINE
  5
209A
  8
0
 10
1205.4512495769341
 20
41.49999999999681
 30
0.0
 11
1205.4512495769341
 21
-41.500000000003631
 31
0.0
  0
LINE
  5
209B
  8
0
 10
1265.451249576932
 20
41.49999999999681
 30
0.0
 11
1265.451249576932
 21
-41.500000000003631
 31
0.0
  0
LINE
  5
209C
  8
0
 10
1255.7012495769341
 20
-41.500000000003631
 30
0.0
 11
1255.7012495769341
 21
41.499999999996362
 31
0.0
  0
LINE
  5
209D
  8
0
 10
1260.2012495769341
 20
-41.500000000003631
 30
0.0
 11
1260.2012495769341
 21
41.49999999999681
 31
0.0
  0
LINE
  5
209E
  8
0
 10
1246.7012495769341
 20
-41.500000000003631
 30
0.0
 11
1246.7012495769341
 21
41.499999999996362
 31
0.0
  0
LINE
  5
209F
  8
0
 10
1251.2012495769341
 20
-41.500000000003631
 30
0.0
 11
1251.2012495769341
 21
41.49999999999681
 31
0.0
  0
LINE
  5
20A0
  8
0
 10
1219.7012495769341
 20
-41.500000000003631
 30
0.0
 11
1219.7012495769341
 21
41.499999999996362
 31
0.0
  0
LINE
  5
20A1
  8
0
 10
1215.2012495769341
 20
-41.500000000003631
 30
0.0
 11
1215.2012495769341
 21
41.499999999996362
 31
0.0
  0
LINE
  5
20A2
  8
0
 10
1210.7012495769341
 20
-41.500000000003631
 30
0.0
 11
1210.7012495769341
 21
41.499999999996362
 31
0.0
  0
LINE
  5
20A3
  8
0
 10
1224.2012495769341
 20
-41.500000000003631
 30
0.0
 11
1224.2012495769341
 21
41.49999999999681
 31
0.0
  0
LINE
  5
20A4
  8
0
 10
1228.7012495769341
 20
-41.500000000003631
 30
0.0
 11
1228.7012495769341
 21
41.499999999996362
 31
0.0
  0
LINE
  5
20A5
  8
0
 10
1233.2012495769341
 20
-41.500000000003631
 30
0.0
 11
1233.2012495769341
 21
41.49999999999681
 31
0.0
  0
LINE
  5
20A6
  8
0
 10
1237.7012495769341
 20
-41.500000000003631
 30
0.0
 11
1237.7012495769341
 21
41.499999999996362
 31
0.0
  0
LINE
  5
20A7
  8
0
 10
1242.2012495769341
 20
-41.500000000003631
 30
0.0
 11
1242.201249576932
 21
41.49999999999681
 31
0.0
  0
LINE
  5
20A8
  8
0
 10
1198.7512495769331
 20
35.040918148756639
 30
0.0
 11
1202.480402222465
 21
41.49999999999681
 31
0.0
  0
LINE
  5
20A9
  8
0
 10
1198.7512495769331
 20
-35.04091814876346
 30
0.0
 11
1198.7512495769331
 21
35.040918148756639
 31
0.0
  0
LINE
  5
20AA
  8
0
 10
1202.480402222465
 20
41.49999999999681
 30
0.0
 11
1268.422096931401
 21
41.49999999999681
 31
0.0
  0
LINE
  5
20AB
  8
0
 10
1198.7512495769331
 20
-31.75000000000318
 30
0.0
 11
341.451249576934
 21
-31.750000000000451
 31
0.0
  0
LINE
  5
20AC
  8
0
 10
307.451249576934
 20
-31.750000000000451
 30
0.0
 11
242.20124957693221
 21
-31.750000000000451
 31
0.0
  0
LINE
  5
20AD
  8
0
 10
1202.480402222465
 20
-41.500000000002728
 30
0.0
 11
1202.480402222465
 21
41.49999999999681
 31
0.0
  0
LINE
  5
20AE
  8
0
 10
1272.151249576933
 20
-35.04091814876346
 30
0.0
 11
1268.422096931401
 21
-41.500000000003631
 31
0.0
  0
LINE
  5
20AF
  8
0
 10
1272.151249576933
 20
35.040918148756639
 30
0.0
 11
1268.422096931401
 21
41.49999999999681
 31
0.0
  0
LINE
  5
20B0
  8
0
 10
1272.151249576933
 20
-35.04091814876346
 30
0.0
 11
1272.151249576933
 21
35.040918148756639
 31
0.0
  0
LINE
  5
20B1
  8
AM_0_T3
 10
1268.422096931401
 20
41.49999999999681
 30
0.0
 11
1268.422096931401
 21
-41.500000000004547
 31
0.0
  0
LINE
  5
20B2
  8
0
 10
2257.451250576943
 20
-28.000000000004551
 30
0.0
 11
2244.2012495769341
 21
-28.000000000004999
 31
0.0
  0
LINE
  5
20B3
  8
0
 10
2257.451250576943
 20
27.999999999994991
 30
0.0
 11
2244.2012495769341
 21
27.999999999995449
 31
0.0
  0
LINE
  5
20B4
  8
0
 10
2257.451250576943
 20
-28.000000000004551
 30
0.0
 11
2257.451250576943
 21
27.999999999994991
 31
0.0
  0
LINE
  5
20F8
  8
0
 10
2232.69847345377
 20
60.499999999993634
 30
0.0
 11
2240.20402765377
 21
60.499999999993634
 31
0.0
  0
LINE
  5
20F9
  8
0
 10
2240.204025453771
 20
60.500001999993401
 30
0.0
 11
2243.9568025537701
 21
54.000000999993063
 31
0.0
  0
LINE
  5
20FA
  8
0
 10
2243.956804853769
 20
54.000000999993063
 30
0.0
 11
2240.2040277537699
 21
47.500000999993063
 31
0.0
  0
LINE
  5
20FB
  8
0
 10
2240.20402765377
 20
47.499999999993634
 30
0.0
 11
2232.69847345377
 21
47.499999999993634
 31
0.0
  0
LINE
  5
20FC
  8
0
 10
2228.9456952537689
 20
54.000000999993063
 30
0.0
 11
2232.6984723537689
 21
47.500000999993063
 31
0.0
  0
LINE
  5
20FD
  8
0
 10
2232.6984713537709
 20
60.50000299999374
 30
0.0
 11
2228.9456942537699
 21
54.00000299999374
 31
0.0
  0
LINE
  5
20FE
  8
0
 10
2240.2040266537688
 20
-60.500000000006359
 30
0.0
 11
2232.6984724537701
 21
-60.500000000006359
 31
0.0
  0
LINE
  5
20FF
  8
0
 10
2232.698474653771
 20
-60.500002000006589
 30
0.0
 11
2228.9456975537701
 21
-54.000001000006712
 31
0.0
  0
LINE
  5
2100
  8
0
 10
2228.9456952537689
 20
-54.000001000006712
 30
0.0
 11
2232.6984723537689
 21
-47.500001000006698
 31
0.0
  0
LINE
  5
2101
  8
0
 10
2243.956804853769
 20
-54.000001000006712
 30
0.0
 11
2240.2040277537699
 21
-47.500001000006698
 31
0.0
  0
LINE
  5
2102
  8
0
 10
2240.2040287537711
 20
-60.500003000006473
 30
0.0
 11
2243.9568058537689
 21
-54.000003000006473
 31
0.0
  0
LINE
  5
2103
  8
0
 10
2232.6984724537701
 20
-47.500000000006359
 30
0.0
 11
2240.2040266537688
 21
-47.500000000006359
 31
0.0
  0
LINE
  5
2104
  8
0
  6
CENTER
 10
2226.4512500537712
 20
-54.000000000006366
 30
0.0
 11
2246.4512500537712
 21
-54.000000000006366
 31
0.0
  0
LINE
  5
2105
  8
0
  6
CENTER
 10
2236.4512505306079
 20
-64.000000000006366
 30
0.0
 11
2236.4512505306079
 21
-44.000000000006366
 31
0.0
  0
LINE
  5
2106
  8
0
  6
CENTER
 10
2226.45124905377
 20
53.999999999993634
 30
0.0
 11
2246.4512490537709
 21
53.999999999993634
 31
0.0
  0
LINE
  5
2107
  8
0
  6
CENTER
 10
2236.4512495769332
 20
43.999999999993634
 30
0.0
 11
2236.4512495769332
 21
63.999999999993634
 31
0.0
  0
LINE
  5
2108
  8
0
 10
2244.2012495769341
 20
-37.630605894677501
 30
0.0
 11
2244.2012495769341
 21
37.630605894663859
 31
0.0
  0
LINE
  5
2109
  8
0
 10
2228.7012495769341
 20
-37.630605894677501
 30
0.0
 11
2228.7012495769341
 21
37.630605894663859
 31
0.0
  0
LINE
  5
210C
  8
0
 10
2231.6130114510629
 20
-48.941200553756971
 30
0.0
 11
2231.6130114510629
 21
48.941200553744238
 31
0.0
  0
ARC
  5
210D
  8
0
 10
2236.4512495769332
 20
53.999999999993634
 30
0.0
 40
7.0
 50
313.72333522200631
 51
351.78676740868173
  0
ARC
  5
210E
  8
0
 10
2236.4512495769332
 20
53.999999999993634
 30
0.0
 40
7.0
 50
8.2132124140915685
 51
51.786784583412171
  0
ARC
  5
210F
  8
0
 10
2236.4512495769332
 20
53.999999999993634
 30
0.0
 40
7.0
 50
68.213210701756054
 51
111.7867892982439
  0
ARC
  5
2110
  8
0
 10
2236.4512495769332
 20
53.999999999993634
 30
0.0
 40
7.0
 50
128.21327295116919
 51
171.78672241756109
  0
ARC
  5
2111
  8
0
 10
2236.4512495769332
 20
53.999999999993634
 30
0.0
 40
7.0
 50
188.21321437744899
 51
226.2766589223601
  0
LINE
  5
2112
  8
0
 10
2241.2894974274732
 20
-48.941209854453518
 30
0.0
 11
2241.289487185793
 21
48.941200059275609
 31
0.0
  0
LINE
  5
2113
  8
0
 10
2231.6130114510629
 20
43.22108860266507
 30
0.0
 11
2241.2894877843019
 21
43.22108860266507
 31
0.0
  0
LINE
  5
2114
  8
0
 10
2228.7012495769341
 20
37.630605894663859
 30
0.0
 11
2231.6130114510629
 21
45.651533380592809
 31
0.0
  0
LINE
  5
2115
  8
0
 10
2244.2012495769341
 20
37.630605894663859
 30
0.0
 11
2241.2894877028029
 21
45.651533380592809
 31
0.0
  0
ARC
  5
2116
  8
0
 10
2236.4512495769332
 20
-54.000000000006366
 30
0.0
 40
7.0
 50
133.7233410776397
 51
171.78678562255089
  0
ARC
  5
2117
  8
0
 10
2236.4512495769332
 20
-54.000000000006366
 30
0.0
 40
7.0
 50
188.2131942002481
 51
231.78680279724071
  0
ARC
  5
2118
  8
0
 10
2236.4512495769332
 20
-54.000000000006366
 30
0.0
 40
7.0
 50
248.213210701756
 51
291.78678929824389
  0
ARC
  5
2119
  8
0
 10
2236.4512495769332
 20
-54.000000000006366
 30
0.0
 40
7.0
 50
308.21329116507093
 51
351.78670420363278
  0
ARC
  5
211A
  8
0
 10
2236.4512495769332
 20
-54.000000000006366
 30
0.0
 40
7.0
 50
8.2132325913182846
 51
46.276548781003392
  0
LINE
  5
211B
  8
0
 10
2231.6130114510629
 20
-43.221088602678719
 30
0.0
 11
2241.2894877843019
 21
-43.221088602678719
 31
0.0
  0
LINE
  5
211C
  8
0
 10
2228.7012495769341
 20
-37.630605894677501
 30
0.0
 11
2231.6130114510629
 21
-45.651533380606452
 31
0.0
  0
LINE
  5
211D
  8
0
 10
2244.2012495769341
 20
-37.630605894677501
 30
0.0
 11
2241.2894877028029
 21
-45.651533380606452
 31
0.0
  0
LINE
  5
211E
  8
0
 10
1198.7512495769331
 20
31.749999999996358
 30
0.0
 11
242.20124957693221
 21
31.74999999999363
 31
0.0
  0
LINE
  5
211F
  8
0
  6
CENTER
 10
2277.8385539091478
 20
0.0
 30
0.0
 11
193.06394524471571
 21
-0.0000000000068212
 31
0.0
  0
LINE
  5
2120
  8
0
 10
213.45124857692269
 20
-28.000000000004551
 30
0.0
 11
226.70124957693221
 21
-28.000000000004999
 31
0.0
  0
LINE
  5
2121
  8
0
 10
213.45124857692269
 20
27.999999999994991
 30
0.0
 11
226.70124957693221
 21
27.999999999995449
 31
0.0
  0
LINE
  5
2122
  8
0
 10
213.45124857692269
 20
-28.000000000004551
 30
0.0
 11
213.45124857692269
 21
27.999999999994991
 31
0.0
  0
LINE
  5
2123
  8
0
 10
238.20402570009529
 20
60.499999999993634
 30
0.0
 11
230.6984715000944
 21
60.499999999993634
 31
0.0
  0
LINE
  5
2124
  8
0
 10
230.69847370009481
 20
60.500001999993401
 30
0.0
 11
226.94569660009441
 21
54.000000999993063
 31
0.0
  0
LINE
  5
2125
  8
0
 10
226.945694300095
 20
54.000000999993063
 30
0.0
 11
230.69847140009551
 21
47.500000999993063
 31
0.0
  0
LINE
  5
2126
  8
0
 10
230.6984715000944
 20
47.499999999993634
 30
0.0
 11
238.20402570009529
 21
47.499999999993634
 31
0.0
  0
LINE
  5
2127
  8
0
 10
241.95680390009511
 20
54.000000999993063
 30
0.0
 11
238.2040268000946
 21
47.500000999993063
 31
0.0
  0
LINE
  5
2128
  8
0
 10
238.20402780009491
 20
60.50000299999374
 30
0.0
 11
241.95680490009539
 21
54.00000299999374
 31
0.0
  0
LINE
  5
2129
  8
0
 10
230.69847250009479
 20
-60.500000000006359
 30
0.0
 11
238.20402670009571
 21
-60.500000000006359
 31
0.0
  0
LINE
  5
212A
  8
0
 10
238.2040245000953
 20
-60.500002000006589
 30
0.0
 11
241.9568016000957
 21
-54.000001000006712
 31
0.0
  0
LINE
  5
212B
  8
0
 10
241.95680390009511
 20
-54.000001000006712
 30
0.0
 11
238.2040268000946
 21
-47.500001000006698
 31
0.0
  0
LINE
  5
212C
  8
0
 10
226.945694300095
 20
-54.000001000006712
 30
0.0
 11
230.69847140009551
 21
-47.500001000006698
 31
0.0
  0
LINE
  5
212D
  8
0
 10
230.69847040009509
 20
-60.500003000006473
 30
0.0
 11
226.94569330009469
 21
-54.000003000006473
 31
0.0
  0
LINE
  5
212E
  8
0
 10
238.20402670009571
 20
-47.500000000006359
 30
0.0
 11
230.69847250009479
 21
-47.500000000006359
 31
0.0
  0
LINE
  5
212F
  8
0
  6
CENTER
 10
244.45124910009511
 20
-54.000000000006366
 30
0.0
 11
224.451249100095
 21
-54.000000000006366
 31
0.0
  0
LINE
  5
2130
  8
0
  6
CENTER
 10
234.4512486232579
 20
-64.000000000006366
 30
0.0
 11
234.4512486232579
 21
-44.000000000006366
 31
0.0
  0
LINE
  5
2131
  8
0
  6
CENTER
 10
244.45125010009539
 20
53.999999999993634
 30
0.0
 11
224.45125010009539
 21
53.999999999993634
 31
0.0
  0
LINE
  5
2132
  8
0
  6
CENTER
 10
234.45124957693221
 20
43.999999999993634
 30
0.0
 11
234.45124957693221
 21
63.999999999993634
 31
0.0
  0
LINE
  5
2133
  8
0
 10
226.70124957693221
 20
-37.630605894677501
 30
0.0
 11
226.70124957693221
 21
37.630605894663859
 31
0.0
  0
LINE
  5
2134
  8
0
 10
242.20124957693221
 20
-37.630605894677501
 30
0.0
 11
242.20124957693221
 21
37.630605894663859
 31
0.0
  0
LINE
  5
2135
  8
0
 10
239.28948770280289
 20
-48.941200553756971
 30
0.0
 11
239.28948770280289
 21
48.941200553744238
 31
0.0
  0
ARC
  5
2136
  8
0
 10
234.45124957693221
 20
53.999999999993634
 30
0.0
 40
7.0
 50
188.21323259131819
 51
226.27666477797561
  0
ARC
  5
2137
  8
0
 10
234.45124957693221
 20
53.999999999993634
 30
0.0
 40
7.0
 50
128.21321541658779
 51
171.7867875859084
  0
ARC
  5
2138
  8
0
 10
234.45124957693221
 20
53.999999999993634
 30
0.0
 40
7.0
 50
68.213210701756054
 51
111.7867892982439
  0
ARC
  5
2139
  8
0
 10
234.45124957693221
 20
53.999999999993634
 30
0.0
 40
7.0
 50
8.2132775824388702
 51
51.786727048846899
  0
ARC
  5
213A
  8
0
 10
234.45124957693221
 20
53.999999999993634
 30
0.0
 40
7.0
 50
313.7233410776397
 51
351.78678562255089
  0
LINE
  5
213B
  8
0
 10
229.61300172639309
 20
-48.941209854453518
 30
0.0
 11
229.61301196807099
 21
48.941200059275609
 31
0.0
  0
LINE
  5
213C
  8
0
 10
239.28948770280289
 20
43.22108860266507
 30
0.0
 11
229.61301136956169
 21
43.22108860266507
 31
0.0
  0
LINE
  5
213D
  8
0
 10
242.20124957693221
 20
37.630605894663859
 30
0.0
 11
239.28948770280289
 21
45.651533380592809
 31
0.0
  0
LINE
  5
213E
  8
0
 10
226.70124957693221
 20
37.630605894663859
 30
0.0
 11
229.61301145106151
 21
45.651533380592809
 31
0.0
  0
ARC
  5
213F
  8
0
 10
234.45124957693221
 20
-54.000000000006366
 30
0.0
 40
7.0
 50
8.2132143774490807
 51
46.27665892236022
  0
ARC
  5
2140
  8
0
 10
234.45124957693221
 20
-54.000000000006366
 30
0.0
 40
7.0
 50
308.21319720275932
 51
351.78680579975179
  0
ARC
  5
2141
  8
0
 10
234.45124957693221
 20
-54.000000000006366
 30
0.0
 40
7.0
 50
248.213210701756
 51
291.78678929824389
  0
ARC
  5
2142
  8
0
 10
234.45124957693221
 20
-54.000000000006366
 30
0.0
 40
7.0
 50
188.21329579636711
 51
231.78670883492899
  0
ARC
  5
2143
  8
0
 10
234.45124957693221
 20
-54.000000000006366
 30
0.0
 40
7.0
 50
133.72345121899659
 51
171.7867674086817
  0
LINE
  5
2144
  8
0
 10
239.28948770280289
 20
-43.221088602678719
 30
0.0
 11
229.61301136956169
 21
-43.221088602678719
 31
0.0
  0
LINE
  5
2145
  8
0
 10
242.20124957693221
 20
-37.630605894677501
 30
0.0
 11
239.28948770280289
 21
-45.651533380606452
 31
0.0
  0
LINE
  5
2146
  8
0
 10
226.70124957693221
 20
-37.630605894677501
 30
0.0
 11
229.61301145106151
 21
-45.651533380606452
 31
0.0
  0
LINE
  5
2147
  8
0
 10
1202.480402222465
 20
370.17147954931443
 30
0.0
 11
1268.422096931401
 21
370.17147954931443
 31
0.0
  0
LINE
  5
2148
  8
0
 10
1198.7512495769331
 20
376.63056140055448
 30
0.0
 11
1202.480402222465
 21
370.17147954931443
 31
0.0
  0
LINE
  5
2149
  8
0
 10
1272.151249576933
 20
379.92147954931482
 30
0.0
 11
2092.6164327759079
 21
379.92147954931482
 31
0.0
  0
LINE
  5
214A
  8
0
 10
2200.286066377957
 20
379.92147954931528
 30
0.0
 11
2228.7012495769341
 21
379.92147954931482
 31
0.0
  0
LINE
  5
214B
  8
0
 10
1205.4512495769341
 20
453.17147954931482
 30
0.0
 11
1205.4512495769341
 21
370.17147954931443
 31
0.0
  0
LINE
  5
214C
  8
0
 10
1265.451249576932
 20
453.17147954931482
 30
0.0
 11
1265.451249576932
 21
370.17147954931443
 31
0.0
  0
LINE
  5
214D
  8
0
 10
1255.7012495769341
 20
370.17147954931443
 30
0.0
 11
1255.7012495769341
 21
453.17147954931443
 31
0.0
  0
LINE
  5
214E
  8
0
 10
1260.2012495769341
 20
370.17147954931443
 30
0.0
 11
1260.2012495769341
 21
453.17147954931482
 31
0.0
  0
LINE
  5
214F
  8
0
 10
1246.7012495769341
 20
370.17147954931443
 30
0.0
 11
1246.7012495769341
 21
453.17147954931443
 31
0.0
  0
LINE
  5
2150
  8
0
 10
1251.2012495769341
 20
370.17147954931443
 30
0.0
 11
1251.2012495769341
 21
453.17147954931482
 31
0.0
  0
LINE
  5
2151
  8
0
 10
1219.7012495769341
 20
370.17147954931443
 30
0.0
 11
1219.7012495769341
 21
453.17147954931443
 31
0.0
  0
LINE
  5
2152
  8
0
 10
1215.2012495769341
 20
370.17147954931443
 30
0.0
 11
1215.2012495769341
 21
453.17147954931443
 31
0.0
  0
LINE
  5
2153
  8
0
 10
1210.7012495769341
 20
370.17147954931443
 30
0.0
 11
1210.7012495769341
 21
453.17147954931443
 31
0.0
  0
LINE
  5
2154
  8
0
 10
1224.2012495769341
 20
370.17147954931443
 30
0.0
 11
1224.2012495769341
 21
453.17147954931482
 31
0.0
  0
LINE
  5
2155
  8
0
 10
1228.7012495769341
 20
370.17147954931443
 30
0.0
 11
1228.7012495769341
 21
453.17147954931443
 31
0.0
  0
LINE
  5
2156
  8
0
 10
1233.2012495769341
 20
370.17147954931443
 30
0.0
 11
1233.2012495769341
 21
453.17147954931482
 31
0.0
  0
LINE
  5
2157
  8
0
 10
1237.7012495769341
 20
370.17147954931443
 30
0.0
 11
1237.7012495769341
 21
453.17147954931443
 31
0.0
  0
LINE
  5
2158
  8
0
 10
1242.2012495769341
 20
370.17147954931443
 30
0.0
 11
1242.201249576932
 21
453.17147954931482
 31
0.0
  0
LINE
  5
2159
  8
0
 10
1198.7512495769331
 20
446.7123976980746
 30
0.0
 11
1202.480402222465
 21
453.17147954931482
 31
0.0
  0
LINE
  5
215A
  8
0
 10
1198.7512495769331
 20
376.63056140055448
 30
0.0
 11
1198.7512495769331
 21
446.7123976980746
 31
0.0
  0
LINE
  5
215B
  8
0
 10
1202.480402222465
 20
453.17147954931482
 30
0.0
 11
1268.422096931401
 21
453.17147954931482
 31
0.0
  0
LINE
  5
215C
  8
0
 10
1272.151249576933
 20
443.42147954931443
 30
0.0
 11
2092.6164327759029
 21
443.4214795493121
 31
0.0
  0
LINE
  5
215D
  8
0
 10
2200.2860663779611
 20
443.4214795493121
 30
0.0
 11
2228.7012495769341
 21
443.4214795493117
 31
0.0
  0
LINE
  5
215E
  8
0
 10
1202.480402222465
 20
370.17147954931528
 30
0.0
 11
1202.480402222465
 21
453.17147954931482
 31
0.0
  0
LINE
  5
215F
  8
0
 10
1272.151249576933
 20
376.63056140055448
 30
0.0
 11
1268.422096931401
 21
370.17147954931443
 31
0.0
  0
LINE
  5
2160
  8
0
 10
1272.151249576933
 20
446.7123976980746
 30
0.0
 11
1268.422096931401
 21
453.17147954931482
 31
0.0
  0
LINE
  5
2161
  8
0
 10
1272.151249576933
 20
376.63056140055448
 30
0.0
 11
1272.151249576933
 21
446.7123976980746
 31
0.0
  0
LINE
  5
2162
  8
AM_0_T3
 10
1268.422096931401
 20
453.17147954931482
 30
0.0
 11
1268.422096931401
 21
370.17147954931352
 31
0.0
  0
LINE
  5
2163
  8
0
 10
2257.451250576943
 20
383.67147954931352
 30
0.0
 11
2244.2012495769341
 21
383.67147954931301
 31
0.0
  0
LINE
  5
2164
  8
0
 10
2257.451250576943
 20
439.67147954931312
 30
0.0
 11
2244.2012495769341
 21
439.67147954931352
 31
0.0
  0
LINE
  5
2165
  8
0
 10
2257.451250576943
 20
383.67147954931352
 30
0.0
 11
2257.451250576943
 21
439.67147954931312
 31
0.0
  0
LINE
  5
2166
  8
0
 10
2244.2012495769341
 20
373.92147954930442
 30
0.0
 11
2244.2012495769341
 21
449.42147954931852
 31
0.0
  0
LINE
  5
2167
  8
0
 10
2228.7012495769341
 20
373.92147954930391
 30
0.0
 11
2228.7012495769341
 21
449.42147954931852
 31
0.0
  0
LINE
  5
2168
  8
0
 10
2231.6130114510629
 20
365.92147954930482
 30
0.0
 11
2231.6130114510629
 21
391.33820987084482
 31
0.0
  0
LINE
  5
2169
  8
0
 10
2231.6130114510629
 20
435.17147954931761
 30
0.0
 11
2231.6130114510629
 21
457.42147954931852
 31
0.0
  0
LINE
  5
216A
  8
0
 10
2241.2894970935681
 20
365.92147954930482
 30
0.0
 11
2241.2894944341529
 21
391.3382115220133
 31
0.0
  0
LINE
  5
216B
  8
0
 10
2241.2894898477689
 20
435.17147954931761
 30
0.0
 11
2241.2894875196962
 21
457.42147954931852
 31
0.0
  0
LINE
  5
216C
  8
0
 10
1198.7512495769331
 20
379.92147954931482
 30
0.0
 11
242.20124957693221
 21
379.92147954931482
 31
0.0
  0
LINE
  5
216D
  8
0
 10
1198.7512495769331
 20
443.42147954931443
 30
0.0
 11
242.20124957693221
 21
443.4214795493117
 31
0.0
  0
LINE
  5
216E
  8
0
  6
CENTER
 10
2277.8385539091478
 20
411.67147954931801
 30
0.0
 11
193.06394524471571
 21
411.67147954931119
 31
0.0
  0
LINE
  5
216F
  8
0
 10
213.45124857692269
 20
383.67147954931352
 30
0.0
 11
226.70124957693221
 21
383.67147954931301
 31
0.0
  0
LINE
  5
2170
  8
0
 10
213.45124857692269
 20
439.67147954931312
 30
0.0
 11
226.70124957693221
 21
439.67147954931352
 31
0.0
  0
LINE
  5
2171
  8
0
 10
213.45124857692269
 20
383.67147954931352
 30
0.0
 11
213.45124857692269
 21
439.67147954931312
 31
0.0
  0
LINE
  5
2172
  8
AM_0_T3
 10
2228.7012495769341
 20
449.42147954931852
 30
0.0
 11
2231.6130114510629
 21
457.42147954931852
 31
0.0
  0
LINE
  5
2173
  8
AM_0_T3
 10
2244.2012495769341
 20
449.42147954931852
 30
0.0
 11
2241.2894875196962
 21
457.42147954931852
 31
0.0
  0
LINE
  5
2174
  8
AM_0_T3
 10
2231.6130114510629
 20
457.42147954931852
 30
0.0
 11
2241.2894875196962
 21
457.42147954931852
 31
0.0
  0
LINE
  5
2175
  8
AM_0_T3
 10
2228.7012495769341
 20
373.92147954930391
 30
0.0
 11
2231.6130114510629
 21
365.92147954930482
 31
0.0
  0
LINE
  5
2176
  8
AM_0_T3
 10
2244.2012495769341
 20
373.92147954930442
 30
0.0
 11
2241.2894875196962
 21
365.92147954930482
 31
0.0
  0
LINE
  5
2177
  8
AM_0_T3
 10
2231.6130114510629
 20
365.92147954930482
 30
0.0
 11
2241.2894970935681
 21
365.92147954930482
 31
0.0
  0
LINE
  5
2178
  8
0
 10
2243.4512490537709
 20
396.67147954931801
 30
0.0
 11
2243.4512490537709
 21
408.67147954931801
 31
0.0
  0
LINE
  5
2179
  8
0
 10
2243.4512490537709
 20
408.67147954931801
 30
0.0
 11
2229.4512490537709
 21
408.67147954931801
 31
0.0
  0
LINE
  5
217A
  8
0
 10
2243.4512490537709
 20
426.67147954931812
 30
0.0
 11
2243.4512490537709
 21
414.67147954931801
 31
0.0
  0
LINE
  5
217B
  8
0
 10
2243.4512490537709
 20
414.67147954931801
 30
0.0
 11
2229.4512490537709
 21
414.67147954931801
 31
0.0
  0
LINE
  5
217C
  8
0
 10
2240.4512490537709
 20
414.67147954931801
 30
0.0
 11
2240.4512490537709
 21
408.67147954931801
 31
0.0
  0
LINE
  5
217D
  8
0
 10
2232.4512490537709
 20
414.67147954931801
 30
0.0
 11
2232.4512490537709
 21
408.67147954931801
 31
0.0
  0
LINE
  5
217E
  8
0
 10
2243.4512490537709
 20
426.67147954931812
 30
0.0
 11
2229.4512490537709
 21
426.67147954931852
 31
0.0
  0
LINE
  5
217F
  8
0
 10
2232.4512490537709
 20
440.67147954931801
 30
0.0
 11
2232.4512490537709
 21
435.17147954931801
 31
0.0
  0
LINE
  5
2180
  8
0
 10
2231.45124905377
 20
435.17147954931801
 30
0.0
 11
2241.4512490537709
 21
435.17147954931801
 31
0.0
  0
LINE
  5
2181
  8
0
 10
2232.4512490537709
 20
440.67147954931801
 30
0.0
 11
2240.4512490537709
 21
440.67147954931801
 31
0.0
  0
LINE
  5
2182
  8
0
 10
2230.4512490537709
 20
434.17147954931812
 30
0.0
 11
2230.4512490537709
 21
433.17147954931801
 31
0.0
  0
LINE
  5
2183
  8
0
 10
2242.45124905377
 20
434.17147954931812
 30
0.0
 11
2242.45124905377
 21
433.17147954931801
 31
0.0
  0
LINE
  5
2184
  8
0
 10
2242.9512490537709
 20
433.17147954931801
 30
0.0
 11
2229.95124905377
 21
433.17147954931801
 31
0.0
  0
LINE
  5
2185
  8
0
 10
2242.9512490537709
 20
433.17147954931801
 30
0.0
 11
2242.9512490537709
 21
426.67147954931812
 31
0.0
  0
LINE
  5
2186
  8
0
 10
2229.95124905377
 20
433.17147954931801
 30
0.0
 11
2229.95124905377
 21
426.67147954931812
 31
0.0
  0
LINE
  5
2187
  8
0
 10
2240.4512490537709
 20
440.67147954931801
 30
0.0
 11
2240.4512490537709
 21
435.17147954931801
 31
0.0
  0
LINE
  5
2188
  8
0
  6
CENTER
 10
2236.4512490537709
 20
442.32281454931803
 30
0.0
 11
2236.4512490537709
 21
385.28296454931842
 31
0.0
  0
LINE
  5
2189
  8
0
 10
2233.2012490537709
 20
391.17147954931801
 30
0.0
 11
2239.7012490537709
 21
391.17147954931801
 31
0.0
  0
LINE
  5
218A
  8
0
 10
2229.95124905377
 20
391.89637354931801
 30
0.0
 11
2229.95124905377
 21
396.67147954931801
 31
0.0
  0
LINE
  5
218B
  8
0
 10
2242.9512490537709
 20
391.89637354931801
 30
0.0
 11
2242.9512490537709
 21
396.67147954931801
 31
0.0
  0
LINE
  5
218C
  8
0
 10
2229.4512490537709
 20
396.67147954931801
 30
0.0
 11
2243.4512490537709
 21
396.67147954931801
 31
0.0
  0
ARC
  5
218D
  8
0
 10
2231.45124905377
 20
434.17147954931812
 30
0.0
 40
1.0
 50
89.999989999998988
 51
179.99999599996829
  0
ARC
  5
218E
  8
0
 10
2241.4512490537709
 20
434.17147954931812
 30
0.0
 40
1.0
 50
0.0
 51
90.000005008937407
  0
ARC
  5
218F
  8
0
 10
2239.7012490537709
 20
425.5234845493182
 30
0.0
 40
7.647994999999999
 50
64.852630000036257
 51
115.1473750000074
  0
ARC
  5
2190
  8
0
 10
2233.2012490537709
 20
425.5234845493182
 30
0.0
 40
7.647994999999999
 50
64.852630000036257
 51
115.1473679999861
  0
ARC
  5
2191
  8
0
 10
2239.7012490537709
 20
434.31947454931827
 30
0.0
 40
7.647994999999999
 50
244.85263000003621
 51
295.1473699999637
  0
ARC
  5
2192
  8
0
 10
2233.2012490537709
 20
434.31947454931827
 30
0.0
 40
7.647994999999999
 50
244.85263000003621
 51
295.1473699999637
  0
ARC
  5
2193
  8
0
 10
2233.2012490537709
 20
398.81947454931827
 30
0.0
 40
7.6479945000000011
 50
244.85263000003621
 51
295.1473699999637
  0
ARC
  5
2194
  8
0
 10
2239.7012490537709
 20
398.81947454931827
 30
0.0
 40
7.6479945000000011
 50
244.85263000003621
 51
295.1473699999637
  0
LINE
  5
2195
  8
0
 10
2229.4512490537709
 20
396.67147954931801
 30
0.0
 11
2229.4512490537709
 21
408.67147954931801
 31
0.0
  0
LINE
  5
2196
  8
0
 10
2229.4512490537709
 20
426.67147954931852
 30
0.0
 11
2229.4512490537709
 21
414.67147954931801
 31
0.0
  0
LINE
  5
2197
  8
0
  6
CENTER
 10
2146.4512495769318
 20
313.67147954931761
 30
0.0
 11
2146.4512495769341
 21
509.67147954931761
 31
0.0
  0
LINE
  5
2199
  8
0
  6
CENTER
 10
324.451249576934
 20
-105.0000000000109
 30
0.0
 11
324.451249576934
 21
-0.0000000000059117
 31
0.0
  0
LINE
  5
219A
  8
0
 10
341.451249576934
 20
-81.000000000010445
 30
0.0
 11
341.451249576934
 21
-31.750000000000451
 31
0.0
  0
LINE
  5
219B
  8
0
 10
307.451249576934
 20
-81.000000000010445
 30
0.0
 11
307.451249576934
 21
-31.750000000000451
 31
0.0
  0
LINE
  5
219C
  8
0
  6
CENTER
 10
324.45124957693218
 20
313.67147954931761
 30
0.0
 11
324.45124957693218
 21
509.67147954931761
 31
0.0
  0
TEXT
  5
219D
  8
0
 10
817.59410671978935
 20
538.28139750375328
 30
0.0
 40
50.0
  1
2.5SX2000L-25AX15A
 72
     4
 11
1235.451249576932
 21
563.28139750375328
 31
0.0
  0
LINE
  5
22A7
  8
0
  6
CENTER
 10
2128.4200266566759
 20
429.70270246957438
 30
0.0
 11
2100.8428621904018
 21
457.27986693584978
 31
0.0
  0
LINE
  5
22A9
  8
0
  6
CENTER
 10
2128.4200266566759
 20
393.64025662906079
 30
0.0
 11
2100.8428621904018
 21
366.06309216278532
 31
0.0
  0
LINE
  5
22AA
  8
0
  6
CENTER
 10
2164.4824724971909
 20
429.70270246957438
 30
0.0
 11
2192.059636963465
 21
457.27986693584978
 31
0.0
  0
LINE
  5
22AD
  8
0
  6
CENTER
 10
2164.4824724971909
 20
393.64025662906079
 30
0.0
 11
2192.059636963465
 21
366.06309216278532
 31
0.0
  0
ARC
  5
22AF
  8
AM_0_T3
 10
324.451249576934
 20
-58.565340758596449
 30
0.0
 40
31.749999999994252
 50
57.62671402087048
 51
122.37328597912951
  0
LINE
  5
22B0
  8
0
 10
2208.9512495769318
 20
95.000000000003638
 30
0.0
 11
2208.9512495769318
 21
81.000000000003624
 31
0.0
  0
LINE
  5
22B1
  8
0
  6
CENTER
 10
2191.4512495769318
 20
104.0000000000045
 30
0.0
 11
2191.4512495769318
 21
71.000000000004547
 31
0.0
  0
LINE
  5
22B2
  8
0
  6
CENTER
 10
2101.4512495769318
 20
104.0000000000045
 30
0.0
 11
2101.4512495769318
 21
71.000000000004547
 31
0.0
  0
LINE
  5
22B3
  8
0
 10
2083.9512495769318
 20
81.000000000004533
 30
0.0
 11
2083.9512495769318
 21
95.000000000004533
 31
0.0
  0
LINE
  5
22B4
  8
0
 10
2083.9512495769318
 20
95.000000000004533
 30
0.0
 11
2208.9512495769318
 21
95.000000000003638
 31
0.0
  0
LINE
  5
22B5
  8
0
 10
2208.9512495769318
 20
81.000000000003624
 30
0.0
 11
2083.9512495769318
 21
81.000000000004533
 31
0.0
  0
LINE
  5
22BA
  8
0
  6
CENTER
 10
2146.4512495769318
 20
105.00000000000399
 30
0.0
 11
2146.4512495769318
 21
-0.0000000000009095
 31
0.0
  0
LINE
  5
22BB
  8
0
 10
2129.4512495769318
 20
81.000000000003624
 30
0.0
 11
2129.4512495769318
 21
31.74999999999363
 31
0.0
  0
LINE
  5
22BC
  8
0
 10
2163.4512495769318
 20
81.000000000003624
 30
0.0
 11
2163.4512495769318
 21
31.74999999999363
 31
0.0
  0
LINE
  5
22BD
  8
0
 10
1272.151249576933
 20
31.749999999996358
 30
0.0
 11
2129.4512495769318
 21
31.74999999999363
 31
0.0
  0
LINE
  5
22BE
  8
0
 10
2163.4512495769318
 20
31.74999999999363
 30
0.0
 11
2228.7012495769341
 21
31.74999999999363
 31
0.0
  0
ARC
  5
22BF
  8
0
 10
324.45124957693218
 20
411.67147954931761
 30
0.0
 40
62.5
 50
30.53070233867404
 51
149.4692976613259
  0
ARC
  5
22C0
  8
0
 10
324.45124957693218
 20
411.67147954931761
 30
0.0
 40
62.5
 50
210.5307023386965
 51
329.46929766130347
  0
ARC
  5
22C1
  8
0
  6
CENTER
 10
324.45124957693218
 20
411.67147954931761
 30
0.0
 40
45.0
 50
44.874444031838401
 51
135.12555596816159
  0
ARC
  5
22C2
  8
0
  6
CENTER
 10
324.45124957693218
 20
411.67147954931761
 30
0.0
 40
45.0
 50
224.87444403183829
 51
315.12555596816162
  0
ARC
  5
22C3
  8
0
 10
356.2710547303268
 20
443.49128470271211
 30
0.0
 40
9.5
 50
359.57899192954409
 51
180.4210080704558
  0
LINE
  5
22C4
  8
0
  6
CENTER
 10
342.4824724971877
 20
429.70270246957438
 30
0.0
 11
370.05963696346402
 21
457.27986693584978
 31
0.0
  0
ARC
  5
22C5
  8
0
 10
356.2710547303268
 20
379.851674395923
 30
0.0
 40
9.5
 50
179.57899192959621
 51
0.4210080704037258
  0
LINE
  5
22C6
  8
0
  6
CENTER
 10
342.4824724971877
 20
393.64025662906079
 30
0.0
 11
370.05963696346402
 21
366.06309216278532
 31
0.0
  0
LINE
  5
22C7
  8
0
  6
CENTER
 10
306.42002665667491
 20
429.70270246957438
 30
0.0
 11
278.84286219039848
 21
457.27986693584978
 31
0.0
  0
ARC
  5
22C8
  8
0
 10
292.63144442353769
 20
443.49128470271211
 30
0.0
 40
9.5
 50
359.57899192954409
 51
180.4210080704558
  0
ARC
  5
22C9
  8
0
 10
292.63144442353769
 20
379.851674395923
 30
0.0
 40
9.5
 50
179.57899192959621
 51
0.4210080704037258
  0
LINE
  5
22CA
  8
0
  6
CENTER
 10
306.42002665667491
 20
393.64025662906079
 30
0.0
 11
278.84286219039848
 21
366.06309216278532
 31
0.0
  0
LINE
  5
22F6
  8
0
 10
226.70124957693221
 20
373.92147954930442
 30
0.0
 11
226.70124957693221
 21
449.42147954931852
 31
0.0
  0
LINE
  5
22F7
  8
0
 10
242.20124957693221
 20
373.92147954930391
 30
0.0
 11
242.20124957693221
 21
449.42147954931852
 31
0.0
  0
LINE
  5
22F8
  8
0
 10
239.28948770280289
 20
365.92147954930482
 30
0.0
 11
239.28948770280289
 21
391.33820987084482
 31
0.0
  0
LINE
  5
22F9
  8
0
 10
239.28948770280289
 20
435.17147954931761
 30
0.0
 11
239.28948770280289
 21
457.42147954931852
 31
0.0
  0
LINE
  5
22FA
  8
0
 10
229.6130020602977
 20
365.92147954930482
 30
0.0
 11
229.61300471971111
 21
391.3382115220133
 31
0.0
  0
LINE
  5
22FB
  8
0
 10
229.61300930609639
 20
435.17147954931761
 30
0.0
 11
229.6130116341682
 21
457.42147954931852
 31
0.0
  0
LINE
  5
22FC
  8
AM_0_T3
 10
242.20124957693221
 20
449.42147954931852
 30
0.0
 11
239.28948770280289
 21
457.42147954931852
 31
0.0
  0
LINE
  5
22FD
  8
AM_0_T3
 10
226.70124957693221
 20
449.42147954931852
 30
0.0
 11
229.6130116341682
 21
457.42147954931852
 31
0.0
  0
LINE
  5
22FE
  8
AM_0_T3
 10
239.28948770280289
 20
457.42147954931852
 30
0.0
 11
229.6130116341682
 21
457.42147954931852
 31
0.0
  0
LINE
  5
22FF
  8
AM_0_T3
 10
242.20124957693221
 20
373.92147954930391
 30
0.0
 11
239.28948770280289
 21
365.92147954930482
 31
0.0
  0
LINE
  5
2300
  8
AM_0_T3
 10
226.70124957693221
 20
373.92147954930442
 30
0.0
 11
229.6130116341682
 21
365.92147954930482
 31
0.0
  0
LINE
  5
2301
  8
AM_0_T3
 10
239.28948770280289
 20
365.92147954930482
 30
0.0
 11
229.6130020602977
 21
365.92147954930482
 31
0.0
  0
LINE
  5
2302
  8
0
 10
227.45125010009539
 20
396.67147954931801
 30
0.0
 11
227.45125010009539
 21
408.67147954931801
 31
0.0
  0
LINE
  5
2303
  8
0
 10
227.45125010009539
 20
408.67147954931801
 30
0.0
 11
241.45125010009539
 21
408.67147954931801
 31
0.0
  0
LINE
  5
2304
  8
0
 10
227.45125010009539
 20
426.67147954931812
 30
0.0
 11
227.45125010009539
 21
414.67147954931801
 31
0.0
  0
LINE
  5
2305
  8
0
 10
227.45125010009539
 20
414.67147954931801
 30
0.0
 11
241.45125010009539
 21
414.67147954931801
 31
0.0
  0
LINE
  5
2306
  8
0
 10
230.45125010009539
 20
414.67147954931801
 30
0.0
 11
230.45125010009539
 21
408.67147954931801
 31
0.0
  0
LINE
  5
2307
  8
0
 10
238.45125010009539
 20
414.67147954931801
 30
0.0
 11
238.45125010009539
 21
408.67147954931801
 31
0.0
  0
LINE
  5
2308
  8
0
 10
227.45125010009539
 20
426.67147954931812
 30
0.0
 11
241.45125010009539
 21
426.67147954931852
 31
0.0
  0
LINE
  5
2309
  8
0
 10
238.45125010009539
 20
440.67147954931801
 30
0.0
 11
238.45125010009539
 21
435.17147954931801
 31
0.0
  0
LINE
  5
230A
  8
0
 10
239.45125010009539
 20
435.17147954931801
 30
0.0
 11
229.45125010009539
 21
435.17147954931801
 31
0.0
  0
LINE
  5
230B
  8
0
 10
238.45125010009539
 20
440.67147954931801
 30
0.0
 11
230.45125010009539
 21
440.67147954931801
 31
0.0
  0
LINE
  5
230C
  8
0
 10
240.45125010009539
 20
434.17147954931812
 30
0.0
 11
240.45125010009539
 21
433.17147954931801
 31
0.0
  0
LINE
  5
230D
  8
0
 10
228.45125010009539
 20
434.17147954931812
 30
0.0
 11
228.45125010009539
 21
433.17147954931801
 31
0.0
  0
LINE
  5
230E
  8
0
 10
227.95125010009539
 20
433.17147954931801
 30
0.0
 11
240.95125010009539
 21
433.17147954931801
 31
0.0
  0
LINE
  5
230F
  8
0
 10
227.95125010009539
 20
433.17147954931801
 30
0.0
 11
227.95125010009539
 21
426.67147954931812
 31
0.0
  0
LINE
  5
2310
  8
0
 10
240.95125010009539
 20
433.17147954931801
 30
0.0
 11
240.95125010009539
 21
426.67147954931812
 31
0.0
  0
LINE
  5
2311
  8
0
 10
230.45125010009539
 20
440.67147954931801
 30
0.0
 11
230.45125010009539
 21
435.17147954931801
 31
0.0
  0
LINE
  5
2312
  8
0
  6
CENTER
 10
234.45125010009539
 20
442.32281454931803
 30
0.0
 11
234.45125010009539
 21
385.28296454931842
 31
0.0
  0
LINE
  5
2313
  8
0
 10
237.70125010009539
 20
391.17147954931801
 30
0.0
 11
231.20125010009539
 21
391.17147954931801
 31
0.0
  0
LINE
  5
2314
  8
0
 10
240.95125010009539
 20
391.89637354931801
 30
0.0
 11
240.95125010009539
 21
396.67147954931801
 31
0.0
  0
LINE
  5
2315
  8
0
 10
227.95125010009539
 20
391.89637354931801
 30
0.0
 11
227.95125010009539
 21
396.67147954931801
 31
0.0
  0
LINE
  5
2316
  8
0
 10
241.45125010009539
 20
396.67147954931801
 30
0.0
 11
227.45125010009539
 21
396.67147954931801
 31
0.0
  0
ARC
  5
2317
  8
0
 10
239.45125010009539
 20
434.17147954931812
 30
0.0
 40
1.0
 50
0.0000040000316687
 51
90.000010000001026
  0
ARC
  5
2318
  8
0
 10
229.45125010009539
 20
434.17147954931812
 30
0.0
 40
1.0
 50
89.999994991062593
 51
180.0
  0
ARC
  5
2319
  8
0
 10
231.20125010009539
 20
425.5234845493182
 30
0.0
 40
7.647994999999999
 50
64.852624999992557
 51
115.1473699999637
  0
ARC
  5
231A
  8
0
 10
237.70125010009539
 20
425.5234845493182
 30
0.0
 40
7.647994999999999
 50
64.852632000013784
 51
115.1473699999637
  0
ARC
  5
231B
  8
0
 10
231.20125010009539
 20
434.31947454931827
 30
0.0
 40
7.647994999999999
 50
244.85263000003621
 51
295.1473699999637
  0
ARC
  5
231C
  8
0
 10
237.70125010009539
 20
434.31947454931827
 30
0.0
 40
7.647994999999999
 50
244.85263000003621
 51
295.1473699999637
  0
ARC
  5
231D
  8
0
 10
237.70125010009539
 20
398.81947454931827
 30
0.0
 40
7.6479945000000011
 50
244.85263000003621
 51
295.1473699999637
  0
ARC
  5
231E
  8
0
 10
231.20125010009539
 20
398.81947454931827
 30
0.0
 40
7.6479945000000011
 50
244.85263000003621
 51
295.1473699999637
  0
LINE
  5
231F
  8
0
 10
241.45125010009539
 20
396.67147954931801
 30
0.0
 11
241.45125010009539
 21
408.67147954931801
 31
0.0
  0
LINE
  5
2320
  8
0
 10
241.45125010009539
 20
426.67147954931852
 30
0.0
 11
241.45125010009539
 21
414.67147954931801
 31
0.0
  0
ARC
  5
234C
  8
AM_0_T3
 10
2146.4512495769318
 20
58.565340758589628
 30
0.0
 40
31.749999999994252
 50
237.62671402087039
 51
302.37328597912949
  0
LINE
  5
2616
  8
0
 10
194.451249576934
 20
3.1999999999934512
 30
0.0
 11
194.451249576934
 21
-30.800000000006548
 31
0.0
  0
LINE
  5
2617
  8
0
 10
197.3012495769344
 20
2.4207734875317319
 30
0.0
 11
197.3012495769344
 21
-30.020773487544819
 31
0.0
  0
LINE
  5
2618
  8
0
 10
196.7410835463651
 20
3.1999999999934512
 30
0.0
 11
194.451249576934
 21
3.1999999999934512
 31
0.0
  0
LINE
  5
2619
  8
0
 10
200.9400815940898
 20
-2.9500000000061841
 30
0.0
 11
213.45124857692269
 21
-2.9500000000066389
 31
0.0
  0
LINE
  5
261A
  8
0
 10
199.5397444307236
 20
-24.649958681104629
 30
0.0
 11
199.5397444307236
 21
-2.9500413189080059
 31
0.0
  0
LINE
  5
261B
  8
0
 10
197.49283764299429
 20
2.6736161146541231
 30
0.0
 11
199.06069635251879
 21
-1.634040286657636
 31
0.0
  0
ARC
  5
261C
  8
0
 10
196.7410835463651
 20
2.399999999993724
 30
0.0
 40
0.8
 50
20.00000000004712
 51
90.0
1001
GENIUS_GENODEF_13
1002
{
1000
HIER
1070
     0
1002
}
1002
{
1000
MANEDIT
1070
     0
1002
}
1002
{
1000
NOSEL
1070
     0
1002
}
1002
{
1000
BEHIND
1070
     0
1002
}
1002
{
1000
OTHER
1070
     0
1002
}
1002
{
1000
REACTOR
1002
}
1001
GENIUS_GENOBJ-N-FIL_13
1002
{
1000
OWNER
1000
GEN
1002
}
  0
ARC
  5
261D
  8
0
 10
200.9400815940898
 20
-0.9500000000061845
 30
0.0
 40
2.0
 50
200.00000000004709
 51
270.0
1001
GENIUS_GENODEF_13
1002
{
1000
HIER
1070
     0
1002
}
1002
{
1000
MANEDIT
1070
     0
1002
}
1002
{
1000
NOSEL
1070
     0
1002
}
1002
{
1000
BEHIND
1070
     0
1002
}
1002
{
1000
OTHER
1070
     0
1002
}
1002
{
1000
REACTOR
1002
}
1001
GENIUS_GENOBJ-N-FIL_13
1002
{
1000
OWNER
1000
GEN
1002
}
  0
LINE
  5
261E
  8
0
 10
196.7410835463651
 20
-30.800000000006548
 30
0.0
 11
194.451249576934
 21
-30.800000000006548
 31
0.0
  0
LINE
  5
261F
  8
0
 10
200.9400815940898
 20
-24.650000000006461
 30
0.0
 11
213.45124857692269
 21
-24.650000000006909
 31
0.0
  0
LINE
  5
2620
  8
0
 10
197.49283764299429
 20
-30.273616114666758
 30
0.0
 11
199.06069635251879
 21
-25.965959713355002
 31
0.0
  0
ARC
  5
2621
  8
0
 10
196.7410835463651
 20
-30.000000000006359
 30
0.0
 40
0.8
 50
270.0
 51
339.99999999995282
1001
GENIUS_GENODEF_13
1002
{
1000
HIER
1070
     0
1002
}
1002
{
1000
MANEDIT
1070
     0
1002
}
1002
{
1000
NOSEL
1070
     0
1002
}
1002
{
1000
BEHIND
1070
     0
1002
}
1002
{
1000
OTHER
1070
     0
1002
}
1002
{
1000
REACTOR
1002
}
1001
GENIUS_GENOBJ-N-FIL_13
1002
{
1000
OWNER
1000
GEN
1002
}
  0
ARC
  5
2622
  8
0
 10
200.9400815940898
 20
-26.65000000000645
 30
0.0
 40
2.0
 50
90.0
 51
159.99999999995279
1001
GENIUS_GENODEF_13
1002
{
1000
HIER
1070
     0
1002
}
1002
{
1000
MANEDIT
1070
     0
1002
}
1002
{
1000
NOSEL
1070
     0
1002
}
1002
{
1000
BEHIND
1070
     0
1002
}
1002
{
1000
OTHER
1070
     0
1002
}
1002
{
1000
REACTOR
1002
}
1001
GENIUS_GENOBJ-N-FIL_13
1002
{
1000
OWNER
1000
GEN
1002
}
  0
LINE
  5
2623
  8
0
 10
2276.4512495769341
 20
-3.1999999999998181
 30
0.0
 11
2276.4512495769341
 21
30.800000000000178
 31
0.0
  0
LINE
  5
2624
  8
0
 10
2273.6012495769328
 20
-2.4207734875380988
 30
0.0
 11
2273.6012495769328
 21
30.02077348753846
 31
0.0
  0
LINE
  5
2625
  8
0
  6
CENTER
 10
191.55668676165439
 20
-13.80000000000687
 30
0.0
 11
214.1091425371651
 21
-13.80000000000687
 31
0.0
  0
LINE
  5
2626
  8
0
 10
2274.161415607502
 20
-3.1999999999998181
 30
0.0
 11
2276.4512495769341
 21
-3.1999999999998181
 31
0.0
  0
LINE
  5
2627
  8
0
 10
2269.9624175597778
 20
2.9499999999998181
 30
0.0
 11
2257.4512505769449
 21
2.950000000000272
 31
0.0
  0
LINE
  5
2628
  8
0
 10
2271.362754723144
 20
24.649958681098269
 30
0.0
 11
2271.362754723144
 21
2.950041318901639
 31
0.0
  0
LINE
  5
2629
  8
0
 10
2273.4096615108729
 20
-2.6736161146604891
 30
0.0
 11
2271.8418028013489
 21
1.63404028665127
 31
0.0
  0
ARC
  5
262A
  8
0
 10
2274.161415607502
 20
-2.4000000000000901
 30
0.0
 40
0.8
 50
200.0000000000226
 51
270.0
1001
GENIUS_GENODEF_13
1002
{
1000
HIER
1070
     0
1002
}
1002
{
1000
MANEDIT
1070
     0
1002
}
1002
{
1000
NOSEL
1070
     0
1002
}
1002
{
1000
BEHIND
1070
     0
1002
}
1002
{
1000
OTHER
1070
     0
1002
}
1002
{
1000
REACTOR
1002
}
1001
GENIUS_GENOBJ-N-FIL_13
1002
{
1000
OWNER
1000
GEN
1002
}
  0
ARC
  5
262B
  8
0
 10
2269.9624175597778
 20
0.9499999999998181
 30
0.0
 40
2.0
 50
20.000000000022631
 51
90.0
1001
GENIUS_GENODEF_13
1002
{
1000
HIER
1070
     0
1002
}
1002
{
1000
MANEDIT
1070
     0
1002
}
1002
{
1000
NOSEL
1070
     0
1002
}
1002
{
1000
BEHIND
1070
     0
1002
}
1002
{
1000
OTHER
1070
     0
1002
}
1002
{
1000
REACTOR
1002
}
1001
GENIUS_GENOBJ-N-FIL_13
1002
{
1000
OWNER
1000
GEN
1002
}
  0
LINE
  5
262C
  8
0
 10
2274.161415607502
 20
30.800000000000178
 30
0.0
 11
2276.4512495769341
 21
30.800000000000178
 31
0.0
  0
LINE
  5
262D
  8
0
 10
2269.9624175597778
 20
24.650000000000091
 30
0.0
 11
2257.4512505769449
 21
24.650000000000539
 31
0.0
  0
LINE
  5
262E
  8
0
 10
2273.4096615108729
 20
30.273616114660388
 30
0.0
 11
2271.8418028013489
 21
25.965959713348632
 31
0.0
  0
ARC
  5
262F
  8
0
 10
2274.161415607502
 20
30.0
 30
0.0
 40
0.8
 50
90.0
 51
159.99999999997729
1001
GENIUS_GENODEF_13
1002
{
1000
HIER
1070
     0
1002
}
1002
{
1000
MANEDIT
1070
     0
1002
}
1002
{
1000
NOSEL
1070
     0
1002
}
1002
{
1000
BEHIND
1070
     0
1002
}
1002
{
1000
OTHER
1070
     0
1002
}
1002
{
1000
REACTOR
1002
}
1001
GENIUS_GENOBJ-N-FIL_13
1002
{
1000
OWNER
1000
GEN
1002
}
  0
ARC
  5
2630
  8
0
 10
2269.9624175597778
 20
26.650000000000091
 30
0.0
 40
2.0
 50
270.0
 51
339.99999999997732
1001
GENIUS_GENODEF_13
1002
{
1000
HIER
1070
     0
1002
}
1002
{
1000
MANEDIT
1070
     0
1002
}
1002
{
1000
NOSEL
1070
     0
1002
}
1002
{
1000
BEHIND
1070
     0
1002
}
1002
{
1000
OTHER
1070
     0
1002
}
1002
{
1000
REACTOR
1002
}
1001
GENIUS_GENOBJ-N-FIL_13
1002
{
1000
OWNER
1000
GEN
1002
}
  0
LINE
  5
2631
  8
0
 10
2276.4512495769341
 20
394.67147954931801
 30
0.0
 11
2276.4512495769341
 21
428.67147954931801
 31
0.0
  0
LINE
  5
2632
  8
0
 10
2273.6012495769328
 20
395.45070606177973
 30
0.0
 11
2273.6012495769328
 21
427.89225303685629
 31
0.0
  0
LINE
  5
2633
  8
0
 10
2274.161415607502
 20
394.67147954931801
 30
0.0
 11
2276.4512495769341
 21
394.67147954931801
 31
0.0
  0
LINE
  5
2634
  8
0
 10
2269.9624175597778
 20
400.82147954931861
 30
0.0
 11
2257.4512505769449
 21
400.82147954931861
 31
0.0
  0
LINE
  5
2635
  8
0
 10
2271.362754723144
 20
422.52143823041661
 30
0.0
 11
2271.362754723144
 21
400.82152086821941
 31
0.0
  0
LINE
  5
2636
  8
0
 10
2273.4096615108729
 20
395.19786343465779
 30
0.0
 11
2271.8418028013489
 21
399.50551983596949
 31
0.0
  0
ARC
  5
2637
  8
0
 10
2274.161415607502
 20
395.47147954931819
 30
0.0
 40
0.8
 50
200.0000000000226
 51
270.0
1001
GENIUS_GENODEF_13
1002
{
1000
HIER
1070
     0
1002
}
1002
{
1000
MANEDIT
1070
     0
1002
}
1002
{
1000
NOSEL
1070
     0
1002
}
1002
{
1000
BEHIND
1070
     0
1002
}
1002
{
1000
OTHER
1070
     0
1002
}
1002
{
1000
REACTOR
1002
}
1001
GENIUS_GENOBJ-N-FIL_13
1002
{
1000
OWNER
1000
GEN
1002
}
  0
ARC
  5
2638
  8
0
 10
2269.9624175597778
 20
398.82147954931861
 30
0.0
 40
2.0
 50
20.000000000022631
 51
90.0
1001
GENIUS_GENODEF_13
1002
{
1000
HIER
1070
     0
1002
}
1002
{
1000
MANEDIT
1070
     0
1002
}
1002
{
1000
NOSEL
1070
     0
1002
}
1002
{
1000
BEHIND
1070
     0
1002
}
1002
{
1000
OTHER
1070
     0
1002
}
1002
{
1000
REACTOR
1002
}
1001
GENIUS_GENOBJ-N-FIL_13
1002
{
1000
OWNER
1000
GEN
1002
}
  0
LINE
  5
2639
  8
0
 10
2274.161415607502
 20
428.67147954931801
 30
0.0
 11
2276.4512495769341
 21
428.67147954931801
 31
0.0
  0
LINE
  5
263A
  8
0
 10
2269.9624175597778
 20
422.52147954931843
 30
0.0
 11
2257.4512505769449
 21
422.52147954931843
 31
0.0
  0
LINE
  5
263B
  8
0
 10
2273.4096615108729
 20
428.14509566397908
 30
0.0
 11
2271.8418028013489
 21
423.83743926266652
 31
0.0
  0
ARC
  5
263C
  8
0
 10
2274.161415607502
 20
427.87147954931783
 30
0.0
 40
0.8
 50
90.0
 51
159.99999999997729
1001
GENIUS_GENODEF_13
1002
{
1000
HIER
1070
     0
1002
}
1002
{
1000
MANEDIT
1070
     0
1002
}
1002
{
1000
NOSEL
1070
     0
1002
}
1002
{
1000
BEHIND
1070
     0
1002
}
1002
{
1000
OTHER
1070
     0
1002
}
1002
{
1000
REACTOR
1002
}
1001
GENIUS_GENOBJ-N-FIL_13
1002
{
1000
OWNER
1000
GEN
1002
}
  0
ARC
  5
263D
  8
0
 10
2269.9624175597778
 20
424.52147954931843
 30
0.0
 40
2.0
 50
270.0
 51
339.99999999997732
1001
GENIUS_GENODEF_13
1002
{
1000
HIER
1070
     0
1002
}
1002
{
1000
MANEDIT
1070
     0
1002
}
1002
{
1000
NOSEL
1070
     0
1002
}
1002
{
1000
BEHIND
1070
     0
1002
}
1002
{
1000
OTHER
1070
     0
1002
}
1002
{
1000
REACTOR
1002
}
1001
GENIUS_GENOBJ-N-FIL_13
1002
{
1000
OWNER
1000
GEN
1002
}
  0
LINE
  5
263E
  8
0
 10
194.451249576934
 20
428.67147954931352
 30
0.0
 11
194.451249576934
 21
394.67147954931352
 31
0.0
  0
LINE
  5
263F
  8
0
 10
197.3012495769344
 20
427.89225303685168
 30
0.0
 11
197.3012495769344
 21
395.45070606177518
 31
0.0
  0
LINE
  5
2640
  8
0
 10
196.7410835463651
 20
428.67147954931352
 30
0.0
 11
194.451249576934
 21
428.67147954931352
 31
0.0
  0
LINE
  5
2641
  8
0
 10
200.9400815940898
 20
422.52147954931388
 30
0.0
 11
213.45124857692269
 21
422.52147954931291
 31
0.0
  0
LINE
  5
2642
  8
0
 10
199.5397444307236
 20
400.82152086821492
 30
0.0
 11
199.5397444307236
 21
422.52143823041212
 31
0.0
  0
LINE
  5
2643
  8
0
 10
197.49283764299429
 20
428.14509566397368
 30
0.0
 11
199.06069635251879
 21
423.83743926266192
 31
0.0
  0
ARC
  5
2644
  8
0
 10
196.7410835463651
 20
427.87147954931328
 30
0.0
 40
0.8
 50
20.00000000004712
 51
90.0
1001
GENIUS_GENODEF_13
1002
{
1000
HIER
1070
     0
1002
}
1002
{
1000
MANEDIT
1070
     0
1002
}
1002
{
1000
NOSEL
1070
     0
1002
}
1002
{
1000
BEHIND
1070
     0
1002
}
1002
{
1000
OTHER
1070
     0
1002
}
1002
{
1000
REACTOR
1002
}
1001
GENIUS_GENOBJ-N-FIL_13
1002
{
1000
OWNER
1000
GEN
1002
}
  0
ARC
  5
2645
  8
0
 10
200.9400815940898
 20
424.52147954931382
 30
0.0
 40
2.0
 50
200.00000000004709
 51
270.0
1001
GENIUS_GENODEF_13
1002
{
1000
HIER
1070
     0
1002
}
1002
{
1000
MANEDIT
1070
     0
1002
}
1002
{
1000
NOSEL
1070
     0
1002
}
1002
{
1000
BEHIND
1070
     0
1002
}
1002
{
1000
OTHER
1070
     0
1002
}
1002
{
1000
REACTOR
1002
}
1001
GENIUS_GENOBJ-N-FIL_13
1002
{
1000
OWNER
1000
GEN
1002
}
  0
LINE
  5
2646
  8
0
 10
196.7410835463651
 20
394.67147954931352
 30
0.0
 11
194.451249576934
 21
394.67147954931352
 31
0.0
  0
LINE
  5
2647
  8
0
 10
200.9400815940898
 20
400.8214795493131
 30
0.0
 11
213.45124857692269
 21
400.8214795493131
 31
0.0
  0
LINE
  5
2648
  8
0
 10
197.49283764299429
 20
395.1978634346533
 30
0.0
 11
199.06069635251879
 21
399.505519835965
 31
0.0
  0
ARC
  5
2649
  8
0
 10
196.7410835463651
 20
395.4714795493137
 30
0.0
 40
0.8
 50
270.0
 51
339.99999999995282
1001
GENIUS_GENODEF_13
1002
{
1000
HIER
1070
     0
1002
}
1002
{
1000
MANEDIT
1070
     0
1002
}
1002
{
1000
NOSEL
1070
     0
1002
}
1002
{
1000
BEHIND
1070
     0
1002
}
1002
{
1000
OTHER
1070
     0
1002
}
1002
{
1000
REACTOR
1002
}
1001
GENIUS_GENOBJ-N-FIL_13
1002
{
1000
OWNER
1000
GEN
1002
}
  0
ARC
  5
264A
  8
0
 10
200.9400815940898
 20
398.8214795493131
 30
0.0
 40
2.0
 50
90.0
 51
159.99999999995279
1001
GENIUS_GENODEF_13
1002
{
1000
HIER
1070
     0
1002
}
1002
{
1000
MANEDIT
1070
     0
1002
}
1002
{
1000
NOSEL
1070
     0
1002
}
1002
{
1000
BEHIND
1070
     0
1002
}
1002
{
1000
OTHER
1070
     0
1002
}
1002
{
1000
REACTOR
1002
}
1001
GENIUS_GENOBJ-N-FIL_13
1002
{
1000
OWNER
1000
GEN
1002
}
  0
CIRCLE
  5
639C
  8
0
 10
2146.4512495769341
 20
411.67147954931761
 30
0.0
 40
62.5
  0
CIRCLE
  5
639D
  8
0
  6
CENTER
 10
2146.4512495769341
 20
411.67147954931761
 30
0.0
 40
45.0
  0
CIRCLE
  5
639E
  8
0
 10
2114.6314444235391
 20
443.49128470271211
 30
0.0
 40
9.5
  0
CIRCLE
  5
639F
  8
0
 10
2114.6314444235391
 20
379.851674395923
 30
0.0
 40
9.5
  0
CIRCLE
  5
63A0
  8
0
 10
2178.2710547303282
 20
443.49128470271211
 30
0.0
 40
9.5
  0
CIRCLE
  5
63A1
  8
0
 10
2178.2710547303282
 20
379.851674395923
 30
0.0
 40
9.5
  0
CIRCLE
  5
63A2
  8
AM_0_T3
 10
2146.4512495769341
 20
411.67147954931761
 30
0.0
 40
17.0
  0
LINE
  5
6631
  8
0
 10
3.0
 20
-61.0
 30
0.0
 11
3.0
 21
-35.623904999999461
 31
0.0
  0
LINE
  5
6632
  8
0
 10
15.0
 20
-61.0
 30
0.0
 11
15.0
 21
-43.221088000000229
 31
0.0
  0
LINE
  5
6633
  8
0
 10
15.0
 20
-61.0
 30
0.0
 11
3.0
 21
-61.0
 31
0.0
  0
LINE
  5
6634
  8
0
 10
-15.0
 20
-61.0
 30
0.0
 11
-15.0
 21
-43.221088000000229
 31
0.0
  0
LINE
  5
6635
  8
0
 10
-15.0
 20
-61.0
 30
0.0
 11
-3.0
 21
-61.0
 31
0.0
  0
LINE
  5
6636
  8
0
 10
-3.0
 20
-61.0
 30
0.0
 11
-3.0
 21
-35.623904999999461
 31
0.0
  0
LINE
  5
6637
  8
0
 10
-3.0
 20
-58.0
 30
0.0
 11
3.0
 21
-58.0
 31
0.0
  0
LINE
  5
6638
  8
0
 10
-3.0
 20
-50.0
 30
0.0
 11
3.0
 21
-50.0
 31
0.0
  0
LINE
  5
6639
  8
0
 10
15.0
 20
61.0
 30
0.0
 11
3.0
 21
61.0
 31
0.0
  0
LINE
  5
663A
  8
0
 10
3.0
 20
61.0
 30
0.0
 11
3.0
 21
35.62390500000037
 31
0.0
  0
LINE
  5
663B
  8
0
 10
-15.0
 20
61.0
 30
0.0
 11
-3.0
 21
61.0
 31
0.0
  0
LINE
  5
663C
  8
0
 10
-3.0
 20
61.0
 30
0.0
 11
-3.0
 21
35.62390500000037
 31
0.0
  0
LINE
  5
663D
  8
0
 10
-3.0
 20
58.0
 30
0.0
 11
3.0
 21
58.0
 31
0.0
  0
LINE
  5
663E
  8
0
 10
-3.0
 20
50.0
 30
0.0
 11
3.0
 21
50.0
 31
0.0
  0
LINE
  5
663F
  8
0
 10
-15.0
 20
61.0
 30
0.0
 11
-15.0
 21
43.221088000000229
 31
0.0
  0
LINE
  5
6640
  8
0
 10
-29.0
 20
50.0
 30
0.0
 11
-23.5
 21
50.0
 31
0.0
  0
LINE
  5
6641
  8
0
 10
-23.5
 20
49.0
 30
0.0
 11
-23.5
 21
59.0
 31
0.0
  0
LINE
  5
6642
  8
0
 10
-29.0
 20
50.0
 30
0.0
 11
-29.0
 21
58.0
 31
0.0
  0
LINE
  5
6643
  8
0
 10
-22.5
 20
48.0
 30
0.0
 11
-21.499999999999989
 21
48.0
 31
0.0
  0
LINE
  5
6644
  8
0
 10
-22.5
 20
60.0
 30
0.0
 11
-21.499999999999989
 21
60.0
 31
0.0
  0
LINE
  5
6645
  8
0
 10
-21.499999999999989
 20
60.5
 30
0.0
 11
-21.499999999999989
 21
47.5
 31
0.0
  0
LINE
  5
6646
  8
0
 10
-21.499999999999989
 20
60.5
 30
0.0
 11
-15.0
 21
60.5
 31
0.0
  0
LINE
  5
6647
  8
0
 10
-21.499999999999989
 20
47.5
 30
0.0
 11
-15.0
 21
47.5
 31
0.0
  0
LINE
  5
6648
  8
0
 10
-29.0
 20
58.0
 30
0.0
 11
-23.5
 21
58.0
 31
0.0
  0
LINE
  5
6649
  8
0
  6
CENTER
 10
-30.651335000000469
 20
54.0
 30
0.0
 11
26.38851499999873
 21
54.0
 31
0.0
  0
LINE
  5
664A
  8
0
 10
20.5
 20
-50.75
 30
0.0
 11
20.5
 21
-57.25
 31
0.0
  0
LINE
  5
664B
  8
0
 10
19.77510600000096
 20
-47.5
 30
0.0
 11
15.0
 21
-47.5
 31
0.0
  0
LINE
  5
664C
  8
0
 10
19.77510600000096
 20
-60.5
 30
0.0
 11
15.0
 21
-60.5
 31
0.0
  0
LINE
  5
664D
  8
0
 10
-29.0
 20
-50.0
 30
0.0
 11
-23.5
 21
-50.0
 31
0.0
  0
LINE
  5
664E
  8
0
 10
-23.5
 20
-49.0
 30
0.0
 11
-23.5
 21
-59.0
 31
0.0
  0
LINE
  5
664F
  8
0
 10
-29.0
 20
-50.0
 30
0.0
 11
-29.0
 21
-58.0
 31
0.0
  0
LINE
  5
6650
  8
0
 10
-22.5
 20
-48.0
 30
0.0
 11
-21.499999999999989
 21
-48.0
 31
0.0
  0
LINE
  5
6651
  8
0
 10
-22.5
 20
-60.0
 30
0.0
 11
-21.499999999999989
 21
-60.0
 31
0.0
  0
LINE
  5
6652
  8
0
 10
-21.499999999999989
 20
-60.5
 30
0.0
 11
-21.499999999999989
 21
-47.5
 31
0.0
  0
LINE
  5
6653
  8
0
 10
-21.499999999999989
 20
-60.5
 30
0.0
 11
-15.0
 21
-60.5
 31
0.0
  0
LINE
  5
6654
  8
0
 10
-21.499999999999989
 20
-47.5
 30
0.0
 11
-15.0
 21
-47.5
 31
0.0
  0
LINE
  5
6655
  8
0
 10
-29.0
 20
-58.0
 30
0.0
 11
-23.5
 21
-58.0
 31
0.0
  0
LINE
  5
6656
  8
0
  6
CENTER
 10
-30.651335000000469
 20
-54.0
 30
0.0
 11
27.011253000000568
 21
-54.0
 31
0.0
  0
LINE
  5
6657
  8
0
 10
20.5
 20
50.75
 30
0.0
 11
20.5
 21
57.25
 31
0.0
  0
LINE
  5
6658
  8
0
 10
19.77510600000096
 20
47.5
 30
0.0
 11
15.0
 21
47.5
 31
0.0
  0
LINE
  5
6659
  8
0
 10
19.77510600000096
 20
60.5
 30
0.0
 11
15.0
 21
60.5
 31
0.0
  0
LINE
  5
665A
  8
0
 10
15.0
 20
43.221088000000229
 30
0.0
 11
15.0
 21
61.0
 31
0.0
  0
ARC
  5
665B
  8
0
 10
0.0
 20
0.0
 30
0.0
 40
45.75
 50
273.7597999999735
 51
90.0
  0
ARC
  5
665C
  8
0
 10
0.0
 20
0.0
 30
0.0
 40
35.75
 50
274.81369799986061
 51
85.186299999973102
  0
ARC
  5
665D
  8
0
 10
0.0
 20
0.0
 30
0.0
 40
37.75
 50
274.81369799986061
 51
90.0
  0
ARC
  5
665E
  8
0
 10
0.0
 20
0.0
 30
0.0
 40
35.75
 50
94.813700000026884
 51
265.18630400009562
  0
ARC
  5
665F
  8
0
 10
0.0
 20
0.0
 30
0.0
 40
37.75
 50
94.813700000026884
 51
265.18630400009562
  0
ARC
  5
6660
  8
0
 10
0.0
 20
0.0
 30
0.0
 40
45.75
 50
93.759799999973637
 51
266.24020199994283
  0
ARC
  5
6661
  8
0
 10
-22.5
 20
49.0
 30
0.0
 40
1.0
 50
179.99998999999889
 51
269.99999600002042
  0
ARC
  5
6662
  8
0
 10
-22.5
 20
59.0
 30
0.0
 40
1.0
 50
90.0
 51
180.00000500893739
  0
ARC
  5
6663
  8
0
 10
-13.85200500000064
 20
57.25
 30
0.0
 40
7.647994999999999
 50
154.85263000003621
 51
205.14737500007669
  0
ARC
  5
6664
  8
0
 10
-13.85200500000064
 20
50.75
 30
0.0
 40
7.647994999999999
 50
154.85263000003621
 51
205.14736800004439
  0
ARC
  5
6665
  8
0
 10
-22.647994999999352
 20
57.25
 30
0.0
 40
7.647994999999999
 50
334.85263000003619
 51
25.14736999996374
  0
ARC
  5
6666
  8
0
 10
-22.647994999999352
 20
50.75
 30
0.0
 40
7.647994999999999
 50
334.85263000003619
 51
25.14736999996374
  0
ARC
  5
6667
  8
0
 10
12.85200500000064
 20
-50.75
 30
0.0
 40
7.6479945000000011
 50
334.85263000003619
 51
25.14736999996374
  0
ARC
  5
6668
  8
0
 10
12.85200500000064
 20
-57.25
 30
0.0
 40
7.6479945000000011
 50
334.85263000003619
 51
25.14736999996374
  0
ARC
  5
6669
  8
0
 10
-22.5
 20
-49.0
 30
0.0
 40
1.0
 50
90.0
 51
180.00000500893739
  0
ARC
  5
666A
  8
0
 10
-22.5
 20
-59.0
 30
0.0
 40
1.0
 50
179.99998999999889
 51
269.99999600002042
  0
ARC
  5
666B
  8
0
 10
-13.85200500000064
 20
-57.25
 30
0.0
 40
7.647994999999999
 50
154.85261999999599
 51
205.14737199993019
  0
ARC
  5
666C
  8
0
 10
-13.85200500000064
 20
-50.75
 30
0.0
 40
7.647994999999999
 50
154.85263000003621
 51
205.14737199993019
  0
ARC
  5
666D
  8
0
 10
-22.647994999999352
 20
-57.25
 30
0.0
 40
7.647994999999999
 50
334.85263000003619
 51
25.14736999996374
  0
ARC
  5
666E
  8
0
 10
-22.647994999999352
 20
-50.75
 30
0.0
 40
7.647994999999999
 50
334.85263000003619
 51
25.14736999996374
  0
ARC
  5
666F
  8
0
 10
12.85200500000064
 20
50.75
 30
0.0
 40
7.6479945000000011
 50
334.85263000003619
 51
25.14736999996374
  0
ARC
  5
6670
  8
0
 10
12.85200500000064
 20
57.25
 30
0.0
 40
7.6479945000000011
 50
334.85263000003619
 51
25.14736999996374
  0
LINE
  5
6671
  8
0
  6
CENTER
 10
0.0
 20
-103.0000000000045
 30
0.0
 11
0.0
 21
103.0000000000049
 31
0.0
  0
LINE
  5
6672
  8
0
  6
CENTER
 10
-61.036160705143622
 20
0.0
 30
0.0
 11
61.036160705143622
 21
0.0
 31
0.0
  0
ARC
  5
6673
  8
AM_0_T3
 10
0.0
 20
0.0
 30
0.0
 40
27.999999999995229
 50
297.50673843884948
 51
242.4932615611504
  0
LINE
  5
6674
  8
0
 10
62.5
 20
95.000000000003169
 30
0.0
 11
62.5
 21
81.000000000003183
 31
0.0
  0
LINE
  5
6675
  8
0
  6
CENTER
 10
45.0
 20
104.00000000000399
 30
0.0
 11
45.0
 21
71.000000000004093
 31
0.0
  0
LINE
  5
6676
  8
0
  6
CENTER
 10
-45.0
 20
104.00000000000399
 30
0.0
 11
-45.0
 21
71.000000000004093
 31
0.0
  0
LINE
  5
6677
  8
0
 10
-62.5
 20
81.000000000004093
 30
0.0
 11
-62.5
 21
95.000000000004107
 31
0.0
  0
LINE
  5
6678
  8
0
 10
-62.5
 20
95.000000000004107
 30
0.0
 11
62.5
 21
95.000000000003169
 31
0.0
  0
LINE
  5
6679
  8
0
 10
62.5
 20
81.000000000003183
 30
0.0
 11
-62.5
 21
81.000000000004093
 31
0.0
  0
LINE
  5
667A
  8
0
 10
-17.0
 20
81.000000000003183
 30
0.0
 11
-17.0
 21
60.5
 31
0.0
  0
LINE
  5
667B
  8
0
 10
-17.0
 20
47.5
 30
0.0
 11
-17.0
 21
42.47425690933278
 31
0.0
  0
LINE
  5
667C
  8
0
 10
17.0
 20
81.000000000003183
 30
0.0
 11
17.0
 21
60.5
 31
0.0
  0
LINE
  5
667D
  8
0
 10
17.0
 20
47.5
 30
0.0
 11
17.0
 21
42.474256909332333
 31
0.0
  0
LINE
  5
667E
  8
0
 10
-62.5
 20
-95.000000000003638
 30
0.0
 11
-62.5
 21
-81.000000000003624
 31
0.0
  0
LINE
  5
667F
  8
0
  6
CENTER
 10
-45.0
 20
-104.0000000000045
 30
0.0
 11
-45.0
 21
-71.000000000004547
 31
0.0
  0
LINE
  5
6680
  8
0
  6
CENTER
 10
45.0
 20
-104.0000000000045
 30
0.0
 11
45.0
 21
-71.000000000004547
 31
0.0
  0
LINE
  5
6681
  8
0
 10
62.5
 20
-81.000000000004533
 30
0.0
 11
62.5
 21
-95.000000000004533
 31
0.0
  0
LINE
  5
6682
  8
0
 10
62.5
 20
-95.000000000004533
 30
0.0
 11
-62.5
 21
-95.000000000003638
 31
0.0
  0
LINE
  5
6683
  8
0
 10
-62.5
 20
-81.000000000003624
 30
0.0
 11
62.5
 21
-81.000000000004533
 31
0.0
  0
LINE
  5
6684
  8
0
 10
17.0
 20
-81.000000000003624
 30
0.0
 11
17.0
 21
-60.499999999999538
 31
0.0
  0
LINE
  5
6685
  8
0
 10
17.0
 20
-47.5
 30
0.0
 11
17.0
 21
-42.47425690933278
 31
0.0
  0
LINE
  5
6686
  8
0
 10
-17.0
 20
-81.000000000003624
 30
0.0
 11
-17.0
 21
-60.500000000000462
 31
0.0
  0
LINE
  5
6687
  8
0
 10
-17.0
 20
-47.500000000000448
 30
0.0
 11
-17.0
 21
-42.474256909333228
 31
0.0
  0
LINE
  5
6688
  8
0
  6
CENTER
 10
-21.809530600176
 20
-13.80000000000018
 30
0.0
 11
21.809530600176
 21
-13.80000000000018
 31
0.0
  0
CIRCLE
  5
6689
  8
AM_0_T3
 10
0.0
 20
-13.80000000000018
 30
0.0
 40
17.0
  0
CIRCLE
  5
668A
  8
AM_0_T3
 10
0.0
 20
-13.80000000000018
 30
0.0
 40
10.85000000000036
  0
LINE
  5
668B
  8
0
  6
CENTER
 10
2279.3458123922101
 20
13.80000000000018
 30
0.0
 11
2256.7933566166989
 21
13.80000000000018
 31
0.0
  0
ENDSEC
  0
EOF
