  0
SECTION
  2
HEADER
  9
$ACADVER
  1
AC1009
  9
$INSBASE
 10
0.0
 20
0.0
 30
0.0
  9
$EXTMIN
 10
-62.5
 20
-105.0000000000109
 30
0.0
  9
$EXTMAX
 10
2282.5999922979909
 20
588.2813975037534
 30
0.0
  9
$LIMMIN
 10
0.0
 20
0.0
  9
$LIMMAX
 10
420.0
 20
297.0
  9
$ORTHOMODE
 70
     0
  9
$REGENMODE
 70
     1
  9
$FILLMODE
 70
     1
  9
$QTEXTMODE
 70
     0
  9
$MIRRTEXT
 70
     1
  9
$DRAGMODE
 70
     2
  9
$LTSCALE
 40
1.0
  9
$OSMODE
 70
    37
  9
$ATTMODE
 70
     1
  9
$TEXTSIZE
 40
73.985717453579113
  9
$TRACEWID
 40
1.0
  9
$TEXTSTYLE
  7
STANDARD
  9
$CLAYER
  8
0
  9
$CELTYPE
  6
BYLAYER
  9
$CECOLOR
 62
   256
  9
$DIMSCALE
 40
1.0
  9
$DIMASZ
 40
3.0
  9
$DIMEXO
 40
1.0
  9
$DIMDLI
 40
10.0
  9
$DIMRND
 40
0.0
  9
$DIMDLE
 40
0.0
  9
$DIMEXE
 40
1.0
  9
$DIMTP
 40
0.1
  9
$DIMTM
 40
0.1
  9
$DIMTXT
 40
30.0
  9
$DIMCEN
 40
0.0
  9
$DIMTSZ
 40
0.0
  9
$DIMTOL
 70
     0
  9
$DIMLIM
 70
     0
  9
$DIMTIH
 70
     0
  9
$DIMTOH
 70
     0
  9
$DIMSE1
 70
     0
  9
$DIMSE2
 70
     0
  9
$DIMTAD
 70
     3
  9
$DIMZIN
 70
     8
  9
$DIMBLK
  1
OPEN
  9
$DIMASO
 70
     1
  9
$DIMSHO
 70
     1
  9
$DIMPOST
  1

  9
$DIMAPOST
  1
"
  9
$DIMALT
 70
     0
  9
$DIMALTD
 70
     2
  9
$DIMALTF
 40
0.0393701
  9
$DIMLFAC
 40
1.0
  9
$DIMTOFL
 70
     1
  9
$DIMTVP
 40
0.0
  9
$DIMTIX
 70
     0
  9
$DIMSOXD
 70
     0
  9
$DIMSAH
 70
     0
  9
$DIMBLK1
  1

  9
$DIMBLK2
  1

  9
$DIMSTYLE
  2
TSK
  9
$DIMCLRD
 70
   256
  9
$DIMCLRE
 70
   256
  9
$DIMCLRT
 70
     2
  9
$DIMTFAC
 40
0.71
  9
$DIMGAP
 40
1.5
  9
$LUNITS
 70
     2
  9
$LUPREC
 70
     8
  9
$SKETCHINC
 40
1.0
  9
$FILLETRAD
 40
0.0
  9
$AUNITS
 70
     0
  9
$AUPREC
 70
     8
  9
$MENU
  1
.
  9
$ELEVATION
 40
0.0
  9
$PELEVATION
 40
0.0
  9
$THICKNESS
 40
0.0
  9
$LIMCHECK
 70
     0
  9
$BLIPMODE
 70
     0
  9
$CHAMFERA
 40
2.5
  9
$CHAMFERB
 40
2.5
  9
$SKPOLY
 70
     0
  9
$TDCREATE
 40
2454739.7204081588
  9
$TDUPDATE
 40
2454748.5624243519
  9
$TDINDWG
 40
0.2617603704
  9
$TDUSRTIMER
 40
0.2617603704
  9
$USRTIMER
 70
     1
  9
$ANGBASE
 50
0.0
  9
$ANGDIR
 70
     1
  9
$PDMODE
 70
     0
  9
$PDSIZE
 40
0.0
  9
$PLINEWID
 40
0.0
  9
$COORDS
 70
     1
  9
$SPLFRAME
 70
     0
  9
$SPLINETYPE
 70
     6
  9
$SPLINESEGS
 70
     8
  9
$ATTDIA
 70
     0
  9
$ATTREQ
 70
     1
  9
$HANDLING
 70
 22529
  9
$HANDSEED
  5
6702
  9
$SURFTAB1
 70
     6
  9
$SURFTAB2
 70
     6
  9
$SURFTYPE
 70
     6
  9
$SURFU
 70
     6
  9
$SURFV
 70
     6
  9
$UCSNAME
  2

  9
$UCSORG
 10
0.0
 20
0.0
 30
0.0
  9
$UCSXDIR
 10
1.0
 20
0.0
 30
0.0
  9
$UCSYDIR
 10
0.0
 20
1.0
 30
0.0
  9
$PUCSNAME
  2

  9
$PUCSORG
 10
0.0
 20
0.0
 30
0.0
  9
$PUCSXDIR
 10
1.0
 20
0.0
 30
0.0
  9
$PUCSYDIR
 10
0.0
 20
1.0
 30
0.0
  9
$USERI1
 70
     0
  9
$USERI2
 70
     0
  9
$USERI3
 70
     0
  9
$USERI4
 70
     0
  9
$USERI5
 70
     0
  9
$USERR1
 40
0.0
  9
$USERR2
 40
0.0
  9
$USERR3
 40
0.0
  9
$USERR4
 40
0.0
  9
$USERR5
 40
0.0
  9
$WORLDVIEW
 70
     1
  9
$SHADEDGE
 70
     3
  9
$SHADEDIF
 70
    70
  9
$TILEMODE
 70
     1
  9
$MAXACTVP
 70
    48
  9
$PLIMCHECK
 70
     0
  9
$PEXTMIN
 10
1.0000000000000000E+020
 20
1.0000000000000000E+020
 30
1.0000000000000000E+020
  9
$PEXTMAX
 10
-1.0000000000000000E+020
 20
-1.0000000000000000E+020
 30
-1.0000000000000000E+020
  9
$PLIMMIN
 10
0.0
 20
0.0
  9
$PLIMMAX
 10
420.0
 20
297.0
  9
$UNITMODE
 70
     0
  9
$VISRETAIN
 70
     1
  9
$PLINEGEN
 70
     0
  9
$PSLTSCALE
 70
     1
  0
ENDSEC
  0
SECTION
  2
TABLES
  0
TABLE
  2
VPORT
 70
     2
  0
VPORT
  2
*ACTIVE
 70
     0
 10
0.0
 20
0.0
 11
1.0
 21
1.0
 12
1399.3753078442139
 22
241.637489245007
 13
0.0
 23
0.0
 14
2.5
 24
2.5
 15
10.0
 25
10.0
 16
0.0
 26
0.0
 36
1.0
 17
0.0
 27
0.0
 37
0.0
 40
1538.731538551023
 41
1.9079189686924489
 42
50.0
 43
0.0
 44
0.0
 50
0.0
 51
0.0
 71
     0
 72
   100
 73
     1
 74
     3
 75
     0
 76
     0
 77
     0
 78
     0
  0
ENDTAB
  0
TABLE
  2
LTYPE
 70
     2
  0
LTYPE
  2
CONTINUOUS
 70
     0
  3
Solid line
 72
    65
 73
     0
 40
0.0
  0
LTYPE
  2
CENTER
 70
     0
  3
__ . __
 72
    65
 73
     4
 40
7.0
 49
4.0
 49
-1.0
 49
1.0
 49
-1.0
  0
ENDTAB
  0
TABLE
  2
LAYER
 70
     2
  0
LAYER
  2
0
 70
     0
 62
     7
  6
CONTINUOUS
  0
LAYER
  2
AM_0_T3
 70
     0
 62
     7
  6
CONTINUOUS
  0
ENDTAB
  0
TABLE
  2
STYLE
 70
     2
  0
STYLE
  2
STANDARD
 70
     0
 40
0.0
 41
0.7
 50
0.0
 71
     0
 42
73.985717453579113
  3
romans.shx
  4
bigfont.shx
  0
STYLE
  2
TSKDIM
 70
     0
 40
0.0
 41
0.75
 50
0.0
 71
     0
 42
4.0
  3
romans.shx
  4
EXTFONT.SHX
  0
ENDTAB
  0
TABLE
  2
VIEW
 70
     0
  0
ENDTAB
  0
TABLE
  2
UCS
 70
     0
  0
ENDTAB
  0
TABLE
  2
APPID
 70
    41
  0
APPID
  2
ACAD
 70
     0
  0
APPID
  2
MCAD_NO_VIS
 70
     0
  0
APPID
  2
ACAD_TEMP_GRAPHIC
 70
     0
  0
APPID
  2
ACATTRIBSERVICES
 70
     0
  0
APPID
  2
AD_DRAW
 70
     0
  0
APPID
  2
DESIGNERASSEMBLIES
 70
     0
  0
APPID
  2
ASURF_PCURVE_APPNAME
 70
     0
  0
APPID
  2
ACADM_DIM_EDIT
 70
     0
  0
APPID
  2
GENIUS_GENDIM_13
 70
     0
  0
APPID
  2
GENIUS_GENDTOL_13
 70
     0
  0
APPID
  2
GENIUS_GE3DTOL_13
 70
     0
  0
APPID
  2
AMG_3D2D_5_0
 70
     0
  0
APPID
  2
AMDT_DM_ADJ
 70
     0
  0
APPID
  2
CK_MATE-SERIES
 70
     0
  0
APPID
  2
GEVID1042077799
 70
     0
  0
APPID
  2
GEVMK
 70
     0
  0
APPID
  2
GEVDC
 70
     0
  0
APPID
  2
GENIUS_GENBH_13
 70
     0
  0
APPID
  2
GENIUS_GENOLIS_13
 70
     0
  0
APPID
  2
GENIUS_GENOENT_13
 70
     0
  0
APPID
  2
GENIUS_GENODEF_13
 70
     0
  0
APPID
  2
GENIUS_GENOBJ-NBEHI-BHF_13
 70
     0
  0
APPID
  2
GENIUS_GENOREF_13
 70
     0
  0
APPID
  2
GENIUS_GENOBJ-NBEHI-BHB_13
 70
     0
  0
APPID
  2
GEVID1042183772
 70
     0
  0
APPID
  2
GEVID1042183773
 70
     0
  0
APPID
  2
GEVID1042183774
 70
     0
  0
APPID
  2
DCO15
 70
     0
  0
APPID
  2
ACAD_DSTYLE_DIMARC_LENGTH_
 70
     0
  0
APPID
  2
ACAD_DSTYLE_DIMJOGGED_JOGA
 70
     0
  0
APPID
  2
ACAD_MLEADERVER
 70
     0
  0
APPID
  2
ACAD_DSTYLE_DIMJAG
 70
     0
  0
APPID
  2
ACAD_DSTYLE_DIMTALN
 70
     0
  0
APPID
  2
ACAD_PSEXT
 70
     0
  0
APPID
  2
ACAD_EXEMPT_FROM_CAD_STANDARDS
 70
     0
  0
APPID
  2
ACAD_DSTYLE_DIMINSPECT
 70
     0
  0
APPID
  2
ACAD_DSTYLE_DIMANGULAR_EXT
 70
     0
  0
APPID
  2
GENIUS_GENOBJ-N-FIL_13
 70
     0
  0
APPID
  2
ACAD_DSTYLE_DIM_LINETYPE
 70
     0
  0
APPID
  2
ACAD_DSTYLE_DIM_EXT1_LINETYPE
 70
     0
  0
APPID
  2
ACAD_DSTYLE_DIM_EXT2_LINETYPE
 70
     0
  0
ENDTAB
  0
TABLE
  2
DIMSTYLE
 70
     1
  0
DIMSTYLE
  2
TSK
 70
     0
  3

  4
"
  5
OPEN
  6

  7

 40
1.0
 41
3.0
 42
1.0
 43
10.0
 44
1.0
 45
0.0
 46
0.0
 47
0.1
 48
0.1
140
30.0
141
0.0
142
0.0
143
0.0393701
144
1.0
145
0.0
146
0.71
147
1.5
 71
     0
 72
     0
 73
     0
 74
     0
 75
     0
 76
     0
 77
     3
 78
     8
170
     0
171
     2
172
     1
173
     0
174
     0
175
     0
176
   256
177
   256
178
     2
  0
ENDTAB
  0
ENDSEC
  0
SECTION
  2
BLOCKS
  0
BLOCK
  8
0
  2
$MODEL_SPACE
 70
     0
 10
0.0
 20
0.0
 30
0.0
  3
$MODEL_SPACE
  1

  0
ENDBLK
  5
21
  8
0
  0
BLOCK
 67
     1
  8
0
  2
$PAPER_SPACE
 70
     0
 10
0.0
 20
0.0
 30
0.0
  3
$PAPER_SPACE
  1

  0
ENDBLK
  5
1D
 67
     1
  8
0
  0
BLOCK
  8
0
  2
_OPEN
 70
     0
 10
0.0
 20
0.0
 30
0.0
  3
_OPEN
  1

  0
LINE
  5
15A
  8
0
  6
BYBLOCK
 62
     0
 10
-1.0
 20
0.1666666666666666
 30
0.0
 11
0.0
 21
0.0
 31
0.0
  0
LINE
  5
15B
  8
0
  6
BYBLOCK
 62
     0
 10
-1.0
 20
-0.1666666666666666
 30
0.0
 11
0.0
 21
0.0
 31
0.0
  0
LINE
  5
15C
  8
0
  6
BYBLOCK
 62
     0
 10
0.0
 20
0.0
 30
0.0
 11
-1.0
 21
0.0
 31
0.0
  0
ENDBLK
  5
15E
  8
0
  0
ENDSEC
  0
SECTION
  2
ENTITIES
  0
LINE
  5
134B
  8
0
 10
261.95124957693542
 20
-95.000000000010459
 30
0.0
 11
261.95124957693542
 21
-81.000000000010445
 31
0.0
  0
LINE
  5
134D
  8
0
  6
CENTER
 10
279.45124957693542
 20
-104.0000000000113
 30
0.0
 11
279.45124957693542
 21
-71.000000000011369
 31
0.0
  0
LINE
  5
1354
  8
0
  6
CENTER
 10
369.45124957693542
 20
-104.0000000000113
 30
0.0
 11
369.45124957693542
 21
-71.000000000011369
 31
0.0
  0
LINE
  5
1355
  8
0
 10
386.95124957693542
 20
-81.000000000011354
 30
0.0
 11
386.95124957693542
 21
-95.000000000011354
 31
0.0
  0
LINE
  5
1356
  8
0
 10
386.95124957693542
 20
-95.000000000011354
 30
0.0
 11
261.95124957693542
 21
-95.000000000010459
 31
0.0
  0
LINE
  5
1357
  8
0
 10
261.95124957693542
 20
-81.000000000010445
 30
0.0
 11
386.95124957693542
 21
-81.000000000011354
 31
0.0
  0
LINE
  5
16F2
  8
0
 10
1202.480402222466
 20
-41.500000000003631
 30
0.0
 11
1268.4220969314019
 21
-41.500000000003631
 31
0.0
  0
LINE
  5
16F3
  8
0
 10
1198.751249576934
 20
-35.04091814876346
 30
0.0
 11
1202.480402222466
 21
-41.500000000003631
 31
0.0
  0
LINE
  5
16F4
  8
0
 10
1272.1512495769341
 20
-31.75000000000318
 30
0.0
 11
2228.701249576935
 21
-31.75000000000318
 31
0.0
  0
LINE
  5
16F5
  8
0
 10
1205.451249576935
 20
41.49999999999681
 30
0.0
 11
1205.451249576935
 21
-41.500000000003631
 31
0.0
  0
LINE
  5
16F6
  8
0
 10
1265.4512495769341
 20
41.49999999999681
 30
0.0
 11
1265.4512495769341
 21
-41.500000000003631
 31
0.0
  0
LINE
  5
16F7
  8
0
 10
1255.7012495769361
 20
-41.500000000003631
 30
0.0
 11
1255.7012495769361
 21
41.499999999996362
 31
0.0
  0
LINE
  5
16F8
  8
0
 10
1260.201249576935
 20
-41.500000000003631
 30
0.0
 11
1260.201249576935
 21
41.49999999999681
 31
0.0
  0
LINE
  5
16F9
  8
0
 10
1246.701249576935
 20
-41.500000000003631
 30
0.0
 11
1246.7012495769361
 21
41.499999999996362
 31
0.0
  0
LINE
  5
16FA
  8
0
 10
1251.2012495769361
 20
-41.500000000003631
 30
0.0
 11
1251.2012495769361
 21
41.49999999999681
 31
0.0
  0
LINE
  5
16FB
  8
0
 10
1219.701249576935
 20
-41.500000000003631
 30
0.0
 11
1219.701249576935
 21
41.499999999996362
 31
0.0
  0
LINE
  5
16FC
  8
0
 10
1215.201249576935
 20
-41.500000000003631
 30
0.0
 11
1215.201249576935
 21
41.499999999996362
 31
0.0
  0
LINE
  5
16FD
  8
0
 10
1210.7012495769361
 20
-41.500000000003631
 30
0.0
 11
1210.7012495769361
 21
41.499999999996362
 31
0.0
  0
LINE
  5
16FE
  8
0
 10
1224.201249576935
 20
-41.500000000003631
 30
0.0
 11
1224.201249576935
 21
41.49999999999681
 31
0.0
  0
LINE
  5
16FF
  8
0
 10
1228.7012495769361
 20
-41.500000000003631
 30
0.0
 11
1228.7012495769361
 21
41.499999999996362
 31
0.0
  0
LINE
  5
1700
  8
0
 10
1233.201249576935
 20
-41.500000000003631
 30
0.0
 11
1233.201249576935
 21
41.49999999999681
 31
0.0
  0
LINE
  5
1701
  8
0
 10
1237.701249576935
 20
-41.500000000003631
 30
0.0
 11
1237.701249576935
 21
41.499999999996362
 31
0.0
  0
LINE
  5
1702
  8
0
 10
1242.201249576935
 20
-41.500000000003631
 30
0.0
 11
1242.2012495769341
 21
41.49999999999681
 31
0.0
  0
LINE
  5
1703
  8
0
 10
1198.751249576934
 20
35.040918148756639
 30
0.0
 11
1202.480402222466
 21
41.49999999999681
 31
0.0
  0
LINE
  5
1704
  8
0
 10
1198.751249576934
 20
-35.04091814876346
 30
0.0
 11
1198.751249576934
 21
35.040918148756639
 31
0.0
  0
LINE
  5
1705
  8
0
 10
1202.480402222466
 20
41.49999999999681
 30
0.0
 11
1268.4220969314019
 21
41.49999999999681
 31
0.0
  0
LINE
  5
1706
  8
0
 10
1198.751249576934
 20
-31.75000000000318
 30
0.0
 11
341.45124957693582
 21
-31.750000000000451
 31
0.0
  0
LINE
  5
1707
  8
0
 10
307.45124957693582
 20
-31.750000000000451
 30
0.0
 11
242.20124957693449
 21
-31.750000000000451
 31
0.0
  0
LINE
  5
1708
  8
0
 10
1202.480402222466
 20
-41.500000000002728
 30
0.0
 11
1202.480402222466
 21
41.49999999999681
 31
0.0
  0
LINE
  5
1709
  8
0
 10
1272.1512495769341
 20
-35.04091814876346
 30
0.0
 11
1268.4220969314019
 21
-41.500000000003631
 31
0.0
  0
LINE
  5
170A
  8
0
 10
1272.1512495769341
 20
35.040918148756639
 30
0.0
 11
1268.4220969314019
 21
41.49999999999681
 31
0.0
  0
LINE
  5
170B
  8
0
 10
1272.1512495769341
 20
-35.04091814876346
 30
0.0
 11
1272.1512495769341
 21
35.040918148756639
 31
0.0
  0
LINE
  5
170C
  8
AM_0_T3
 10
1268.4220969314019
 20
41.49999999999681
 30
0.0
 11
1268.4220969314019
 21
-41.500000000004547
 31
0.0
  0
LINE
  5
170D
  8
0
 10
2257.4512505769449
 20
-28.000000000004551
 30
0.0
 11
2244.201249576935
 21
-28.000000000004999
 31
0.0
  0
LINE
  5
170E
  8
0
 10
2257.4512505769449
 20
27.999999999994991
 30
0.0
 11
2244.201249576935
 21
27.999999999995449
 31
0.0
  0
LINE
  5
170F
  8
0
 10
2257.4512505769449
 20
-28.000000000004551
 30
0.0
 11
2257.4512505769449
 21
27.999999999994991
 31
0.0
  0
LINE
  5
1753
  8
0
 10
2232.6984734537718
 20
60.499999999993634
 30
0.0
 11
2240.2040276537718
 21
60.499999999993634
 31
0.0
  0
LINE
  5
1754
  8
0
 10
2240.2040254537719
 20
60.500001999993401
 30
0.0
 11
2243.9568025537719
 21
54.000000999993063
 31
0.0
  0
LINE
  5
1755
  8
0
 10
2243.9568048537722
 20
54.000000999993063
 30
0.0
 11
2240.2040277537722
 21
47.500000999993063
 31
0.0
  0
LINE
  5
1756
  8
0
 10
2240.2040276537718
 20
47.499999999993634
 30
0.0
 11
2232.6984734537718
 21
47.499999999993634
 31
0.0
  0
LINE
  5
1757
  8
0
 10
2228.9456952537721
 20
54.000000999993063
 30
0.0
 11
2232.6984723537721
 21
47.500000999993063
 31
0.0
  0
LINE
  5
1758
  8
0
 10
2232.6984713537722
 20
60.50000299999374
 30
0.0
 11
2228.9456942537722
 21
54.00000299999374
 31
0.0
  0
LINE
  5
1759
  8
0
 10
2240.204026653772
 20
-60.500000000006359
 30
0.0
 11
2232.698472453772
 21
-60.500000000006359
 31
0.0
  0
LINE
  5
175A
  8
0
 10
2232.6984746537719
 20
-60.500002000006589
 30
0.0
 11
2228.9456975537719
 21
-54.000001000006712
 31
0.0
  0
LINE
  5
175B
  8
0
 10
2228.9456952537721
 20
-54.000001000006712
 30
0.0
 11
2232.6984723537721
 21
-47.500001000006698
 31
0.0
  0
LINE
  5
175C
  8
0
 10
2243.9568048537722
 20
-54.000001000006712
 30
0.0
 11
2240.2040277537722
 21
-47.500001000006698
 31
0.0
  0
LINE
  5
175D
  8
0
 10
2240.204028753772
 20
-60.500003000006473
 30
0.0
 11
2243.956805853772
 21
-54.000003000006473
 31
0.0
  0
LINE
  5
175E
  8
0
 10
2232.698472453772
 20
-47.500000000006359
 30
0.0
 11
2240.204026653772
 21
-47.500000000006359
 31
0.0
  0
LINE
  5
175F
  8
0
  6
CENTER
 10
2226.4512500537721
 20
-54.000000000006366
 30
0.0
 11
2246.4512500537721
 21
-54.000000000006366
 31
0.0
  0
LINE
  5
1760
  8
0
  6
CENTER
 10
2236.4512505306088
 20
-64.000000000006366
 30
0.0
 11
2236.4512505306088
 21
-44.000000000006366
 31
0.0
  0
LINE
  5
1761
  8
0
  6
CENTER
 10
2226.4512490537718
 20
53.999999999993634
 30
0.0
 11
2246.4512490537718
 21
53.999999999993634
 31
0.0
  0
LINE
  5
1762
  8
0
  6
CENTER
 10
2236.451249576935
 20
43.999999999993634
 30
0.0
 11
2236.451249576935
 21
63.999999999993634
 31
0.0
  0
LINE
  5
1763
  8
0
 10
2244.201249576935
 20
-37.630605894677501
 30
0.0
 11
2244.201249576935
 21
37.630605894663859
 31
0.0
  0
LINE
  5
1764
  8
0
 10
2228.701249576935
 20
-37.630605894677501
 30
0.0
 11
2228.701249576935
 21
37.630605894663859
 31
0.0
  0
LINE
  5
1767
  8
0
 10
2231.6130114510638
 20
-48.941200553756971
 30
0.0
 11
2231.6130114510638
 21
48.941200553744238
 31
0.0
  0
ARC
  5
1768
  8
0
 10
2236.451249576935
 20
53.999999999993634
 30
0.0
 40
7.0
 50
313.7233352220149
 51
351.78676740868173
  0
ARC
  5
1769
  8
0
 10
2236.451249576935
 20
53.999999999993634
 30
0.0
 40
7.0
 50
8.2132124140934302
 51
51.786784583412171
  0
ARC
  5
176A
  8
0
 10
2236.451249576935
 20
53.999999999993634
 30
0.0
 40
7.0
 50
68.213210701731882
 51
111.7867892982681
  0
ARC
  5
176B
  8
0
 10
2236.451249576935
 20
53.999999999993634
 30
0.0
 40
7.0
 50
128.2132729511633
 51
171.78672241755919
  0
ARC
  5
176C
  8
0
 10
2236.451249576935
 20
53.999999999993634
 30
0.0
 40
7.0
 50
188.2132143774453
 51
226.2766589223601
  0
LINE
  5
176D
  8
0
 10
2241.2894974274741
 20
-48.941209854453518
 30
0.0
 11
2241.2894871857952
 21
48.941200059275609
 31
0.0
  0
LINE
  5
176E
  8
0
 10
2231.6130114510638
 20
43.22108860266507
 30
0.0
 11
2241.289487784305
 21
43.22108860266507
 31
0.0
  0
LINE
  5
176F
  8
0
 10
2228.701249576935
 20
37.630605894663859
 30
0.0
 11
2231.6130114510638
 21
45.651533380592809
 31
0.0
  0
LINE
  5
1770
  8
0
 10
2244.201249576935
 20
37.630605894663859
 30
0.0
 11
2241.2894877028052
 21
45.651533380592809
 31
0.0
  0
ARC
  5
1771
  8
0
 10
2236.451249576935
 20
-54.000000000006366
 30
0.0
 40
7.0
 50
133.7233410776397
 51
171.78678562255459
  0
ARC
  5
1772
  8
0
 10
2236.451249576935
 20
-54.000000000006366
 30
0.0
 40
7.0
 50
188.2131942002481
 51
231.78680279724071
  0
ARC
  5
1773
  8
0
 10
2236.451249576935
 20
-54.000000000006366
 30
0.0
 40
7.0
 50
248.2132107017319
 51
291.78678929826799
  0
ARC
  5
1774
  8
0
 10
2236.451249576935
 20
-54.000000000006366
 30
0.0
 40
7.0
 50
308.21329116507093
 51
351.78670420363278
  0
ARC
  5
1775
  8
0
 10
2236.451249576935
 20
-54.000000000006366
 30
0.0
 40
7.0
 50
8.2132325913182846
 51
46.276548781012814
  0
LINE
  5
1776
  8
0
 10
2231.6130114510638
 20
-43.221088602678719
 30
0.0
 11
2241.289487784305
 21
-43.221088602678719
 31
0.0
  0
LINE
  5
1777
  8
0
 10
2228.701249576935
 20
-37.630605894677501
 30
0.0
 11
2231.6130114510638
 21
-45.651533380606452
 31
0.0
  0
LINE
  5
1778
  8
0
 10
2244.201249576935
 20
-37.630605894677501
 30
0.0
 11
2241.2894877028052
 21
-45.651533380606452
 31
0.0
  0
LINE
  5
177B
  8
0
 10
1198.751249576934
 20
31.749999999996358
 30
0.0
 11
242.201249576934
 21
31.74999999999363
 31
0.0
  0
LINE
  5
177D
  8
0
 10
213.45124857692409
 20
-28.000000000004551
 30
0.0
 11
226.701249576934
 21
-28.000000000004999
 31
0.0
  0
LINE
  5
177E
  8
0
 10
213.45124857692409
 20
27.999999999994991
 30
0.0
 11
226.70124957693361
 21
27.999999999995449
 31
0.0
  0
LINE
  5
177F
  8
0
 10
213.45124857692409
 20
-28.000000000004551
 30
0.0
 11
213.45124857692409
 21
27.999999999994991
 31
0.0
  0
LINE
  5
1780
  8
0
 10
238.20402570009671
 20
60.499999999993634
 30
0.0
 11
230.6984715000967
 21
60.499999999993634
 31
0.0
  0
LINE
  5
1781
  8
0
 10
230.6984737000966
 20
60.500001999993401
 30
0.0
 11
226.9456966000966
 21
54.000000999993063
 31
0.0
  0
LINE
  5
1782
  8
0
 10
226.94569430009679
 20
54.000000999993063
 30
0.0
 11
230.69847140009679
 21
47.500000999993063
 31
0.0
  0
LINE
  5
1783
  8
0
 10
230.6984715000967
 20
47.499999999993634
 30
0.0
 11
238.20402570009671
 21
47.499999999993634
 31
0.0
  0
LINE
  5
1784
  8
0
 10
241.9568039000969
 20
54.000000999993063
 30
0.0
 11
238.2040268000969
 21
47.500000999993063
 31
0.0
  0
LINE
  5
1785
  8
0
 10
238.2040278000967
 20
60.50000299999374
 30
0.0
 11
241.95680490009681
 21
54.00000299999374
 31
0.0
  0
LINE
  5
1786
  8
0
 10
230.69847250009661
 20
-60.500000000006359
 30
0.0
 11
238.20402670009659
 21
-60.500000000006359
 31
0.0
  0
LINE
  5
1787
  8
0
 10
238.20402450009669
 20
-60.500002000006589
 30
0.0
 11
241.9568016000967
 21
-54.000001000006712
 31
0.0
  0
LINE
  5
1788
  8
0
 10
241.9568039000969
 20
-54.000001000006712
 30
0.0
 11
238.2040268000969
 21
-47.500001000006698
 31
0.0
  0
LINE
  5
1789
  8
0
 10
226.94569430009679
 20
-54.000001000006712
 30
0.0
 11
230.69847140009679
 21
-47.500001000006698
 31
0.0
  0
LINE
  5
178A
  8
0
 10
230.69847040009651
 20
-60.500003000006473
 30
0.0
 11
226.94569330009651
 21
-54.000003000006473
 31
0.0
  0
LINE
  5
178B
  8
0
 10
238.20402670009659
 20
-47.500000000006359
 30
0.0
 11
230.69847250009661
 21
-47.500000000006359
 31
0.0
  0
LINE
  5
178C
  8
0
  6
CENTER
 10
244.4512491000969
 20
-54.000000000006366
 30
0.0
 11
224.4512491000969
 21
-54.000000000006366
 31
0.0
  0
LINE
  5
178D
  8
0
  6
CENTER
 10
234.45124862325969
 20
-64.000000000006366
 30
0.0
 11
234.45124862325969
 21
-44.000000000006366
 31
0.0
  0
LINE
  5
178E
  8
0
  6
CENTER
 10
244.4512501000967
 20
53.999999999993634
 30
0.0
 11
224.45125010009679
 21
53.999999999993634
 31
0.0
  0
LINE
  5
178F
  8
0
  6
CENTER
 10
234.451249576934
 20
43.999999999993634
 30
0.0
 11
234.451249576934
 21
63.999999999993634
 31
0.0
  0
LINE
  5
1790
  8
0
 10
226.701249576934
 20
-37.630605894677501
 30
0.0
 11
226.701249576934
 21
37.630605894663859
 31
0.0
  0
LINE
  5
1791
  8
0
 10
242.201249576934
 20
-37.630605894677501
 30
0.0
 11
242.201249576934
 21
37.630605894663859
 31
0.0
  0
LINE
  5
1792
  8
0
 10
239.28948770280471
 20
-48.941200553756971
 30
0.0
 11
239.28948770280471
 21
48.941200553744238
 31
0.0
  0
ARC
  5
1793
  8
0
 10
234.451249576934
 20
53.999999999993634
 30
0.0
 40
7.0
 50
188.21323259131819
 51
226.27666477798499
  0
ARC
  5
1794
  8
0
 10
234.451249576934
 20
53.999999999993634
 30
0.0
 40
7.0
 50
128.21321541658779
 51
171.7867875859065
  0
ARC
  5
1795
  8
0
 10
234.451249576934
 20
53.999999999993634
 30
0.0
 40
7.0
 50
68.213210701756054
 51
111.7867892982439
  0
ARC
  5
1796
  8
0
 10
234.451249576934
 20
53.999999999993634
 30
0.0
 40
7.0
 50
8.2132775824407336
 51
51.786727048846899
  0
ARC
  5
1797
  8
0
 10
234.451249576934
 20
53.999999999993634
 30
0.0
 40
7.0
 50
313.7233410776397
 51
351.78678562255459
  0
LINE
  5
1798
  8
0
 10
229.6130017263944
 20
-48.941209854453518
 30
0.0
 11
229.61301196807369
 21
48.941200059275609
 31
0.0
  0
LINE
  5
1799
  8
0
 10
239.28948770280471
 20
43.22108860266507
 30
0.0
 11
229.61301136956439
 21
43.22108860266507
 31
0.0
  0
LINE
  5
179A
  8
0
 10
242.201249576934
 20
37.630605894663859
 30
0.0
 11
239.28948770280471
 21
45.651533380592809
 31
0.0
  0
LINE
  5
179B
  8
0
 10
226.701249576934
 20
37.630605894663859
 30
0.0
 11
229.61301145106381
 21
45.651533380592809
 31
0.0
  0
ARC
  5
179C
  8
0
 10
234.451249576934
 20
-54.000000000006366
 30
0.0
 40
7.0
 50
8.2132143774453592
 51
46.27665892236022
  0
ARC
  5
179D
  8
0
 10
234.451249576934
 20
-54.000000000006366
 30
0.0
 40
7.0
 50
308.21319720275932
 51
351.78680579975179
  0
ARC
  5
179E
  8
0
 10
234.451249576934
 20
-54.000000000006366
 30
0.0
 40
7.0
 50
248.213210701756
 51
291.78678929824389
  0
ARC
  5
179F
  8
0
 10
234.451249576934
 20
-54.000000000006366
 30
0.0
 40
7.0
 50
188.21329579636711
 51
231.78670883492899
  0
ARC
  5
17A0
  8
0
 10
234.451249576934
 20
-54.000000000006366
 30
0.0
 40
7.0
 50
133.72345121899659
 51
171.7867674086817
  0
LINE
  5
17A1
  8
0
 10
239.28948770280471
 20
-43.221088602678719
 30
0.0
 11
229.61301136956439
 21
-43.221088602678719
 31
0.0
  0
LINE
  5
17A2
  8
0
 10
242.201249576934
 20
-37.630605894677501
 30
0.0
 11
239.28948770280471
 21
-45.651533380606452
 31
0.0
  0
LINE
  5
17A3
  8
0
 10
226.701249576934
 20
-37.630605894677501
 30
0.0
 11
229.61301145106381
 21
-45.651533380606452
 31
0.0
  0
LINE
  5
17A4
  8
0
 10
1202.480402222466
 20
370.17147954931443
 30
0.0
 11
1268.4220969314019
 21
370.17147954931443
 31
0.0
  0
LINE
  5
17A5
  8
0
 10
1198.751249576934
 20
376.63056140055448
 30
0.0
 11
1202.480402222466
 21
370.17147954931443
 31
0.0
  0
LINE
  5
17A6
  8
0
 10
1272.1512495769341
 20
379.92147954931482
 30
0.0
 11
2092.6164327759111
 21
379.92147954931482
 31
0.0
  0
LINE
  5
17A7
  8
0
 10
2200.2860663779588
 20
379.92147954931528
 30
0.0
 11
2228.701249576935
 21
379.92147954931482
 31
0.0
  0
LINE
  5
17A8
  8
0
 10
1205.451249576935
 20
453.17147954931482
 30
0.0
 11
1205.451249576935
 21
370.17147954931443
 31
0.0
  0
LINE
  5
17A9
  8
0
 10
1265.4512495769341
 20
453.17147954931482
 30
0.0
 11
1265.4512495769341
 21
370.17147954931443
 31
0.0
  0
LINE
  5
17AA
  8
0
 10
1255.7012495769361
 20
370.17147954931443
 30
0.0
 11
1255.7012495769361
 21
453.17147954931443
 31
0.0
  0
LINE
  5
17AB
  8
0
 10
1260.201249576935
 20
370.17147954931443
 30
0.0
 11
1260.201249576935
 21
453.17147954931482
 31
0.0
  0
LINE
  5
17AC
  8
0
 10
1246.701249576935
 20
370.17147954931443
 30
0.0
 11
1246.7012495769361
 21
453.17147954931443
 31
0.0
  0
LINE
  5
17AD
  8
0
 10
1251.2012495769361
 20
370.17147954931443
 30
0.0
 11
1251.2012495769361
 21
453.17147954931482
 31
0.0
  0
LINE
  5
17AE
  8
0
 10
1219.701249576935
 20
370.17147954931443
 30
0.0
 11
1219.701249576935
 21
453.17147954931443
 31
0.0
  0
LINE
  5
17AF
  8
0
 10
1215.201249576935
 20
370.17147954931443
 30
0.0
 11
1215.201249576935
 21
453.17147954931443
 31
0.0
  0
LINE
  5
17B0
  8
0
 10
1210.7012495769361
 20
370.17147954931443
 30
0.0
 11
1210.7012495769361
 21
453.17147954931443
 31
0.0
  0
LINE
  5
17B1
  8
0
 10
1224.201249576935
 20
370.17147954931443
 30
0.0
 11
1224.201249576935
 21
453.17147954931482
 31
0.0
  0
LINE
  5
17B2
  8
0
 10
1228.7012495769361
 20
370.17147954931443
 30
0.0
 11
1228.7012495769361
 21
453.17147954931443
 31
0.0
  0
LINE
  5
17B3
  8
0
 10
1233.201249576935
 20
370.17147954931443
 30
0.0
 11
1233.201249576935
 21
453.17147954931482
 31
0.0
  0
LINE
  5
17B4
  8
0
 10
1237.701249576935
 20
370.17147954931443
 30
0.0
 11
1237.701249576935
 21
453.17147954931443
 31
0.0
  0
LINE
  5
17B5
  8
0
 10
1242.201249576935
 20
370.17147954931443
 30
0.0
 11
1242.2012495769341
 21
453.17147954931482
 31
0.0
  0
LINE
  5
17B6
  8
0
 10
1198.751249576934
 20
446.7123976980746
 30
0.0
 11
1202.480402222466
 21
453.17147954931482
 31
0.0
  0
LINE
  5
17B7
  8
0
 10
1198.751249576934
 20
376.63056140055448
 30
0.0
 11
1198.751249576934
 21
446.7123976980746
 31
0.0
  0
LINE
  5
17B8
  8
0
 10
1202.480402222466
 20
453.17147954931482
 30
0.0
 11
1268.4220969314019
 21
453.17147954931482
 31
0.0
  0
LINE
  5
17B9
  8
0
 10
1272.1512495769341
 20
443.42147954931443
 30
0.0
 11
2092.6164327759061
 21
443.4214795493121
 31
0.0
  0
LINE
  5
17BA
  8
0
 10
2200.2860663779638
 20
443.4214795493121
 30
0.0
 11
2228.701249576935
 21
443.4214795493117
 31
0.0
  0
LINE
  5
17BB
  8
0
 10
1202.480402222466
 20
370.17147954931528
 30
0.0
 11
1202.480402222466
 21
453.17147954931482
 31
0.0
  0
LINE
  5
17BC
  8
0
 10
1272.1512495769341
 20
376.63056140055448
 30
0.0
 11
1268.4220969314019
 21
370.17147954931443
 31
0.0
  0
LINE
  5
17BD
  8
0
 10
1272.1512495769341
 20
446.7123976980746
 30
0.0
 11
1268.4220969314019
 21
453.17147954931482
 31
0.0
  0
LINE
  5
17BE
  8
0
 10
1272.1512495769341
 20
376.63056140055448
 30
0.0
 11
1272.1512495769341
 21
446.7123976980746
 31
0.0
  0
LINE
  5
17BF
  8
AM_0_T3
 10
1268.4220969314019
 20
453.17147954931482
 30
0.0
 11
1268.4220969314019
 21
370.17147954931352
 31
0.0
  0
LINE
  5
17C0
  8
0
 10
2257.4512505769449
 20
383.67147954931352
 30
0.0
 11
2244.201249576935
 21
383.67147954931301
 31
0.0
  0
LINE
  5
17C1
  8
0
 10
2257.4512505769449
 20
439.67147954931312
 30
0.0
 11
2244.201249576935
 21
439.67147954931352
 31
0.0
  0
LINE
  5
17C2
  8
0
 10
2257.4512505769449
 20
383.67147954931352
 30
0.0
 11
2257.4512505769449
 21
439.67147954931312
 31
0.0
  0
LINE
  5
17C3
  8
0
 10
2244.201249576935
 20
373.92147954930442
 30
0.0
 11
2244.201249576935
 21
449.42147954931852
 31
0.0
  0
LINE
  5
17C4
  8
0
 10
2228.701249576935
 20
373.92147954930391
 30
0.0
 11
2228.701249576935
 21
449.42147954931852
 31
0.0
  0
LINE
  5
17C5
  8
0
 10
2231.6130114510638
 20
365.92147954930482
 30
0.0
 11
2231.6130114510638
 21
391.33820987084482
 31
0.0
  0
LINE
  5
17C6
  8
0
 10
2231.6130114510638
 20
435.17147954931761
 30
0.0
 11
2231.6130114510638
 21
457.42147954931852
 31
0.0
  0
LINE
  5
17C7
  8
0
 10
2241.2894970935699
 20
365.92147954930482
 30
0.0
 11
2241.2894944341551
 21
391.3382115220133
 31
0.0
  0
LINE
  5
17C8
  8
0
 10
2241.2894898477712
 20
435.17147954931761
 30
0.0
 11
2241.289487519698
 21
457.42147954931852
 31
0.0
  0
LINE
  5
17C9
  8
0
 10
1198.751249576934
 20
379.92147954931482
 30
0.0
 11
242.201249576934
 21
379.92147954931482
 31
0.0
  0
LINE
  5
17CA
  8
0
 10
1198.751249576934
 20
443.42147954931443
 30
0.0
 11
242.201249576934
 21
443.4214795493117
 31
0.0
  0
LINE
  5
17CC
  8
0
 10
213.45124857692409
 20
383.67147954931352
 30
0.0
 11
226.701249576934
 21
383.67147954931301
 31
0.0
  0
LINE
  5
17CD
  8
0
 10
213.45124857692409
 20
439.67147954931312
 30
0.0
 11
226.70124957693361
 21
439.67147954931352
 31
0.0
  0
LINE
  5
17CE
  8
0
 10
213.45124857692409
 20
383.67147954931352
 30
0.0
 11
213.45124857692409
 21
439.67147954931312
 31
0.0
  0
LINE
  5
17F3
  8
AM_0_T3
 10
2228.701249576935
 20
449.42147954931852
 30
0.0
 11
2231.6130114510638
 21
457.42147954931852
 31
0.0
  0
LINE
  5
17F4
  8
AM_0_T3
 10
2244.201249576935
 20
449.42147954931852
 30
0.0
 11
2241.289487519698
 21
457.42147954931852
 31
0.0
  0
LINE
  5
17F5
  8
AM_0_T3
 10
2231.6130114510638
 20
457.42147954931852
 30
0.0
 11
2241.289487519698
 21
457.42147954931852
 31
0.0
  0
LINE
  5
17F6
  8
AM_0_T3
 10
2228.701249576935
 20
373.92147954930391
 30
0.0
 11
2231.6130114510638
 21
365.92147954930482
 31
0.0
  0
LINE
  5
17F7
  8
AM_0_T3
 10
2244.201249576935
 20
373.92147954930442
 30
0.0
 11
2241.289487519698
 21
365.92147954930482
 31
0.0
  0
LINE
  5
17F8
  8
AM_0_T3
 10
2231.6130114510638
 20
365.92147954930482
 30
0.0
 11
2241.2894970935699
 21
365.92147954930482
 31
0.0
  0
LINE
  5
17F9
  8
0
 10
2243.4512490537718
 20
396.67147954931801
 30
0.0
 11
2243.4512490537718
 21
408.67147954931801
 31
0.0
  0
LINE
  5
17FA
  8
0
 10
2243.4512490537718
 20
408.67147954931801
 30
0.0
 11
2229.4512490537709
 21
408.67147954931801
 31
0.0
  0
LINE
  5
17FB
  8
0
 10
2243.4512490537718
 20
426.67147954931812
 30
0.0
 11
2243.4512490537718
 21
414.67147954931801
 31
0.0
  0
LINE
  5
17FC
  8
0
 10
2243.4512490537718
 20
414.67147954931801
 30
0.0
 11
2229.4512490537718
 21
414.67147954931801
 31
0.0
  0
LINE
  5
17FD
  8
0
 10
2240.4512490537718
 20
414.67147954931801
 30
0.0
 11
2240.4512490537718
 21
408.67147954931801
 31
0.0
  0
LINE
  5
17FE
  8
0
 10
2232.4512490537718
 20
414.67147954931801
 30
0.0
 11
2232.4512490537718
 21
408.67147954931801
 31
0.0
  0
LINE
  5
17FF
  8
0
 10
2243.4512490537718
 20
426.67147954931812
 30
0.0
 11
2229.4512490537718
 21
426.67147954931852
 31
0.0
  0
LINE
  5
1800
  8
0
 10
2232.4512490537718
 20
440.67147954931801
 30
0.0
 11
2232.4512490537718
 21
435.17147954931801
 31
0.0
  0
LINE
  5
1801
  8
0
 10
2231.4512490537718
 20
435.17147954931801
 30
0.0
 11
2241.4512490537718
 21
435.17147954931801
 31
0.0
  0
LINE
  5
1802
  8
0
 10
2232.4512490537718
 20
440.67147954931801
 30
0.0
 11
2240.4512490537718
 21
440.67147954931801
 31
0.0
  0
LINE
  5
1803
  8
0
 10
2230.4512490537718
 20
434.17147954931812
 30
0.0
 11
2230.4512490537718
 21
433.17147954931801
 31
0.0
  0
LINE
  5
1804
  8
0
 10
2242.4512490537718
 20
434.17147954931812
 30
0.0
 11
2242.4512490537718
 21
433.17147954931801
 31
0.0
  0
LINE
  5
1805
  8
0
 10
2242.9512490537718
 20
433.17147954931801
 30
0.0
 11
2229.9512490537718
 21
433.17147954931801
 31
0.0
  0
LINE
  5
1806
  8
0
 10
2242.9512490537718
 20
433.17147954931801
 30
0.0
 11
2242.9512490537718
 21
426.67147954931812
 31
0.0
  0
LINE
  5
1807
  8
0
 10
2229.9512490537718
 20
433.17147954931801
 30
0.0
 11
2229.9512490537718
 21
426.67147954931812
 31
0.0
  0
LINE
  5
1808
  8
0
 10
2240.4512490537718
 20
440.67147954931801
 30
0.0
 11
2240.4512490537718
 21
435.17147954931801
 31
0.0
  0
LINE
  5
1809
  8
0
  6
CENTER
 10
2236.4512490537718
 20
442.32281454931803
 30
0.0
 11
2236.4512490537718
 21
385.28296454931842
 31
0.0
  0
LINE
  5
180A
  8
0
 10
2233.2012490537718
 20
391.17147954931801
 30
0.0
 11
2239.7012490537718
 21
391.17147954931801
 31
0.0
  0
LINE
  5
180B
  8
0
 10
2229.9512490537718
 20
391.89637354931801
 30
0.0
 11
2229.9512490537718
 21
396.67147954931801
 31
0.0
  0
LINE
  5
180C
  8
0
 10
2242.9512490537718
 20
391.89637354931801
 30
0.0
 11
2242.9512490537718
 21
396.67147954931801
 31
0.0
  0
LINE
  5
180D
  8
0
 10
2229.4512490537718
 20
396.67147954931801
 30
0.0
 11
2243.4512490537718
 21
396.67147954931801
 31
0.0
  0
ARC
  5
180E
  8
0
 10
2231.4512490537718
 20
434.17147954931812
 30
0.0
 40
1.0
 50
89.999989999998988
 51
179.99999599996829
  0
ARC
  5
180F
  8
0
 10
2241.4512490537718
 20
434.17147954931812
 30
0.0
 40
1.0
 50
0.0
 51
90.000005008937407
  0
ARC
  5
1810
  8
0
 10
2239.7012490537718
 20
425.5234845493182
 30
0.0
 40
7.647994999999999
 50
64.852630000036257
 51
115.1473750000074
  0
ARC
  5
1811
  8
0
 10
2233.2012490537718
 20
425.5234845493182
 30
0.0
 40
7.647994999999999
 50
64.852630000036257
 51
115.147367999998
  0
ARC
  5
1812
  8
0
 10
2239.7012490537718
 20
434.31947454931827
 30
0.0
 40
7.647994999999999
 50
244.85263000003621
 51
295.1473699999637
  0
ARC
  5
1813
  8
0
 10
2233.2012490537718
 20
434.31947454931827
 30
0.0
 40
7.647994999999999
 50
244.85263000003621
 51
295.1473699999637
  0
ARC
  5
1814
  8
0
 10
2233.2012490537718
 20
398.81947454931827
 30
0.0
 40
7.6479945000000011
 50
244.85263000003621
 51
295.1473699999637
  0
ARC
  5
1815
  8
0
 10
2239.7012490537718
 20
398.81947454931827
 30
0.0
 40
7.6479945000000011
 50
244.85263000003621
 51
295.1473699999637
  0
LINE
  5
1816
  8
0
 10
2229.4512490537718
 20
396.67147954931801
 30
0.0
 11
2229.4512490537709
 21
408.67147954931801
 31
0.0
  0
LINE
  5
1817
  8
0
 10
2229.4512490537718
 20
426.67147954931852
 30
0.0
 11
2229.4512490537718
 21
414.67147954931801
 31
0.0
  0
LINE
  5
1818
  8
0
  6
CENTER
 10
2146.4512495769341
 20
313.67147954931761
 30
0.0
 11
2146.451249576935
 21
509.67147954931761
 31
0.0
  0
LINE
  5
1835
  8
0
  6
CENTER
 10
324.45124957693542
 20
-105.0000000000109
 30
0.0
 11
324.45124957693542
 21
-0.0000000000059117
 31
0.0
  0
LINE
  5
184B
  8
0
  6
CENTER
 10
324.45124957693452
 20
313.67147954931761
 30
0.0
 11
324.451249576934
 21
509.67147954931761
 31
0.0
  0
TEXT
  5
1858
  8
0
 10
805.68934481502959
 20
538.28139750375328
 30
0.0
 40
50.0
  1
2.5SX2000L-25AX1.5S
 72
     4
 11
1235.4512495769341
 21
563.28139750375328
 31
0.0
  0
LINE
  5
19C3
  8
0
  6
CENTER
 10
2128.4200266566781
 20
429.70270246957438
 30
0.0
 11
2100.8428621904031
 21
457.27986693584978
 31
0.0
  0
LINE
  5
19C5
  8
0
  6
CENTER
 10
2128.4200266566781
 20
393.64025662906079
 30
0.0
 11
2100.8428621904031
 21
366.06309216278532
 31
0.0
  0
LINE
  5
19C6
  8
0
  6
CENTER
 10
2164.4824724971918
 20
429.70270246957438
 30
0.0
 11
2192.0596369634668
 21
457.27986693584978
 31
0.0
  0
LINE
  5
19C9
  8
0
  6
CENTER
 10
2164.4824724971918
 20
393.64025662906079
 30
0.0
 11
2192.0596369634668
 21
366.06309216278532
 31
0.0
  0
LINE
  5
19CA
  8
0
 10
307.45124957693542
 20
-81.000000000010445
 30
0.0
 11
307.45124957693582
 21
-31.750000000000451
 31
0.0
  0
LINE
  5
19CB
  8
0
 10
341.45124957693542
 20
-81.000000000010445
 30
0.0
 11
341.45124957693582
 21
-31.750000000000451
 31
0.0
  0
ARC
  5
19CF
  8
AM_0_T3
 10
324.45124957693542
 20
-58.565340758596449
 30
0.0
 40
31.749999999994252
 50
57.62671402087048
 51
122.37328597912951
  0
LINE
  5
19D2
  8
0
 10
2208.9512495769341
 20
95.000000000003638
 30
0.0
 11
2208.9512495769341
 21
81.000000000003624
 31
0.0
  0
LINE
  5
19D3
  8
0
  6
CENTER
 10
2191.4512495769341
 20
104.0000000000045
 30
0.0
 11
2191.4512495769341
 21
71.000000000004547
 31
0.0
  0
LINE
  5
19D4
  8
0
  6
CENTER
 10
2101.4512495769341
 20
104.0000000000045
 30
0.0
 11
2101.4512495769341
 21
71.000000000004547
 31
0.0
  0
LINE
  5
19D5
  8
0
 10
2083.9512495769341
 20
81.000000000004533
 30
0.0
 11
2083.9512495769341
 21
95.000000000004533
 31
0.0
  0
LINE
  5
19D6
  8
0
 10
2083.9512495769341
 20
95.000000000004533
 30
0.0
 11
2208.9512495769341
 21
95.000000000003638
 31
0.0
  0
LINE
  5
19D7
  8
0
 10
2208.9512495769341
 20
81.000000000003624
 30
0.0
 11
2083.9512495769341
 21
81.000000000004533
 31
0.0
  0
LINE
  5
19DC
  8
0
  6
CENTER
 10
2146.4512495769341
 20
105.00000000000399
 30
0.0
 11
2146.4512495769341
 21
-0.0000000000009095
 31
0.0
  0
LINE
  5
19DD
  8
0
 10
2129.4512495769341
 20
81.000000000003624
 30
0.0
 11
2129.4512495769332
 21
31.74999999999363
 31
0.0
  0
LINE
  5
19DE
  8
0
 10
2163.4512495769341
 20
81.000000000003624
 30
0.0
 11
2163.4512495769332
 21
31.74999999999363
 31
0.0
  0
LINE
  5
19DF
  8
0
 10
1272.1512495769341
 20
31.749999999996358
 30
0.0
 11
2129.4512495769332
 21
31.74999999999363
 31
0.0
  0
LINE
  5
19E0
  8
0
 10
2163.4512495769332
 20
31.74999999999363
 30
0.0
 11
2228.701249576935
 21
31.74999999999363
 31
0.0
  0
ARC
  5
19E1
  8
0
 10
324.451249576934
 20
411.67147954931761
 30
0.0
 40
62.5
 50
30.530702338680658
 51
149.4692976613193
  0
ARC
  5
19E2
  8
0
  6
CENTER
 10
324.451249576934
 20
411.67147954931761
 30
0.0
 40
45.0
 50
44.874444031810746
 51
135.12555596818919
  0
ARC
  5
19E3
  8
0
 10
356.27105473032861
 20
443.49128470271211
 30
0.0
 40
9.5
 50
359.57899192954432
 51
180.4210080704556
  0
LINE
  5
19E4
  8
0
  6
CENTER
 10
342.48247249719037
 20
429.70270246957438
 30
0.0
 11
370.05963696346578
 21
457.27986693584978
 31
0.0
  0
ARC
  5
19E5
  8
0
 10
356.27105473032861
 20
379.851674395923
 30
0.0
 40
9.5
 50
179.57899192959641
 51
0.4210080704035343
  0
LINE
  5
19E6
  8
0
  6
CENTER
 10
342.48247249719037
 20
393.64025662906079
 30
0.0
 11
370.05963696346578
 21
366.06309216278532
 31
0.0
  0
LINE
  5
19E7
  8
0
  6
CENTER
 10
306.42002665667673
 20
429.70270246957438
 30
0.0
 11
278.84286219040132
 21
457.27986693584978
 31
0.0
  0
ARC
  5
19E8
  8
0
 10
292.63144442353951
 20
443.49128470271211
 30
0.0
 40
9.5
 50
359.57899192954432
 51
180.4210080704556
  0
ARC
  5
19E9
  8
0
 10
292.63144442353951
 20
379.851674395923
 30
0.0
 40
9.5
 50
179.57899192959641
 51
0.4210080704035343
  0
LINE
  5
19EA
  8
0
  6
CENTER
 10
306.42002665667673
 20
393.64025662906079
 30
0.0
 11
278.84286219040132
 21
366.06309216278532
 31
0.0
  0
ARC
  5
19EC
  8
0
  6
CENTER
 10
324.451249576934
 20
411.67147954931761
 30
0.0
 40
45.0
 50
224.87444403183829
 51
315.12555596816162
  0
ARC
  5
19ED
  8
0
 10
324.451249576934
 20
411.67147954931761
 30
0.0
 40
62.5
 50
210.53070233870301
 51
329.46929766129688
  0
LINE
  5
1A19
  8
0
 10
226.701249576934
 20
373.92147954930442
 30
0.0
 11
226.701249576934
 21
449.42147954931852
 31
0.0
  0
LINE
  5
1A1A
  8
0
 10
242.201249576934
 20
373.92147954930391
 30
0.0
 11
242.201249576934
 21
449.42147954931852
 31
0.0
  0
LINE
  5
1A1B
  8
0
 10
239.28948770280471
 20
365.92147954930482
 30
0.0
 11
239.28948770280471
 21
391.33820987084482
 31
0.0
  0
LINE
  5
1A1C
  8
0
 10
239.28948770280471
 20
435.17147954931761
 30
0.0
 11
239.28948770280471
 21
457.42147954931852
 31
0.0
  0
LINE
  5
1A1D
  8
0
 10
229.61300206029861
 20
365.92147954930482
 30
0.0
 11
229.61300471971381
 21
391.3382115220133
 31
0.0
  0
LINE
  5
1A1E
  8
0
 10
229.61300930609781
 20
435.17147954931761
 30
0.0
 11
229.6130116341705
 21
457.42147954931852
 31
0.0
  0
LINE
  5
1A1F
  8
AM_0_T3
 10
242.201249576934
 20
449.42147954931852
 30
0.0
 11
239.28948770280471
 21
457.42147954931852
 31
0.0
  0
LINE
  5
1A20
  8
AM_0_T3
 10
226.701249576934
 20
449.42147954931852
 30
0.0
 11
229.6130116341705
 21
457.42147954931852
 31
0.0
  0
LINE
  5
1A21
  8
AM_0_T3
 10
239.28948770280471
 20
457.42147954931852
 30
0.0
 11
229.6130116341705
 21
457.42147954931852
 31
0.0
  0
LINE
  5
1A22
  8
AM_0_T3
 10
242.201249576934
 20
373.92147954930391
 30
0.0
 11
239.28948770280471
 21
365.92147954930482
 31
0.0
  0
LINE
  5
1A23
  8
AM_0_T3
 10
226.701249576934
 20
373.92147954930442
 30
0.0
 11
229.6130116341705
 21
365.92147954930482
 31
0.0
  0
LINE
  5
1A24
  8
AM_0_T3
 10
239.28948770280471
 20
365.92147954930482
 30
0.0
 11
229.61300206029861
 21
365.92147954930482
 31
0.0
  0
LINE
  5
1A25
  8
0
 10
227.4512501000967
 20
396.67147954931801
 30
0.0
 11
227.4512501000967
 21
408.67147954931801
 31
0.0
  0
LINE
  5
1A26
  8
0
 10
227.4512501000967
 20
408.67147954931801
 30
0.0
 11
241.45125010009721
 21
408.67147954931801
 31
0.0
  0
LINE
  5
1A27
  8
0
 10
227.4512501000967
 20
426.67147954931812
 30
0.0
 11
227.4512501000967
 21
414.67147954931801
 31
0.0
  0
LINE
  5
1A28
  8
0
 10
227.4512501000967
 20
414.67147954931801
 30
0.0
 11
241.45125010009679
 21
414.67147954931801
 31
0.0
  0
LINE
  5
1A29
  8
0
 10
230.4512501000967
 20
414.67147954931801
 30
0.0
 11
230.4512501000967
 21
408.67147954931801
 31
0.0
  0
LINE
  5
1A2A
  8
0
 10
238.4512501000967
 20
414.67147954931801
 30
0.0
 11
238.4512501000967
 21
408.67147954931801
 31
0.0
  0
LINE
  5
1A2B
  8
0
 10
227.4512501000967
 20
426.67147954931812
 30
0.0
 11
241.45125010009679
 21
426.67147954931852
 31
0.0
  0
LINE
  5
1A2C
  8
0
 10
238.4512501000967
 20
440.67147954931801
 30
0.0
 11
238.4512501000967
 21
435.17147954931801
 31
0.0
  0
LINE
  5
1A2D
  8
0
 10
239.45125010009679
 20
435.17147954931801
 30
0.0
 11
229.4512501000967
 21
435.17147954931801
 31
0.0
  0
LINE
  5
1A2E
  8
0
 10
238.4512501000967
 20
440.67147954931801
 30
0.0
 11
230.4512501000967
 21
440.67147954931801
 31
0.0
  0
LINE
  5
1A2F
  8
0
 10
240.4512501000967
 20
434.17147954931812
 30
0.0
 11
240.4512501000967
 21
433.17147954931801
 31
0.0
  0
LINE
  5
1A30
  8
0
 10
228.4512501000967
 20
434.17147954931812
 30
0.0
 11
228.4512501000967
 21
433.17147954931801
 31
0.0
  0
LINE
  5
1A31
  8
0
 10
227.9512501000967
 20
433.17147954931801
 30
0.0
 11
240.9512501000967
 21
433.17147954931801
 31
0.0
  0
LINE
  5
1A32
  8
0
 10
227.9512501000967
 20
433.17147954931801
 30
0.0
 11
227.9512501000967
 21
426.67147954931812
 31
0.0
  0
LINE
  5
1A33
  8
0
 10
240.9512501000967
 20
433.17147954931801
 30
0.0
 11
240.9512501000967
 21
426.67147954931812
 31
0.0
  0
LINE
  5
1A34
  8
0
 10
230.4512501000967
 20
440.67147954931801
 30
0.0
 11
230.4512501000967
 21
435.17147954931801
 31
0.0
  0
LINE
  5
1A35
  8
0
  6
CENTER
 10
234.4512501000967
 20
442.32281454931803
 30
0.0
 11
234.4512501000967
 21
385.28296454931842
 31
0.0
  0
LINE
  5
1A36
  8
0
 10
237.7012501000967
 20
391.17147954931801
 30
0.0
 11
231.20125010009679
 21
391.17147954931801
 31
0.0
  0
LINE
  5
1A37
  8
0
 10
240.9512501000967
 20
391.89637354931801
 30
0.0
 11
240.9512501000967
 21
396.67147954931801
 31
0.0
  0
LINE
  5
1A38
  8
0
 10
227.9512501000967
 20
391.89637354931801
 30
0.0
 11
227.9512501000967
 21
396.67147954931801
 31
0.0
  0
LINE
  5
1A39
  8
0
 10
241.45125010009679
 20
396.67147954931801
 30
0.0
 11
227.4512501000967
 21
396.67147954931801
 31
0.0
  0
ARC
  5
1A3A
  8
0
 10
239.45125010009679
 20
434.17147954931812
 30
0.0
 40
1.0
 50
0.0000040000316687
 51
90.000010000001026
  0
ARC
  5
1A3B
  8
0
 10
229.4512501000967
 20
434.17147954931812
 30
0.0
 40
1.0
 50
89.999994991062593
 51
180.0
  0
ARC
  5
1A3C
  8
0
 10
231.20125010009679
 20
425.5234845493182
 30
0.0
 40
7.647994999999999
 50
64.852624999992557
 51
115.1473699999637
  0
ARC
  5
1A3D
  8
0
 10
237.7012501000967
 20
425.5234845493182
 30
0.0
 40
7.647994999999999
 50
64.852632000013784
 51
115.1473699999637
  0
ARC
  5
1A3E
  8
0
 10
231.20125010009679
 20
434.31947454931827
 30
0.0
 40
7.647994999999999
 50
244.85263000003621
 51
295.1473699999637
  0
ARC
  5
1A3F
  8
0
 10
237.7012501000967
 20
434.31947454931827
 30
0.0
 40
7.647994999999999
 50
244.85263000003621
 51
295.1473699999637
  0
ARC
  5
1A40
  8
0
 10
237.7012501000967
 20
398.81947454931827
 30
0.0
 40
7.6479945000000011
 50
244.85263000003621
 51
295.1473699999637
  0
ARC
  5
1A41
  8
0
 10
231.20125010009679
 20
398.81947454931827
 30
0.0
 40
7.6479945000000011
 50
244.85263000003621
 51
295.1473699999637
  0
LINE
  5
1A42
  8
0
 10
241.45125010009679
 20
396.67147954931801
 30
0.0
 11
241.45125010009721
 21
408.67147954931801
 31
0.0
  0
LINE
  5
1A43
  8
0
 10
241.45125010009679
 20
426.67147954931852
 30
0.0
 11
241.45125010009679
 21
414.67147954931801
 31
0.0
  0
ARC
  5
1A70
  8
AM_0_T3
 10
2146.4512495769341
 20
58.565340758589628
 30
0.0
 40
31.749999999994252
 50
237.6267140208594
 51
302.37328597914052
  0
LINE
  5
2490
  8
0
  6
CENTER
 10
2282.5999922979909
 20
411.67147954931352
 30
0.0
 11
188.30250685587899
 21
411.67147954931352
 31
0.0
  0
LINE
  5
2491
  8
0
 10
196.55786520459921
 20
-23.870285848448919
 30
0.0
 11
196.55786520459921
 21
13.570285848436461
 31
0.0
  0
LINE
  5
2492
  8
0
 10
191.45124957693449
 20
-30.40000000000645
 30
0.0
 11
191.45124957693449
 21
20.099999999993539
 31
0.0
  0
LINE
  5
2493
  8
0
 10
194.30124957693391
 20
-29.597345718003002
 30
0.0
 11
194.30124957693391
 21
19.29734571799008
 31
0.0
  0
LINE
  5
2494
  8
0
  6
CENTER
 10
188.30250685587859
 20
-5.1500000000064574
 30
0.0
 11
219.40627266781709
 21
-5.1500000000064574
 31
0.0
  0
LINE
  5
2495
  8
0
 10
197.9582801058036
 20
13.899999999993719
 30
0.0
 11
213.4512485769246
 21
13.89999999999417
 31
0.0
  0
ARC
  5
2496
  8
0
 10
197.9582801058036
 20
15.899999999993719
 30
0.0
 40
2.0
 50
200.0000000000181
 51
270.0
1001
GENIUS_GENOBJ-N-FIL_13
1002
{
1000
OWNER
1000
GEN
1002
}
1001
GENIUS_GENODEF_13
1002
{
1000
HIER
1070
     0
1002
}
1002
{
1000
MANEDIT
1070
     0
1002
}
1002
{
1000
NOSEL
1070
     0
1002
}
1002
{
1000
BEHIND
1070
     0
1002
}
1002
{
1000
OTHER
1070
     0
1002
}
1002
{
1000
REACTOR
1002
}
  0
LINE
  5
2497
  8
0
 10
191.45124957693449
 20
20.099999999993539
 30
0.0
 11
193.7410835463665
 21
20.099999999993539
 31
0.0
  0
LINE
  5
2498
  8
0
 10
194.4928376429948
 20
19.573616114654211
 30
0.0
 11
196.0788948642325
 21
15.21595971334227
 31
0.0
  0
ARC
  5
2499
  8
0
 10
193.7410835463665
 20
19.299999999993808
 30
0.0
 40
0.8
 50
20.000000000018179
 51
90.0
1001
GENIUS_GENOBJ-N-FIL_13
1002
{
1000
OWNER
1000
GEN
1002
}
1001
GENIUS_GENODEF_13
1002
{
1000
HIER
1070
     0
1002
}
1002
{
1000
MANEDIT
1070
     0
1002
}
1002
{
1000
NOSEL
1070
     0
1002
}
1002
{
1000
BEHIND
1070
     0
1002
}
1002
{
1000
OTHER
1070
     0
1002
}
1002
{
1000
REACTOR
1002
}
  0
LINE
  5
249A
  8
0
 10
197.9582801058036
 20
-24.200000000006181
 30
0.0
 11
213.4512485769246
 21
-24.200000000006181
 31
0.0
  0
ARC
  5
249B
  8
0
 10
197.9582801058036
 20
-26.200000000006181
 30
0.0
 40
2.0
 50
90.0
 51
159.99999999998181
1001
GENIUS_GENOBJ-N-FIL_13
1002
{
1000
OWNER
1000
GEN
1002
}
1001
GENIUS_GENODEF_13
1002
{
1000
HIER
1070
     0
1002
}
1002
{
1000
MANEDIT
1070
     0
1002
}
1002
{
1000
NOSEL
1070
     0
1002
}
1002
{
1000
BEHIND
1070
     0
1002
}
1002
{
1000
OTHER
1070
     0
1002
}
1002
{
1000
REACTOR
1002
}
  0
LINE
  5
249C
  8
0
 10
191.45124957693449
 20
-30.40000000000645
 30
0.0
 11
193.7410835463665
 21
-30.40000000000645
 31
0.0
  0
LINE
  5
249D
  8
0
 10
194.4928376429948
 20
-29.873616114666671
 30
0.0
 11
196.0788948642325
 21
-25.515959713354729
 31
0.0
  0
ARC
  5
249E
  8
0
 10
193.7410835463665
 20
-29.600000000006268
 30
0.0
 40
0.8
 50
270.0
 51
339.99999999998181
1001
GENIUS_GENOBJ-N-FIL_13
1002
{
1000
OWNER
1000
GEN
1002
}
1001
GENIUS_GENODEF_13
1002
{
1000
HIER
1070
     0
1002
}
1002
{
1000
MANEDIT
1070
     0
1002
}
1002
{
1000
NOSEL
1070
     0
1002
}
1002
{
1000
BEHIND
1070
     0
1002
}
1002
{
1000
OTHER
1070
     0
1002
}
1002
{
1000
REACTOR
1002
}
  0
LINE
  5
249F
  8
0
 10
2274.3446339492698
 20
23.87028584844256
 30
0.0
 11
2274.3446339492698
 21
-13.570285848442831
 31
0.0
  0
LINE
  5
24A0
  8
0
 10
2279.451249576935
 20
30.400000000000091
 30
0.0
 11
2279.451249576935
 21
-20.099999999999898
 31
0.0
  0
LINE
  5
24A1
  8
0
 10
2276.6012495769351
 20
29.597345717996632
 30
0.0
 11
2276.6012495769351
 21
-19.297345717996439
 31
0.0
  0
LINE
  5
24A2
  8
0
  6
CENTER
 10
2282.5999922979909
 20
5.1500000000000901
 30
0.0
 11
2251.4962264860519
 21
5.1500000000000901
 31
0.0
  0
LINE
  5
24A3
  8
0
 10
2272.944219048065
 20
-13.900000000000089
 30
0.0
 11
2257.4512505769449
 21
-13.90000000000054
 31
0.0
  0
ARC
  5
24A4
  8
0
 10
2272.944219048065
 20
-15.900000000000089
 30
0.0
 40
2.0
 50
20.000000000018179
 51
90.0
1001
GENIUS_GENOBJ-N-FIL_13
1002
{
1000
OWNER
1000
GEN
1002
}
1001
GENIUS_GENODEF_13
1002
{
1000
HIER
1070
     0
1002
}
1002
{
1000
MANEDIT
1070
     0
1002
}
1002
{
1000
NOSEL
1070
     0
1002
}
1002
{
1000
BEHIND
1070
     0
1002
}
1002
{
1000
OTHER
1070
     0
1002
}
1002
{
1000
REACTOR
1002
}
  0
LINE
  5
24A5
  8
0
 10
2279.451249576935
 20
-20.099999999999898
 30
0.0
 11
2277.1614156075029
 21
-20.099999999999898
 31
0.0
  0
LINE
  5
24A6
  8
0
 10
2276.4096615108751
 20
-19.573616114660581
 30
0.0
 11
2274.8236042896369
 21
-15.21595971334863
 31
0.0
  0
ARC
  5
24A7
  8
0
 10
2277.1614156075029
 20
-19.300000000000178
 30
0.0
 40
0.8
 50
200.0000000000181
 51
270.0
1001
GENIUS_GENOBJ-N-FIL_13
1002
{
1000
OWNER
1000
GEN
1002
}
1001
GENIUS_GENODEF_13
1002
{
1000
HIER
1070
     0
1002
}
1002
{
1000
MANEDIT
1070
     0
1002
}
1002
{
1000
NOSEL
1070
     0
1002
}
1002
{
1000
BEHIND
1070
     0
1002
}
1002
{
1000
OTHER
1070
     0
1002
}
1002
{
1000
REACTOR
1002
}
  0
LINE
  5
24A8
  8
0
 10
2272.944219048065
 20
24.199999999999822
 30
0.0
 11
2257.4512505769449
 21
24.199999999999822
 31
0.0
  0
ARC
  5
24A9
  8
0
 10
2272.944219048065
 20
26.199999999999811
 30
0.0
 40
2.0
 50
270.0
 51
339.99999999998181
1001
GENIUS_GENOBJ-N-FIL_13
1002
{
1000
OWNER
1000
GEN
1002
}
1001
GENIUS_GENODEF_13
1002
{
1000
HIER
1070
     0
1002
}
1002
{
1000
MANEDIT
1070
     0
1002
}
1002
{
1000
NOSEL
1070
     0
1002
}
1002
{
1000
BEHIND
1070
     0
1002
}
1002
{
1000
OTHER
1070
     0
1002
}
1002
{
1000
REACTOR
1002
}
  0
LINE
  5
24AA
  8
0
 10
2279.451249576935
 20
30.400000000000091
 30
0.0
 11
2277.1614156075029
 21
30.400000000000091
 31
0.0
  0
LINE
  5
24AB
  8
0
 10
2276.4096615108751
 20
29.873616114660312
 30
0.0
 11
2274.8236042896369
 21
25.515959713348359
 31
0.0
  0
ARC
  5
24AC
  8
0
 10
2277.1614156075029
 20
29.599999999999909
 30
0.0
 40
0.8
 50
90.0
 51
159.99999999998181
1001
GENIUS_GENOBJ-N-FIL_13
1002
{
1000
OWNER
1000
GEN
1002
}
1001
GENIUS_GENODEF_13
1002
{
1000
HIER
1070
     0
1002
}
1002
{
1000
MANEDIT
1070
     0
1002
}
1002
{
1000
NOSEL
1070
     0
1002
}
1002
{
1000
BEHIND
1070
     0
1002
}
1002
{
1000
OTHER
1070
     0
1002
}
1002
{
1000
REACTOR
1002
}
  0
LINE
  5
24AD
  8
0
 10
2274.3446339492698
 20
430.39176539775599
 30
0.0
 11
2274.3446339492698
 21
392.95119370087099
 31
0.0
  0
LINE
  5
24AE
  8
0
 10
2279.451249576935
 20
436.9214795493134
 30
0.0
 11
2279.451249576935
 21
386.42147954931352
 31
0.0
  0
LINE
  5
24AF
  8
0
 10
2276.6012495769351
 20
436.11882526731
 30
0.0
 11
2276.6012495769351
 21
387.22413383131692
 31
0.0
  0
LINE
  5
24B0
  8
0
 10
2272.944219048065
 20
392.62147954931328
 30
0.0
 11
2257.4512505769449
 21
392.62147954931328
 31
0.0
  0
ARC
  5
24B1
  8
0
 10
2272.944219048065
 20
390.62147954931328
 30
0.0
 40
2.0
 50
20.000000000018179
 51
90.0
1001
GENIUS_GENOBJ-N-FIL_13
1002
{
1000
OWNER
1000
GEN
1002
}
1001
GENIUS_GENODEF_13
1002
{
1000
HIER
1070
     0
1002
}
1002
{
1000
MANEDIT
1070
     0
1002
}
1002
{
1000
NOSEL
1070
     0
1002
}
1002
{
1000
BEHIND
1070
     0
1002
}
1002
{
1000
OTHER
1070
     0
1002
}
1002
{
1000
REACTOR
1002
}
  0
LINE
  5
24B2
  8
0
 10
2279.451249576935
 20
386.42147954931352
 30
0.0
 11
2277.1614156075029
 21
386.42147954931352
 31
0.0
  0
LINE
  5
24B3
  8
0
 10
2276.4096615108751
 20
386.9478634346533
 30
0.0
 11
2274.8236042896369
 21
391.30551983596519
 31
0.0
  0
ARC
  5
24B4
  8
0
 10
2277.1614156075029
 20
387.2214795493137
 30
0.0
 40
0.8
 50
200.0000000000181
 51
270.0
1001
GENIUS_GENOBJ-N-FIL_13
1002
{
1000
OWNER
1000
GEN
1002
}
1001
GENIUS_GENODEF_13
1002
{
1000
HIER
1070
     0
1002
}
1002
{
1000
MANEDIT
1070
     0
1002
}
1002
{
1000
NOSEL
1070
     0
1002
}
1002
{
1000
BEHIND
1070
     0
1002
}
1002
{
1000
OTHER
1070
     0
1002
}
1002
{
1000
REACTOR
1002
}
  0
LINE
  5
24B5
  8
0
 10
2272.944219048065
 20
430.7214795493137
 30
0.0
 11
2257.4512505769449
 21
430.7214795493137
 31
0.0
  0
ARC
  5
24B6
  8
0
 10
2272.944219048065
 20
432.72147954931359
 30
0.0
 40
2.0
 50
270.0
 51
339.99999999998181
1001
GENIUS_GENOBJ-N-FIL_13
1002
{
1000
OWNER
1000
GEN
1002
}
1001
GENIUS_GENODEF_13
1002
{
1000
HIER
1070
     0
1002
}
1002
{
1000
MANEDIT
1070
     0
1002
}
1002
{
1000
NOSEL
1070
     0
1002
}
1002
{
1000
BEHIND
1070
     0
1002
}
1002
{
1000
OTHER
1070
     0
1002
}
1002
{
1000
REACTOR
1002
}
  0
LINE
  5
24B7
  8
0
 10
2279.451249576935
 20
436.9214795493134
 30
0.0
 11
2277.1614156075029
 21
436.9214795493134
 31
0.0
  0
LINE
  5
24B8
  8
0
 10
2276.4096615108751
 20
436.39509566397368
 30
0.0
 11
2274.8236042896369
 21
432.03743926266168
 31
0.0
  0
ARC
  5
24B9
  8
0
 10
2277.1614156075029
 20
436.12147954931328
 30
0.0
 40
0.8
 50
90.0
 51
159.99999999998181
1001
GENIUS_GENOBJ-N-FIL_13
1002
{
1000
OWNER
1000
GEN
1002
}
1001
GENIUS_GENODEF_13
1002
{
1000
HIER
1070
     0
1002
}
1002
{
1000
MANEDIT
1070
     0
1002
}
1002
{
1000
NOSEL
1070
     0
1002
}
1002
{
1000
BEHIND
1070
     0
1002
}
1002
{
1000
OTHER
1070
     0
1002
}
1002
{
1000
REACTOR
1002
}
  0
LINE
  5
24BA
  8
0
 10
196.55786520459961
 20
430.39176539775599
 30
0.0
 11
196.55786520459961
 21
392.95119370087099
 31
0.0
  0
LINE
  5
24BB
  8
0
 10
191.45124957693491
 20
436.9214795493134
 30
0.0
 11
191.45124957693491
 21
386.42147954931352
 31
0.0
  0
LINE
  5
24BC
  8
0
 10
194.3012495769344
 20
436.11882526731
 30
0.0
 11
194.3012495769344
 21
387.22413383131692
 31
0.0
  0
LINE
  5
24BD
  8
0
 10
197.95828010580399
 20
392.62147954931328
 30
0.0
 11
213.45124857692511
 21
392.62147954931328
 31
0.0
  0
ARC
  5
24BE
  8
0
 10
197.95828010580399
 20
390.62147954931328
 30
0.0
 40
2.0
 50
90.0
 51
159.99999999998181
1001
GENIUS_GENOBJ-N-FIL_13
1002
{
1000
OWNER
1000
GEN
1002
}
1001
GENIUS_GENODEF_13
1002
{
1000
HIER
1070
     0
1002
}
1002
{
1000
MANEDIT
1070
     0
1002
}
1002
{
1000
NOSEL
1070
     0
1002
}
1002
{
1000
BEHIND
1070
     0
1002
}
1002
{
1000
OTHER
1070
     0
1002
}
1002
{
1000
REACTOR
1002
}
  0
LINE
  5
24BF
  8
0
 10
191.45124957693491
 20
386.42147954931352
 30
0.0
 11
193.74108354636701
 21
386.42147954931352
 31
0.0
  0
LINE
  5
24C0
  8
0
 10
194.4928376429952
 20
386.9478634346533
 30
0.0
 11
196.07889486423301
 21
391.30551983596519
 31
0.0
  0
ARC
  5
24C1
  8
0
 10
193.74108354636701
 20
387.2214795493137
 30
0.0
 40
0.8
 50
270.0
 51
339.99999999998181
1001
GENIUS_GENOBJ-N-FIL_13
1002
{
1000
OWNER
1000
GEN
1002
}
1001
GENIUS_GENODEF_13
1002
{
1000
HIER
1070
     0
1002
}
1002
{
1000
MANEDIT
1070
     0
1002
}
1002
{
1000
NOSEL
1070
     0
1002
}
1002
{
1000
BEHIND
1070
     0
1002
}
1002
{
1000
OTHER
1070
     0
1002
}
1002
{
1000
REACTOR
1002
}
  0
LINE
  5
24C2
  8
0
 10
197.95828010580399
 20
430.7214795493137
 30
0.0
 11
213.45124857692511
 21
430.7214795493137
 31
0.0
  0
ARC
  5
24C3
  8
0
 10
197.95828010580399
 20
432.72147954931359
 30
0.0
 40
2.0
 50
200.0000000000181
 51
270.0
1001
GENIUS_GENOBJ-N-FIL_13
1002
{
1000
OWNER
1000
GEN
1002
}
1001
GENIUS_GENODEF_13
1002
{
1000
HIER
1070
     0
1002
}
1002
{
1000
MANEDIT
1070
     0
1002
}
1002
{
1000
NOSEL
1070
     0
1002
}
1002
{
1000
BEHIND
1070
     0
1002
}
1002
{
1000
OTHER
1070
     0
1002
}
1002
{
1000
REACTOR
1002
}
  0
LINE
  5
24C4
  8
0
 10
191.45124957693491
 20
436.9214795493134
 30
0.0
 11
193.74108354636701
 21
436.9214795493134
 31
0.0
  0
LINE
  5
24C5
  8
0
 10
194.4928376429952
 20
436.39509566397368
 30
0.0
 11
196.07889486423301
 21
432.03743926266168
 31
0.0
  0
ARC
  5
24C6
  8
0
 10
193.74108354636701
 20
436.12147954931328
 30
0.0
 40
0.8
 50
20.000000000018179
 51
90.0
1001
GENIUS_GENOBJ-N-FIL_13
1002
{
1000
OWNER
1000
GEN
1002
}
1001
GENIUS_GENODEF_13
1002
{
1000
HIER
1070
     0
1002
}
1002
{
1000
MANEDIT
1070
     0
1002
}
1002
{
1000
NOSEL
1070
     0
1002
}
1002
{
1000
BEHIND
1070
     0
1002
}
1002
{
1000
OTHER
1070
     0
1002
}
1002
{
1000
REACTOR
1002
}
  0
LINE
  5
2504
  8
0
  6
CENTER
 10
2266.9419317621669
 20
0.0
 30
0.0
 11
203.96056739170211
 21
-0.0000000000063665
 31
0.0
  0
CIRCLE
  5
636C
  8
0
 10
2146.451249576935
 20
411.67147954931761
 30
0.0
 40
62.5
  0
CIRCLE
  5
636D
  8
0
  6
CENTER
 10
2146.451249576935
 20
411.67147954931761
 30
0.0
 40
45.0
  0
CIRCLE
  5
636E
  8
0
 10
2114.63144442354
 20
443.49128470271211
 30
0.0
 40
9.5
  0
CIRCLE
  5
636F
  8
0
 10
2114.63144442354
 20
379.851674395923
 30
0.0
 40
9.5
  0
CIRCLE
  5
6370
  8
0
 10
2178.2710547303291
 20
443.49128470271211
 30
0.0
 40
9.5
  0
CIRCLE
  5
6371
  8
0
 10
2178.2710547303291
 20
379.851674395923
 30
0.0
 40
9.5
  0
CIRCLE
  5
6372
  8
AM_0_T3
 10
2146.451249576935
 20
411.67147954931761
 30
0.0
 40
17.0
  0
LINE
  5
6631
  8
0
 10
2.9999999999995448
 20
-61.0
 30
0.0
 11
3.0
 21
-35.623904999999461
 31
0.0
  0
LINE
  5
6632
  8
0
 10
15.0
 20
-61.0
 30
0.0
 11
15.0
 21
-43.221088000000229
 31
0.0
  0
LINE
  5
6633
  8
0
 10
15.0
 20
-61.0
 30
0.0
 11
2.9999999999995448
 21
-61.0
 31
0.0
  0
LINE
  5
6634
  8
0
 10
-15.000000000000449
 20
-61.0
 30
0.0
 11
-15.000000000000449
 21
-43.221088000000229
 31
0.0
  0
LINE
  5
6635
  8
0
 10
-15.000000000000449
 20
-61.0
 30
0.0
 11
-3.0000000000004539
 21
-61.0
 31
0.0
  0
LINE
  5
6636
  8
0
 10
-3.0000000000004539
 20
-61.0
 30
0.0
 11
-3.0000000000004539
 21
-35.623904999999461
 31
0.0
  0
LINE
  5
6637
  8
0
 10
-3.0000000000004539
 20
-58.0
 30
0.0
 11
3.0
 21
-58.0
 31
0.0
  0
LINE
  5
6638
  8
0
 10
-3.0000000000004539
 20
-50.0
 30
0.0
 11
3.0
 21
-50.0
 31
0.0
  0
LINE
  5
6639
  8
0
 10
15.0
 20
61.0
 30
0.0
 11
3.0
 21
61.0
 31
0.0
  0
LINE
  5
663A
  8
0
 10
3.0
 20
61.0
 30
0.0
 11
3.0
 21
35.62390500000037
 31
0.0
  0
LINE
  5
663B
  8
0
 10
-15.0
 20
61.0
 30
0.0
 11
-3.0
 21
61.0
 31
0.0
  0
LINE
  5
663C
  8
0
 10
-3.0
 20
61.0
 30
0.0
 11
-3.0
 21
35.62390500000037
 31
0.0
  0
LINE
  5
663D
  8
0
 10
-3.0
 20
58.0
 30
0.0
 11
3.0
 21
58.0
 31
0.0
  0
LINE
  5
663E
  8
0
 10
-3.0
 20
50.0
 30
0.0
 11
3.0
 21
50.0
 31
0.0
  0
LINE
  5
663F
  8
0
 10
-15.0
 20
61.0
 30
0.0
 11
-15.0
 21
43.221088000000229
 31
0.0
  0
LINE
  5
6640
  8
0
 10
-29.0
 20
50.0
 30
0.0
 11
-23.5
 21
50.0
 31
0.0
  0
LINE
  5
6641
  8
0
 10
-23.5
 20
49.0
 30
0.0
 11
-23.5
 21
59.0
 31
0.0
  0
LINE
  5
6642
  8
0
 10
-29.0
 20
50.0
 30
0.0
 11
-29.0
 21
58.0
 31
0.0
  0
LINE
  5
6643
  8
0
 10
-22.5
 20
48.0
 30
0.0
 11
-21.499999999999989
 21
48.0
 31
0.0
  0
LINE
  5
6644
  8
0
 10
-22.5
 20
60.0
 30
0.0
 11
-21.499999999999989
 21
60.0
 31
0.0
  0
LINE
  5
6645
  8
0
 10
-21.499999999999989
 20
60.5
 30
0.0
 11
-21.499999999999989
 21
47.5
 31
0.0
  0
LINE
  5
6646
  8
0
 10
-21.499999999999989
 20
60.5
 30
0.0
 11
-15.0
 21
60.5
 31
0.0
  0
LINE
  5
6647
  8
0
 10
-21.499999999999989
 20
47.5
 30
0.0
 11
-15.0
 21
47.5
 31
0.0
  0
LINE
  5
6648
  8
0
 10
-29.0
 20
58.0
 30
0.0
 11
-23.5
 21
58.0
 31
0.0
  0
LINE
  5
6649
  8
0
  6
CENTER
 10
-30.65133500000001
 20
54.0
 30
0.0
 11
26.388514999999639
 21
54.0
 31
0.0
  0
LINE
  5
664A
  8
0
 10
20.5
 20
-50.75
 30
0.0
 11
20.5
 21
-57.25
 31
0.0
  0
LINE
  5
664B
  8
0
 10
19.775106000000051
 20
-47.5
 30
0.0
 11
15.0
 21
-47.5
 31
0.0
  0
LINE
  5
664C
  8
0
 10
19.775106000000051
 20
-60.5
 30
0.0
 11
15.0
 21
-60.5
 31
0.0
  0
LINE
  5
664D
  8
0
 10
-29.0
 20
-50.0
 30
0.0
 11
-23.500000000000451
 21
-50.0
 31
0.0
  0
LINE
  5
664E
  8
0
 10
-23.500000000000451
 20
-49.0
 30
0.0
 11
-23.500000000000451
 21
-59.0
 31
0.0
  0
LINE
  5
664F
  8
0
 10
-29.0
 20
-50.0
 30
0.0
 11
-29.0
 21
-58.0
 31
0.0
  0
LINE
  5
6650
  8
0
 10
-22.500000000000451
 20
-48.0
 30
0.0
 11
-21.500000000000451
 21
-48.0
 31
0.0
  0
LINE
  5
6651
  8
0
 10
-22.500000000000451
 20
-60.0
 30
0.0
 11
-21.500000000000451
 21
-60.0
 31
0.0
  0
LINE
  5
6652
  8
0
 10
-21.500000000000451
 20
-60.5
 30
0.0
 11
-21.500000000000451
 21
-47.5
 31
0.0
  0
LINE
  5
6653
  8
0
 10
-21.500000000000451
 20
-60.5
 30
0.0
 11
-15.000000000000449
 21
-60.5
 31
0.0
  0
LINE
  5
6654
  8
0
 10
-21.500000000000451
 20
-47.5
 30
0.0
 11
-15.000000000000449
 21
-47.5
 31
0.0
  0
LINE
  5
6655
  8
0
 10
-29.0
 20
-58.0
 30
0.0
 11
-23.500000000000451
 21
-58.0
 31
0.0
  0
LINE
  5
6656
  8
0
  6
CENTER
 10
-30.65133500000001
 20
-54.0
 30
0.0
 11
27.01125299999967
 21
-54.0
 31
0.0
  0
LINE
  5
6657
  8
0
 10
20.5
 20
50.75
 30
0.0
 11
20.5
 21
57.25
 31
0.0
  0
LINE
  5
6658
  8
0
 10
19.775106000000051
 20
47.5
 30
0.0
 11
15.0
 21
47.5
 31
0.0
  0
LINE
  5
6659
  8
0
 10
19.775106000000051
 20
60.5
 30
0.0
 11
15.0
 21
60.5
 31
0.0
  0
LINE
  5
665A
  8
0
 10
15.0
 20
43.221088000000229
 30
0.0
 11
15.0
 21
61.0
 31
0.0
  0
ARC
  5
665B
  8
0
 10
0.0
 20
0.0
 30
0.0
 40
45.75
 50
273.7597999999735
 51
90.0
  0
ARC
  5
665C
  8
0
 10
0.0
 20
0.0
 30
0.0
 40
35.75
 50
274.81369799996452
 51
85.186299999973102
  0
ARC
  5
665D
  8
0
 10
0.0
 20
0.0
 30
0.0
 40
37.75
 50
274.81369799996452
 51
90.0
  0
ARC
  5
665E
  8
0
 10
0.0
 20
0.0
 30
0.0
 40
35.75
 50
94.813700000026884
 51
265.18630399999182
  0
ARC
  5
665F
  8
0
 10
0.0
 20
0.0
 30
0.0
 40
37.75
 50
94.813700000026884
 51
265.18630399999182
  0
ARC
  5
6660
  8
0
 10
0.0
 20
0.0
 30
0.0
 40
45.75
 50
93.759799999973637
 51
266.24020199999478
  0
ARC
  5
6661
  8
0
 10
-22.5
 20
49.0
 30
0.0
 40
1.0
 50
179.99998999999889
 51
269.99999599996829
  0
ARC
  5
6662
  8
0
 10
-22.5
 20
59.0
 30
0.0
 40
1.0
 50
90.0
 51
180.00000500893739
  0
ARC
  5
6663
  8
0
 10
-13.85200500000019
 20
57.25
 30
0.0
 40
7.647994999999999
 50
154.8526300000417
 51
205.14737500001289
  0
ARC
  5
6664
  8
0
 10
-13.85200500000019
 20
50.75
 30
0.0
 40
7.647994999999999
 50
154.8526300000417
 51
205.14736799998619
  0
ARC
  5
6665
  8
0
 10
-22.647995000000261
 20
57.25
 30
0.0
 40
7.647994999999999
 50
334.8526300000417
 51
25.147369999958212
  0
ARC
  5
6666
  8
0
 10
-22.647995000000261
 20
50.75
 30
0.0
 40
7.647994999999999
 50
334.8526300000417
 51
25.147369999958212
  0
ARC
  5
6667
  8
0
 10
12.85200499999973
 20
-50.75
 30
0.0
 40
7.6479945000000011
 50
334.8526300000417
 51
25.147369999958212
  0
ARC
  5
6668
  8
0
 10
12.85200499999973
 20
-57.25
 30
0.0
 40
7.6479945000000011
 50
334.8526300000417
 51
25.147369999958212
  0
ARC
  5
6669
  8
0
 10
-22.500000000000451
 20
-49.0
 30
0.0
 40
1.0
 50
90.0
 51
180.00000500893739
  0
ARC
  5
666A
  8
0
 10
-22.500000000000451
 20
-59.0
 30
0.0
 40
1.0
 50
179.99998999999889
 51
269.99999599996829
  0
ARC
  5
666B
  8
0
 10
-13.85200500000019
 20
-57.25
 30
0.0
 40
7.647994999999999
 50
154.85261999999599
 51
205.14737199999391
  0
ARC
  5
666C
  8
0
 10
-13.85200500000019
 20
-50.75
 30
0.0
 40
7.647994999999999
 50
154.8526300000417
 51
205.14737199999391
  0
ARC
  5
666D
  8
0
 10
-22.647995000000261
 20
-57.25
 30
0.0
 40
7.647994999999999
 50
334.8526300000417
 51
25.147369999958212
  0
ARC
  5
666E
  8
0
 10
-22.647995000000261
 20
-50.75
 30
0.0
 40
7.647994999999999
 50
334.8526300000417
 51
25.147369999958212
  0
ARC
  5
666F
  8
0
 10
12.85200499999973
 20
50.75
 30
0.0
 40
7.6479945000000011
 50
334.8526300000417
 51
25.147369999958212
  0
ARC
  5
6670
  8
0
 10
12.85200499999973
 20
57.25
 30
0.0
 40
7.6479945000000011
 50
334.8526300000417
 51
25.147369999958212
  0
LINE
  5
6671
  8
0
  6
CENTER
 10
0.0
 20
-103.0000000000045
 30
0.0
 11
0.0
 21
103.0000000000049
 31
0.0
  0
LINE
  5
6672
  8
0
  6
CENTER
 10
-61.036160705144091
 20
0.0
 30
0.0
 11
61.036160705143622
 21
0.0
 31
0.0
  0
ARC
  5
6673
  8
AM_0_T3
 10
0.0
 20
0.0
 30
0.0
 40
27.999999999995229
 50
323.14996654720079
 51
216.85003345279901
  0
LINE
  5
6674
  8
0
 10
62.500000000000462
 20
95.000000000003169
 30
0.0
 11
62.500000000000462
 21
81.000000000003183
 31
0.0
  0
LINE
  5
6675
  8
0
  6
CENTER
 10
45.000000000000448
 20
104.00000000000399
 30
0.0
 11
45.000000000000448
 21
71.000000000004093
 31
0.0
  0
LINE
  5
6676
  8
0
  6
CENTER
 10
-44.999999999999538
 20
104.00000000000399
 30
0.0
 11
-44.999999999999538
 21
71.000000000004093
 31
0.0
  0
LINE
  5
6677
  8
0
 10
-62.499999999999538
 20
81.000000000004093
 30
0.0
 11
-62.499999999999538
 21
95.000000000004107
 31
0.0
  0
LINE
  5
6678
  8
0
 10
-62.499999999999538
 20
95.000000000004107
 30
0.0
 11
62.500000000000462
 21
95.000000000003169
 31
0.0
  0
LINE
  5
6679
  8
0
 10
62.500000000000462
 20
81.000000000003183
 30
0.0
 11
-62.499999999999538
 21
81.000000000004093
 31
0.0
  0
LINE
  5
667A
  8
0
 10
-16.999999999999542
 20
81.000000000003183
 30
0.0
 11
-16.999999999999542
 21
60.5
 31
0.0
  0
LINE
  5
667B
  8
0
 10
-16.999999999999542
 20
47.5
 30
0.0
 11
-16.999999999999542
 21
42.47425690933278
 31
0.0
  0
LINE
  5
667C
  8
0
 10
17.000000000000451
 20
81.000000000003183
 30
0.0
 11
17.000000000000451
 21
60.5
 31
0.0
  0
LINE
  5
667D
  8
0
 10
17.000000000000451
 20
47.5
 30
0.0
 11
17.000000000000451
 21
42.474256909332333
 31
0.0
  0
LINE
  5
667E
  8
0
 10
-62.5
 20
-95.000000000003638
 30
0.0
 11
-62.5
 21
-81.000000000003624
 31
0.0
  0
LINE
  5
667F
  8
0
  6
CENTER
 10
-45.0
 20
-104.0000000000045
 30
0.0
 11
-45.0
 21
-71.000000000004547
 31
0.0
  0
LINE
  5
6680
  8
0
  6
CENTER
 10
45.0
 20
-104.0000000000045
 30
0.0
 11
45.0
 21
-71.000000000004547
 31
0.0
  0
LINE
  5
6681
  8
0
 10
62.5
 20
-81.000000000004533
 30
0.0
 11
62.5
 21
-95.000000000004533
 31
0.0
  0
LINE
  5
6682
  8
0
 10
62.5
 20
-95.000000000004533
 30
0.0
 11
-62.5
 21
-95.000000000003638
 31
0.0
  0
LINE
  5
6683
  8
0
 10
-62.5
 20
-81.000000000003624
 30
0.0
 11
62.5
 21
-81.000000000004533
 31
0.0
  0
LINE
  5
6684
  8
0
 10
17.0
 20
-81.000000000003624
 30
0.0
 11
17.0
 21
-60.499999999999538
 31
0.0
  0
LINE
  5
6685
  8
0
 10
17.0
 20
-47.5
 30
0.0
 11
17.000000000000451
 21
-42.47425690933278
 31
0.0
  0
LINE
  5
6686
  8
0
 10
-17.0
 20
-81.000000000003624
 30
0.0
 11
-16.999999999999542
 21
-60.500000000000462
 31
0.0
  0
LINE
  5
6687
  8
0
 10
-16.999999999999542
 20
-47.500000000000448
 30
0.0
 11
-16.999999999999091
 21
-42.474256909333228
 31
0.0
  0
LINE
  5
6688
  8
0
  6
CENTER
 10
-34.204196319953553
 20
-5.1500000000000901
 30
0.0
 11
34.204196319953553
 21
-5.1500000000000901
 31
0.0
  0
CIRCLE
  5
6689
  8
AM_0_T3
 10
0.0
 20
-5.1500000000000901
 30
0.0
 40
25.25
  0
CIRCLE
  5
668A
  8
AM_0_T3
 10
0.0
 20
-5.1500000000000901
 30
0.0
 40
19.04999999999972
  0
ENDSEC
  0
EOF
