  0
SECTION
  2
HEADER
  9
$ACADVER
  1
AC1009
  9
$INSBASE
 10
0.0
 20
0.0
 30
0.0
  9
$EXTMIN
 10
-70.0
 20
-98.000000000000227
 30
0.0
  9
$EXTMAX
 10
2279.345812392206
 20
584.28139750375919
 30
0.0
  9
$LIMMIN
 10
0.0
 20
0.0
  9
$LIMMAX
 10
420.0
 20
297.0
  9
$ORTHOMODE
 70
     0
  9
$REGENMODE
 70
     1
  9
$FILLMODE
 70
     1
  9
$QTEXTMODE
 70
     0
  9
$MIRRTEXT
 70
     1
  9
$DRAGMODE
 70
     2
  9
$LTSCALE
 40
1.0
  9
$OSMODE
 70
    37
  9
$ATTMODE
 70
     1
  9
$TEXTSIZE
 40
73.985717453579113
  9
$TRACEWID
 40
1.0
  9
$TEXTSTYLE
  7
STANDARD
  9
$CLAYER
  8
0
  9
$CELTYPE
  6
BYLAYER
  9
$CECOLOR
 62
   256
  9
$DIMSCALE
 40
1.0
  9
$DIMASZ
 40
3.0
  9
$DIMEXO
 40
1.0
  9
$DIMDLI
 40
10.0
  9
$DIMRND
 40
0.0
  9
$DIMDLE
 40
0.0
  9
$DIMEXE
 40
1.0
  9
$DIMTP
 40
0.1
  9
$DIMTM
 40
0.1
  9
$DIMTXT
 40
30.0
  9
$DIMCEN
 40
0.0
  9
$DIMTSZ
 40
0.0
  9
$DIMTOL
 70
     0
  9
$DIMLIM
 70
     0
  9
$DIMTIH
 70
     0
  9
$DIMTOH
 70
     0
  9
$DIMSE1
 70
     0
  9
$DIMSE2
 70
     0
  9
$DIMTAD
 70
     3
  9
$DIMZIN
 70
     8
  9
$DIMBLK
  1
OPEN
  9
$DIMASO
 70
     1
  9
$DIMSHO
 70
     1
  9
$DIMPOST
  1

  9
$DIMAPOST
  1
"
  9
$DIMALT
 70
     0
  9
$DIMALTD
 70
     2
  9
$DIMALTF
 40
0.0393701
  9
$DIMLFAC
 40
1.0
  9
$DIMTOFL
 70
     1
  9
$DIMTVP
 40
0.0
  9
$DIMTIX
 70
     0
  9
$DIMSOXD
 70
     0
  9
$DIMSAH
 70
     0
  9
$DIMBLK1
  1

  9
$DIMBLK2
  1

  9
$DIMSTYLE
  2
TSK
  9
$DIMCLRD
 70
   256
  9
$DIMCLRE
 70
   256
  9
$DIMCLRT
 70
     2
  9
$DIMTFAC
 40
0.71
  9
$DIMGAP
 40
1.5
  9
$LUNITS
 70
     2
  9
$LUPREC
 70
     8
  9
$SKETCHINC
 40
1.0
  9
$FILLETRAD
 40
0.0
  9
$AUNITS
 70
     0
  9
$AUPREC
 70
     8
  9
$MENU
  1
.
  9
$ELEVATION
 40
0.0
  9
$PELEVATION
 40
0.0
  9
$THICKNESS
 40
0.0
  9
$LIMCHECK
 70
     0
  9
$BLIPMODE
 70
     0
  9
$CHAMFERA
 40
2.5
  9
$CHAMFERB
 40
2.5
  9
$SKPOLY
 70
     0
  9
$TDCREATE
 40
2454739.7204081588
  9
$TDUPDATE
 40
2454748.5622017239
  9
$TDINDWG
 40
0.2779821644
  9
$TDUSRTIMER
 40
0.2779821644
  9
$USRTIMER
 70
     1
  9
$ANGBASE
 50
0.0
  9
$ANGDIR
 70
     1
  9
$PDMODE
 70
     0
  9
$PDSIZE
 40
0.0
  9
$PLINEWID
 40
0.0
  9
$COORDS
 70
     1
  9
$SPLFRAME
 70
     0
  9
$SPLINETYPE
 70
     6
  9
$SPLINESEGS
 70
     8
  9
$ATTDIA
 70
     0
  9
$ATTREQ
 70
     1
  9
$HANDLING
 70
 22529
  9
$HANDSEED
  5
6B9E
  9
$SURFTAB1
 70
     6
  9
$SURFTAB2
 70
     6
  9
$SURFTYPE
 70
     6
  9
$SURFU
 70
     6
  9
$SURFV
 70
     6
  9
$UCSNAME
  2

  9
$UCSORG
 10
0.0
 20
0.0
 30
0.0
  9
$UCSXDIR
 10
1.0
 20
0.0
 30
0.0
  9
$UCSYDIR
 10
0.0
 20
1.0
 30
0.0
  9
$PUCSNAME
  2

  9
$PUCSORG
 10
0.0
 20
0.0
 30
0.0
  9
$PUCSXDIR
 10
1.0
 20
0.0
 30
0.0
  9
$PUCSYDIR
 10
0.0
 20
1.0
 30
0.0
  9
$USERI1
 70
     0
  9
$USERI2
 70
     0
  9
$USERI3
 70
     0
  9
$USERI4
 70
     0
  9
$USERI5
 70
     0
  9
$USERR1
 40
0.0
  9
$USERR2
 40
0.0
  9
$USERR3
 40
0.0
  9
$USERR4
 40
0.0
  9
$USERR5
 40
0.0
  9
$WORLDVIEW
 70
     1
  9
$SHADEDGE
 70
     3
  9
$SHADEDIF
 70
    70
  9
$TILEMODE
 70
     1
  9
$MAXACTVP
 70
    48
  9
$PLIMCHECK
 70
     0
  9
$PEXTMIN
 10
1.0000000000000000E+020
 20
1.0000000000000000E+020
 30
1.0000000000000000E+020
  9
$PEXTMAX
 10
-1.0000000000000000E+020
 20
-1.0000000000000000E+020
 30
-1.0000000000000000E+020
  9
$PLIMMIN
 10
0.0
 20
0.0
  9
$PLIMMAX
 10
420.0
 20
297.0
  9
$UNITMODE
 70
     0
  9
$VISRETAIN
 70
     1
  9
$PLINEGEN
 70
     0
  9
$PSLTSCALE
 70
     1
  0
ENDSEC
  0
SECTION
  2
TABLES
  0
TABLE
  2
VPORT
 70
     2
  0
VPORT
  2
*ACTIVE
 70
     0
 10
0.0
 20
0.0
 11
1.0
 21
1.0
 12
1154.7910246907379
 22
243.14266217318871
 13
0.0
 23
0.0
 14
2.5
 24
2.5
 15
10.0
 25
10.0
 16
0.0
 26
0.0
 36
1.0
 17
0.0
 27
0.0
 37
0.0
 40
1541.450439023622
 41
1.596774193548387
 42
50.0
 43
0.0
 44
0.0
 50
0.0
 51
0.0
 71
     0
 72
   100
 73
     1
 74
     3
 75
     0
 76
     0
 77
     0
 78
     0
  0
ENDTAB
  0
TABLE
  2
LTYPE
 70
     2
  0
LTYPE
  2
CONTINUOUS
 70
     0
  3
Solid line
 72
    65
 73
     0
 40
0.0
  0
LTYPE
  2
CENTER
 70
     0
  3
__ . __
 72
    65
 73
     4
 40
7.0
 49
4.0
 49
-1.0
 49
1.0
 49
-1.0
  0
ENDTAB
  0
TABLE
  2
LAYER
 70
     2
  0
LAYER
  2
0
 70
     0
 62
     7
  6
CONTINUOUS
  0
LAYER
  2
AM_0_T3
 70
     0
 62
     7
  6
CONTINUOUS
  0
ENDTAB
  0
TABLE
  2
STYLE
 70
     2
  0
STYLE
  2
STANDARD
 70
     0
 40
0.0
 41
0.7
 50
0.0
 71
     0
 42
73.985717453579113
  3
romans.shx
  4
bigfont.shx
  0
STYLE
  2
TSKDIM
 70
     0
 40
0.0
 41
0.75
 50
0.0
 71
     0
 42
4.0
  3
romans.shx
  4
EXTFONT.SHX
  0
ENDTAB
  0
TABLE
  2
VIEW
 70
     0
  0
ENDTAB
  0
TABLE
  2
UCS
 70
     0
  0
ENDTAB
  0
TABLE
  2
APPID
 70
    41
  0
APPID
  2
ACAD
 70
     0
  0
APPID
  2
MCAD_NO_VIS
 70
     0
  0
APPID
  2
ACAD_TEMP_GRAPHIC
 70
     0
  0
APPID
  2
ACATTRIBSERVICES
 70
     0
  0
APPID
  2
AD_DRAW
 70
     0
  0
APPID
  2
DESIGNERASSEMBLIES
 70
     0
  0
APPID
  2
ASURF_PCURVE_APPNAME
 70
     0
  0
APPID
  2
ACADM_DIM_EDIT
 70
     0
  0
APPID
  2
GENIUS_GENDIM_13
 70
     0
  0
APPID
  2
GENIUS_GENDTOL_13
 70
     0
  0
APPID
  2
GENIUS_GE3DTOL_13
 70
     0
  0
APPID
  2
AMG_3D2D_5_0
 70
     0
  0
APPID
  2
AMDT_DM_ADJ
 70
     0
  0
APPID
  2
CK_MATE-SERIES
 70
     0
  0
APPID
  2
GEVID1042077799
 70
     0
  0
APPID
  2
GEVMK
 70
     0
  0
APPID
  2
GEVDC
 70
     0
  0
APPID
  2
GENIUS_GENBH_13
 70
     0
  0
APPID
  2
GENIUS_GENOLIS_13
 70
     0
  0
APPID
  2
GENIUS_GENOENT_13
 70
     0
  0
APPID
  2
GENIUS_GENODEF_13
 70
     0
  0
APPID
  2
GENIUS_GENOBJ-NBEHI-BHF_13
 70
     0
  0
APPID
  2
GENIUS_GENOREF_13
 70
     0
  0
APPID
  2
GENIUS_GENOBJ-NBEHI-BHB_13
 70
     0
  0
APPID
  2
GEVID1042183772
 70
     0
  0
APPID
  2
GEVID1042183773
 70
     0
  0
APPID
  2
GEVID1042183774
 70
     0
  0
APPID
  2
DCO15
 70
     0
  0
APPID
  2
ACAD_DSTYLE_DIMARC_LENGTH_
 70
     0
  0
APPID
  2
ACAD_DSTYLE_DIMJOGGED_JOGA
 70
     0
  0
APPID
  2
ACAD_MLEADERVER
 70
     0
  0
APPID
  2
ACAD_DSTYLE_DIMJAG
 70
     0
  0
APPID
  2
ACAD_DSTYLE_DIMTALN
 70
     0
  0
APPID
  2
ACAD_PSEXT
 70
     0
  0
APPID
  2
ACAD_EXEMPT_FROM_CAD_STANDARDS
 70
     0
  0
APPID
  2
ACAD_DSTYLE_DIMINSPECT
 70
     0
  0
APPID
  2
ACAD_DSTYLE_DIMANGULAR_EXT
 70
     0
  0
APPID
  2
GENIUS_GENOBJ-N-FIL_13
 70
     0
  0
APPID
  2
ACAD_DSTYLE_DIM_LINETYPE
 70
     0
  0
APPID
  2
ACAD_DSTYLE_DIM_EXT1_LINETYPE
 70
     0
  0
APPID
  2
ACAD_DSTYLE_DIM_EXT2_LINETYPE
 70
     0
  0
ENDTAB
  0
TABLE
  2
DIMSTYLE
 70
     1
  0
DIMSTYLE
  2
TSK
 70
     0
  3

  4
"
  5
OPEN
  6

  7

 40
1.0
 41
3.0
 42
1.0
 43
10.0
 44
1.0
 45
0.0
 46
0.0
 47
0.1
 48
0.1
140
3.0
141
0.0
142
0.0
143
0.0393701
144
1.0
145
0.0
146
0.71
147
1.5
 71
     0
 72
     0
 73
     0
 74
     0
 75
     0
 76
     0
 77
     3
 78
     8
170
     0
171
     2
172
     1
173
     0
174
     0
175
     0
176
   256
177
   256
178
     2
  0
ENDTAB
  0
ENDSEC
  0
SECTION
  2
BLOCKS
  0
BLOCK
  8
0
  2
$MODEL_SPACE
 70
     0
 10
0.0
 20
0.0
 30
0.0
  3
$MODEL_SPACE
  1

  0
ENDBLK
  5
21
  8
0
  0
BLOCK
 67
     1
  8
0
  2
$PAPER_SPACE
 70
     0
 10
0.0
 20
0.0
 30
0.0
  3
$PAPER_SPACE
  1

  0
ENDBLK
  5
1D
 67
     1
  8
0
  0
BLOCK
  8
0
  2
_OPEN
 70
     0
 10
0.0
 20
0.0
 30
0.0
  3
_OPEN
  1

  0
LINE
  5
15A
  8
0
  6
BYBLOCK
 62
     0
 10
-1.0
 20
0.1666666666666666
 30
0.0
 11
0.0
 21
0.0
 31
0.0
  0
LINE
  5
15B
  8
0
  6
BYBLOCK
 62
     0
 10
-1.0
 20
-0.1666666666666666
 30
0.0
 11
0.0
 21
0.0
 31
0.0
  0
LINE
  5
15C
  8
0
  6
BYBLOCK
 62
     0
 10
0.0
 20
0.0
 30
0.0
 11
-1.0
 21
0.0
 31
0.0
  0
ENDBLK
  5
15E
  8
0
  0
ENDSEC
  0
SECTION
  2
ENTITIES
  0
LINE
  5
3507
  8
0
 10
1219.70124957693
 20
-37.499999999997492
 30
0.0
 11
1219.7012495769261
 21
37.500000000002267
 31
0.0
  0
LINE
  5
3508
  8
0
 10
1215.20124957693
 20
-37.499999999997492
 30
0.0
 11
1215.2012495769261
 21
37.500000000002267
 31
0.0
  0
LINE
  5
3509
  8
0
 10
1210.70124957693
 20
-37.499999999997492
 30
0.0
 11
1210.7012495769261
 21
37.500000000002267
 31
0.0
  0
LINE
  5
350A
  8
0
 10
1224.2012495769261
 20
-37.499999999997492
 30
0.0
 11
1224.2012495769261
 21
37.500000000002267
 31
0.0
  0
LINE
  5
350B
  8
0
 10
1228.70124957693
 20
-37.499999999997492
 30
0.0
 11
1228.70124957693
 21
37.500000000002267
 31
0.0
  0
LINE
  5
350C
  8
0
 10
1233.2012495769261
 20
-37.499999999997492
 30
0.0
 11
1233.2012495769261
 21
37.500000000002267
 31
0.0
  0
LINE
  5
350D
  8
0
 10
1198.7512495769261
 20
-31.040918148760738
 30
0.0
 11
1202.4804022224589
 21
-37.499999999997719
 31
0.0
  0
LINE
  5
350E
  8
0
 10
1202.4804022224589
 20
-37.499999999997719
 30
0.0
 11
1268.4220969313969
 21
-37.499999999997719
 31
0.0
  0
LINE
  5
350F
  8
0
 10
1198.7512495769261
 20
-31.040918148760738
 30
0.0
 11
1198.7512495769261
 21
31.040918148761651
 31
0.0
  0
LINE
  5
3510
  8
0
 10
1205.7512495769261
 20
-37.499999999997719
 30
0.0
 11
1205.7512495769261
 21
37.500000000002267
 31
0.0
  0
LINE
  5
3511
  8
0
 10
1198.7512495769261
 20
31.040918148761651
 30
0.0
 11
1202.4804022224589
 21
37.500000000002267
 31
0.0
  0
LINE
  5
3512
  8
0
 10
1202.4804022224589
 20
37.500000000002267
 30
0.0
 11
1268.4220969313969
 21
37.500000000002267
 31
0.0
  0
LINE
  5
3513
  8
0
  6
CENTER
 10
205.45124957693039
 20
0.0
 30
0.0
 11
2265.45124957693
 21
0.0
 31
0.0
  0
LINE
  5
3514
  8
0
 10
1202.4804022224589
 20
-37.499999999994081
 30
0.0
 11
1202.4804022224589
 21
37.500000000002267
 31
0.0
  0
LINE
  5
3515
  8
0
 10
1272.1512495769271
 20
-31.040918148760738
 30
0.0
 11
1268.4220969313969
 21
-37.499999999997719
 31
0.0
  0
LINE
  5
3516
  8
0
 10
1272.1512495769271
 20
-31.040918148760738
 30
0.0
 11
1272.1512495769271
 21
31.040918148761651
 31
0.0
  0
LINE
  5
3517
  8
0
 10
1272.1512495769271
 20
31.040918148761651
 30
0.0
 11
1268.4220969313969
 21
37.500000000002267
 31
0.0
  0
LINE
  5
3518
  8
0
 10
1268.4220969313969
 20
-37.499999999994081
 30
0.0
 11
1268.4220969313969
 21
37.500000000002267
 31
0.0
  0
LINE
  5
3519
  8
0
 10
1251.2012495769261
 20
-37.499999999997492
 30
0.0
 11
1251.2012495769261
 21
37.500000000002267
 31
0.0
  0
LINE
  5
351A
  8
0
 10
1255.7012495769261
 20
-37.499999999997492
 30
0.0
 11
1255.7012495769261
 21
37.500000000002267
 31
0.0
  0
LINE
  5
351B
  8
0
 10
1260.2012495769261
 20
-37.499999999997492
 30
0.0
 11
1260.2012495769261
 21
37.500000000002267
 31
0.0
  0
LINE
  5
351C
  8
0
 10
1246.7012495769261
 20
-37.499999999997492
 30
0.0
 11
1246.70124957693
 21
37.500000000002267
 31
0.0
  0
LINE
  5
351D
  8
0
 10
1242.2012495769229
 20
-37.499999999997492
 30
0.0
 11
1242.2012495769229
 21
37.500000000002267
 31
0.0
  0
LINE
  5
351E
  8
0
 10
1237.7012495769261
 20
-37.499999999997492
 30
0.0
 11
1237.70124957693
 21
37.500000000002267
 31
0.0
  0
LINE
  5
351F
  8
0
 10
1265.1512495769271
 20
-37.499999999997719
 30
0.0
 11
1265.1512495769271
 21
37.500000000002267
 31
0.0
  0
ARC
  5
3567
  8
0
 10
234.45124933850821
 20
-48.0
 30
0.0
 40
7.0
 50
132.20616791856131
 51
171.7867417394703
  0
ARC
  5
3568
  8
0
 10
234.45124933850821
 20
-48.0
 30
0.0
 40
7.0
 50
188.2132024012403
 51
231.7867959184548
  0
ARC
  5
3569
  8
0
 10
234.45124933850821
 20
-48.0
 30
0.0
 40
7.0
 50
248.21312248938511
 51
291.78687751061477
  0
ARC
  5
356A
  8
0
 10
234.45124933850821
 20
-48.0
 30
0.0
 40
7.0
 50
308.21320408154509
 51
351.78679759875962
  0
ARC
  5
356B
  8
0
 10
234.45124933850821
 20
-48.0
 30
0.0
 40
7.0
 50
8.2132582605297042
 51
47.793826811973183
  0
ARC
  5
356C
  8
0
 10
234.45124933850821
 20
48.0
 30
0.0
 40
7.0
 50
312.12875643080048
 51
351.7867417394703
  0
ARC
  5
356D
  8
0
 10
234.45124933850821
 20
48.0
 30
0.0
 40
7.0
 50
8.2132024012145912
 51
51.786795918454878
  0
ARC
  5
356E
  8
0
 10
234.45124933850821
 20
48.0
 30
0.0
 40
7.0
 50
68.2131224893851
 51
111.7868775106148
  0
ARC
  5
356F
  8
0
 10
234.45124933850821
 20
48.0
 30
0.0
 40
7.0
 50
128.21320408154509
 51
171.78679759875959
  0
LINE
  5
3572
  8
0
 10
1219.70124957693
 20
374.17147954932102
 30
0.0
 11
1219.7012495769261
 21
449.17147954932051
 31
0.0
  0
LINE
  5
3573
  8
0
 10
1215.20124957693
 20
374.17147954932102
 30
0.0
 11
1215.2012495769261
 21
449.17147954932051
 31
0.0
  0
LINE
  5
3574
  8
0
 10
1210.70124957693
 20
374.17147954932102
 30
0.0
 11
1210.7012495769261
 21
449.17147954932051
 31
0.0
  0
LINE
  5
3575
  8
0
 10
1224.2012495769261
 20
374.17147954932102
 30
0.0
 11
1224.2012495769261
 21
449.17147954932051
 31
0.0
  0
LINE
  5
3576
  8
0
 10
1228.70124957693
 20
374.17147954932102
 30
0.0
 11
1228.70124957693
 21
449.17147954932051
 31
0.0
  0
LINE
  5
3577
  8
0
 10
1233.2012495769261
 20
374.17147954932102
 30
0.0
 11
1233.2012495769261
 21
449.17147954932051
 31
0.0
  0
LINE
  5
3578
  8
0
 10
1198.7512495769261
 20
380.6305614005575
 30
0.0
 11
1202.4804022224589
 21
374.17147954932051
 31
0.0
  0
LINE
  5
3579
  8
0
 10
1202.4804022224589
 20
374.17147954932051
 30
0.0
 11
1268.4220969313969
 21
374.17147954932051
 31
0.0
  0
LINE
  5
357A
  8
0
 10
1198.7512495769261
 20
380.6305614005575
 30
0.0
 11
1198.7512495769261
 21
442.71239769807988
 31
0.0
  0
LINE
  5
357B
  8
0
 10
1205.7512495769261
 20
374.17147954932051
 30
0.0
 11
1205.7512495769261
 21
449.17147954932051
 31
0.0
  0
LINE
  5
357C
  8
0
 10
1198.7512495769261
 20
442.71239769807988
 30
0.0
 11
1202.4804022224589
 21
449.17147954932051
 31
0.0
  0
LINE
  5
357D
  8
0
 10
1202.4804022224589
 20
449.17147954932051
 30
0.0
 11
1268.4220969313969
 21
449.17147954932051
 31
0.0
  0
LINE
  5
357F
  8
0
 10
1202.4804022224589
 20
374.17147954932409
 30
0.0
 11
1202.4804022224589
 21
449.17147954932051
 31
0.0
  0
LINE
  5
3580
  8
0
 10
1272.1512495769271
 20
380.6305614005575
 30
0.0
 11
1268.4220969313969
 21
374.17147954932051
 31
0.0
  0
LINE
  5
3581
  8
0
 10
1272.1512495769271
 20
380.6305614005575
 30
0.0
 11
1272.1512495769271
 21
442.71239769807988
 31
0.0
  0
LINE
  5
3582
  8
0
 10
1272.1512495769271
 20
442.71239769807988
 30
0.0
 11
1268.4220969313969
 21
449.17147954932051
 31
0.0
  0
LINE
  5
3583
  8
0
 10
1268.4220969313969
 20
374.17147954932409
 30
0.0
 11
1268.4220969313969
 21
449.17147954932051
 31
0.0
  0
LINE
  5
3584
  8
0
 10
1251.2012495769261
 20
374.17147954932102
 30
0.0
 11
1251.2012495769261
 21
449.17147954932051
 31
0.0
  0
LINE
  5
3585
  8
0
 10
1255.7012495769261
 20
374.17147954932102
 30
0.0
 11
1255.7012495769261
 21
449.17147954932051
 31
0.0
  0
LINE
  5
3586
  8
0
 10
1260.2012495769261
 20
374.17147954932102
 30
0.0
 11
1260.2012495769261
 21
449.17147954932051
 31
0.0
  0
LINE
  5
3587
  8
0
 10
1246.7012495769261
 20
374.17147954932102
 30
0.0
 11
1246.70124957693
 21
449.17147954932051
 31
0.0
  0
LINE
  5
3588
  8
0
 10
1242.2012495769229
 20
374.17147954932102
 30
0.0
 11
1242.2012495769229
 21
449.17147954932051
 31
0.0
  0
LINE
  5
3589
  8
0
 10
1237.7012495769261
 20
374.17147954932102
 30
0.0
 11
1237.70124957693
 21
449.17147954932051
 31
0.0
  0
LINE
  5
358A
  8
0
 10
1265.1512495769271
 20
374.17147954932051
 30
0.0
 11
1265.1512495769271
 21
449.17147954932051
 31
0.0
  0
ARC
  5
358B
  8
0
 10
2241.45124957693
 20
432.17147954931733
 30
0.0
 40
1.0
 50
0.0
 51
90.000005008833185
  0
ARC
  5
358C
  8
0
 10
2231.45124957693
 20
432.17147954931733
 30
0.0
 40
1.0
 50
89.999989999842668
 51
179.99999600002039
  0
ARC
  5
358D
  8
0
 10
2233.20124957693
 20
423.52348454931803
 30
0.0
 40
7.6479949999999981
 50
64.852620000101439
 51
115.14737199976651
  0
ARC
  5
358E
  8
0
 10
2239.70124957693
 20
423.52348454931803
 30
0.0
 40
7.6479949999999981
 50
64.852630000094493
 51
115.14737199976651
  0
ARC
  5
358F
  8
0
 10
2233.20124957693
 20
432.31947454931668
 30
0.0
 40
7.6479949999999981
 50
244.85263000009451
 51
295.14736999990549
  0
ARC
  5
3590
  8
0
 10
2239.70124957693
 20
432.31947454931668
 30
0.0
 40
7.6479949999999981
 50
244.85263000009451
 51
295.14736999990549
  0
ARC
  5
3591
  8
0
 10
2239.70124957693
 20
400.81947454931668
 30
0.0
 40
7.647994500000002
 50
244.85263000009451
 51
295.14736999990549
  0
ARC
  5
3592
  8
0
 10
2233.20124957693
 20
400.81947454931668
 30
0.0
 40
7.647994500000002
 50
244.85263000009451
 51
295.14736999990549
  0
ARC
  5
3593
  8
AM_0_T3
 10
319.45124957692673
 20
-32.793916418242588
 30
0.0
 40
25.400000000000109
 50
16.923767291406509
 51
163.07623270859349
  0
ARC
  5
3594
  8
0
 10
234.45124933850821
 20
48.0
 30
0.0
 40
7.0
 50
188.21325826052961
 51
227.8712488313713
  0
LINE
  5
3595
  8
0
 10
2229.20124957693
 20
386.27147954931911
 30
0.0
 11
2216.6803841718311
 21
386.2714795493186
 31
0.0
  0
LINE
  5
3596
  8
0
 10
2086.2221149820248
 20
386.2714795493186
 30
0.0
 11
1272.1108793763119
 21
386.27147954931911
 31
0.0
  0
LINE
  5
3597
  8
0
 10
2229.20124957693
 20
437.07147954931833
 30
0.0
 11
2216.6803841718311
 21
437.07147954931833
 31
0.0
  0
LINE
  5
3598
  8
0
 10
2086.2221149820248
 20
437.07147954931833
 30
0.0
 11
1272.1108793763119
 21
437.07147954931833
 31
0.0
  0
LINE
  5
3599
  8
0
 10
2257.4512495769268
 20
386.32147954931878
 30
0.0
 11
2257.45124957693
 21
437.02147954931729
 31
0.0
  0
LINE
  5
359A
  8
0
 10
2243.70124957693
 20
386.32147954931833
 30
0.0
 11
2257.4512495769268
 21
386.32147954931878
 31
0.0
  0
LINE
  5
359B
  8
0
 10
2243.7012495769259
 20
437.02147954931729
 30
0.0
 11
2257.45124957693
 21
437.02147954931729
 31
0.0
  0
LINE
  5
359C
  8
0
 10
2229.20124957693
 20
380.81698230823588
 30
0.0
 11
2229.20124957693
 21
442.67147954931738
 31
0.0
  0
LINE
  5
359D
  8
0
 10
2243.70124957693
 20
380.81698359366982
 30
0.0
 11
2243.70124957693
 21
442.67147954931738
 31
0.0
  0
LINE
  5
359E
  8
0
 10
2231.7490412167931
 20
449.67147954931738
 30
0.0
 11
2231.7503921347702
 21
433.17147954931738
 31
0.0
  0
LINE
  5
359F
  8
0
 10
2231.7536557685162
 20
393.30972807970301
 30
0.0
 11
2231.7552636268442
 21
373.67148005877169
 31
0.0
  0
LINE
  5
35A0
  8
0
 10
2241.1534579370668
 20
449.67147954931738
 30
0.0
 11
2241.1521070190861
 21
433.17147954931738
 31
0.0
  0
LINE
  5
35A1
  8
0
 10
2241.148843385341
 20
393.30972807970261
 30
0.0
 11
2241.1472355270121
 21
373.67148005877169
 31
0.0
  0
LINE
  5
35A2
  8
0
 10
2229.45124957693
 20
408.67147954931738
 30
0.0
 11
2243.45124957693
 21
408.67147954931738
 31
0.0
  0
LINE
  5
35A3
  8
0
 10
2229.45124957693
 20
398.67147954931738
 30
0.0
 11
2243.45124957693
 21
398.67147954931738
 31
0.0
  0
LINE
  5
35A4
  8
0
 10
2229.45124957693
 20
414.67147954931733
 30
0.0
 11
2243.45124957693
 21
414.67147954931733
 31
0.0
  0
LINE
  5
35A5
  8
0
 10
2229.45124957693
 20
424.67147954931738
 30
0.0
 11
2243.45124957693
 21
424.67147954931738
 31
0.0
  0
LINE
  5
35A6
  8
0
 10
2229.45124957693
 20
398.67147954931738
 30
0.0
 11
2229.45124957693
 21
408.67147954931738
 31
0.0
  0
LINE
  5
35A7
  8
0
 10
2229.45124957693
 20
424.67147954931738
 30
0.0
 11
2229.45124957693
 21
414.67147954931733
 31
0.0
  0
LINE
  5
35A8
  8
0
 10
2232.45124957693
 20
414.67147954931733
 30
0.0
 11
2232.45124957693
 21
408.67147954931738
 31
0.0
  0
LINE
  5
35A9
  8
0
 10
2240.45124957693
 20
414.67147954931733
 30
0.0
 11
2240.45124957693
 21
408.67147954931738
 31
0.0
  0
LINE
  5
35AA
  8
0
 10
2240.45124957693
 20
438.67147954931738
 30
0.0
 11
2240.45124957693
 21
433.17147954931738
 31
0.0
  0
LINE
  5
35AB
  8
0
 10
2241.45124957693
 20
433.17147954931738
 30
0.0
 11
2231.45124957693
 21
433.17147954931738
 31
0.0
  0
LINE
  5
35AC
  8
0
 10
2240.45124957693
 20
438.67147954931738
 30
0.0
 11
2232.45124957693
 21
438.67147954931738
 31
0.0
  0
LINE
  5
35AD
  8
0
 10
2242.45124957693
 20
432.17147954931733
 30
0.0
 11
2242.45124957693
 21
431.17147954931733
 31
0.0
  0
LINE
  5
35AE
  8
0
 10
2230.45124957693
 20
432.17147954931733
 30
0.0
 11
2230.45124957693
 21
431.17147954931733
 31
0.0
  0
LINE
  5
35AF
  8
0
 10
2229.95124957693
 20
431.17147954931733
 30
0.0
 11
2242.95124957693
 21
431.17147954931733
 31
0.0
  0
LINE
  5
35B0
  8
0
 10
2229.95124957693
 20
431.17147954931733
 30
0.0
 11
2229.95124957693
 21
424.67147954931738
 31
0.0
  0
LINE
  5
35B1
  8
0
 10
2242.95124957693
 20
431.17147954931733
 30
0.0
 11
2242.95124957693
 21
424.67147954931738
 31
0.0
  0
LINE
  5
35B2
  8
0
 10
2232.45124957693
 20
438.67147954931738
 30
0.0
 11
2232.45124957693
 21
433.17147954931738
 31
0.0
  0
LINE
  5
35B3
  8
0
  6
CENTER
 10
2236.45124957693
 20
440.32281454931598
 30
0.0
 11
2236.45124957693
 21
389.8437535493178
 31
0.0
  0
LINE
  5
35B4
  8
0
 10
2239.70124957693
 20
393.17147954931733
 30
0.0
 11
2233.20124957693
 21
393.17147954931733
 31
0.0
  0
LINE
  5
35B5
  8
0
 10
2242.95124957693
 20
393.89637354931642
 30
0.0
 11
2242.95124957693
 21
398.67147954931738
 31
0.0
  0
LINE
  5
35B6
  8
0
 10
2229.95124957693
 20
393.89637354931642
 30
0.0
 11
2229.95124957693
 21
398.67147954931738
 31
0.0
  0
LINE
  5
35B7
  8
0
 10
2243.45124957693
 20
398.67147954931738
 30
0.0
 11
2243.45124957693
 21
408.67147954931738
 31
0.0
  0
LINE
  5
35B8
  8
0
 10
2243.45124957693
 20
424.67147954931738
 30
0.0
 11
2243.45124957693
 21
414.67147954931733
 31
0.0
  0
LINE
  5
35B9
  8
AM_0_T3
 10
2231.7490412167931
 20
449.67147954931738
 30
0.0
 11
2241.1534579370668
 21
449.67147954931738
 31
0.0
  0
LINE
  5
35BA
  8
AM_0_T3
 10
2229.20124957693
 20
442.67147954931738
 30
0.0
 11
2231.7490412167931
 21
449.67147954931738
 31
0.0
  0
LINE
  5
35BB
  8
AM_0_T3
 10
2241.1534579370668
 20
449.67147954931738
 30
0.0
 11
2243.70124957693
 21
442.67147954931738
 31
0.0
  0
LINE
  5
35BC
  8
AM_0_T3
 10
2231.7490412167931
 20
373.6714795493192
 30
0.0
 11
2241.1534579370668
 21
373.6714795493192
 31
0.0
  0
LINE
  5
35BD
  8
AM_0_T3
 10
2229.20124957693
 20
380.6714795493192
 30
0.0
 11
2231.7490412167931
 21
373.6714795493192
 31
0.0
  0
LINE
  5
35BE
  8
AM_0_T3
 10
2241.1534579370668
 20
373.6714795493192
 30
0.0
 11
2243.70124957693
 21
380.6714795493192
 31
0.0
  0
LINE
  5
35BF
  8
0
  6
CENTER
 10
2174.7857733560809
 20
388.33695577016192
 30
0.0
 11
2202.3629378223591
 21
360.7597913038864
 31
0.0
  0
LINE
  5
35C0
  8
0
  6
CENTER
 10
2174.7857733560809
 20
435.0060033284737
 30
0.0
 11
2202.3629378223591
 21
462.58316779474922
 31
0.0
  0
LINE
  5
35C1
  8
0
  6
CENTER
 10
2128.1167257977718
 20
388.33695577016192
 30
0.0
 11
2100.539561331494
 21
360.7597913038864
 31
0.0
  0
LINE
  5
35C2
  8
0
  6
CENTER
 10
2128.1167257977718
 20
435.0060033284737
 30
0.0
 11
2100.539561331494
 21
462.58316779474922
 31
0.0
  0
LINE
  5
35C3
  8
0
 10
249.4512495769267
 20
-73.999999999999773
 30
0.0
 11
389.45124957692678
 21
-73.999999999999773
 31
0.0
  0
LINE
  5
35C4
  8
0
 10
241.70124957692309
 20
25.399999999999629
 30
0.0
 11
1198.791619777541
 21
25.399999999999402
 31
0.0
  0
LINE
  5
35C5
  8
0
 10
241.70124957692309
 20
-25.399999999999629
 30
0.0
 11
295.15124957692751
 21
-25.399999999999629
 31
0.0
  0
LINE
  5
35C6
  8
0
 10
343.75124957692969
 20
-25.399999999999629
 30
0.0
 11
1198.791619777541
 21
-25.39999999999986
 31
0.0
  0
LINE
  5
35C7
  8
0
 10
213.4512495769267
 20
25.350000000000129
 30
0.0
 11
213.4512495769267
 21
-25.349999999998541
 31
0.0
  0
LINE
  5
35C8
  8
0
 10
227.20124957692681
 20
25.35000000000036
 30
0.0
 11
213.4512495769267
 21
25.350000000000129
 31
0.0
  0
LINE
  5
35C9
  8
0
 10
227.20124957692681
 20
-25.349999999998541
 30
0.0
 11
213.4512495769267
 21
-25.349999999998541
 31
0.0
  0
LINE
  5
35CA
  8
0
 10
238.2040257385087
 20
-54.49999600000001
 30
0.0
 11
230.69847153850779
 21
-54.49999600000001
 31
0.0
  0
LINE
  5
35CB
  8
0
 10
230.6984723385066
 20
-54.499999000000123
 30
0.0
 11
226.9456951385072
 21
-47.999998000000232
 31
0.0
  0
LINE
  5
35CC
  8
0
 10
226.94569453850991
 20
-47.999998000000232
 30
0.0
 11
230.69847163850861
 21
-41.499996999999887
 31
0.0
  0
LINE
  5
35CD
  8
0
 10
230.69847153850779
 20
-41.5
 30
0.0
 11
238.2040257385087
 21
-41.5
 31
0.0
  0
LINE
  5
35CE
  8
0
 10
241.95680413850641
 20
-47.999998000000232
 30
0.0
 11
238.20402703850769
 21
-41.499996999999887
 31
0.0
  0
LINE
  5
35CF
  8
0
 10
238.20402633850969
 20
-54.499999000000123
 30
0.0
 11
241.95680353850909
 21
-47.999998000000232
 31
0.0
  0
LINE
  5
35D0
  8
0
 10
230.69847293850759
 20
54.49999600000001
 30
0.0
 11
238.20402713850851
 21
54.49999600000001
 31
0.0
  0
LINE
  5
35D1
  8
0
 10
238.20402633850969
 20
54.499999000000123
 30
0.0
 11
241.95680353850909
 21
47.999997999999771
 31
0.0
  0
LINE
  5
35D2
  8
0
 10
241.95680413850641
 20
47.999997999999771
 30
0.0
 11
238.20402703850769
 21
41.499996999999887
 31
0.0
  0
LINE
  5
35D3
  8
0
 10
226.94569453850991
 20
47.999997999999771
 30
0.0
 11
230.69847163850861
 21
41.499996999999887
 31
0.0
  0
LINE
  5
35D4
  8
0
 10
230.6984723385066
 20
54.499999000000123
 30
0.0
 11
226.9456951385072
 21
47.999997999999771
 31
0.0
  0
LINE
  5
35D5
  8
0
 10
238.20402713850851
 20
41.5
 30
0.0
 11
230.69847293850759
 21
41.5
 31
0.0
  0
LINE
  5
35D6
  8
0
  6
CENTER
 10
244.45124933850821
 20
48.0
 30
0.0
 11
224.45124933850809
 21
48.0
 31
0.0
  0
LINE
  5
35D7
  8
0
  6
CENTER
 10
234.4512491000896
 20
58.0
 30
0.0
 11
234.4512491000896
 21
38.0
 31
0.0
  0
LINE
  5
35D8
  8
0
  6
CENTER
 10
244.45124933850821
 20
-48.0
 30
0.0
 11
224.45124933850809
 21
-48.0
 31
0.0
  0
LINE
  5
35D9
  8
0
  6
CENTER
 10
234.4512495769267
 20
-38.0
 30
0.0
 11
234.4512495769267
 21
-58.0
 31
0.0
  0
LINE
  5
35DA
  8
0
 10
241.70124957692681
 20
30.85449724108275
 30
0.0
 11
241.70124957692681
 21
-30.854497241083202
 31
0.0
  0
LINE
  5
35DB
  8
0
 10
227.20124957692681
 20
30.854495955648868
 30
0.0
 11
227.20124957692681
 21
-30.854495955648868
 31
0.0
  0
LINE
  5
35DC
  8
0
 10
239.15385214921471
 20
-42.814874465865159
 30
0.0
 11
239.14684183466301
 21
42.808525150782309
 31
0.0
  0
LINE
  5
35DD
  8
0
 10
229.74864700467509
 20
-42.814874033369499
 30
0.0
 11
229.75565731915771
 21
42.80852471952312
 31
0.0
  0
LINE
  5
35DE
  8
0
 10
239.15344822632679
 20
-37.881393849751468
 30
0.0
 11
241.70124957692681
 21
-30.854497241083202
 31
0.0
  0
LINE
  5
35DF
  8
0
 10
229.7490509331837
 20
-37.88139362553283
 30
0.0
 11
227.20124957692681
 21
-30.854495955648868
 31
0.0
  0
LINE
  5
35E0
  8
0
 10
239.15327021203839
 20
-35.707142142714467
 30
0.0
 11
229.74922894181501
 21
-35.707142142714467
 31
0.0
  0
LINE
  5
35E1
  8
0
 10
239.15344822632679
 20
37.881393849751468
 30
0.0
 11
241.70124957692681
 21
30.85449724108275
 31
0.0
  0
LINE
  5
35E2
  8
0
 10
229.7490509331837
 20
37.88139362553283
 30
0.0
 11
227.20124957692681
 21
30.854495955648868
 31
0.0
  0
LINE
  5
35E3
  8
0
 10
239.15327021203839
 20
35.707142142714019
 30
0.0
 11
229.74922894181501
 21
35.707142142714019
 31
0.0
  0
LINE
  5
35E4
  8
0
 10
343.751249576926
 20
-73.999999999999304
 30
0.0
 11
343.75124957692969
 21
-25.399999999999629
 31
0.0
  0
LINE
  5
35E5
  8
0
 10
389.45124957692678
 20
-89.999999999999758
 30
0.0
 11
249.4512495769267
 21
-89.999999999999758
 31
0.0
  0
LINE
  5
35E6
  8
0
 10
389.45124957692678
 20
-73.999999999999773
 30
0.0
 11
389.45124957692678
 21
-89.999999999999758
 31
0.0
  0
LINE
  5
35E7
  8
0
  6
CENTER
 10
371.95124957692673
 20
-97.999999999999773
 30
0.0
 11
371.95124957692673
 21
-63.999999999999773
 31
0.0
  0
LINE
  5
35E8
  8
0
 10
295.15124957692751
 20
-73.999999999999304
 30
0.0
 11
295.15124957692751
 21
-25.399999999999629
 31
0.0
  0
LINE
  5
35E9
  8
0
  6
CENTER
 10
266.95124957692673
 20
-97.999999999999773
 30
0.0
 11
266.95124957692673
 21
-63.999999999999773
 31
0.0
  0
LINE
  5
35EA
  8
0
 10
249.4512495769267
 20
-89.999999999999758
 30
0.0
 11
249.4512495769267
 21
-73.999999999999773
 31
0.0
  0
ARC
  5
35EB
  8
0
 10
229.4512495769267
 20
432.17147954931733
 30
0.0
 40
1.0
 50
89.999994991166815
 51
180.0
  0
ARC
  5
35EC
  8
0
 10
239.45124957692681
 20
432.17147954931733
 30
0.0
 40
1.0
 50
0.0000039999795585
 51
90.000010000157346
  0
ARC
  5
35ED
  8
0
 10
237.7012495769267
 20
423.52348454931803
 30
0.0
 40
7.6479949999999981
 50
64.852628000238994
 51
115.147379999893
  0
ARC
  5
35EE
  8
0
 10
231.20124957692681
 20
423.52348454931803
 30
0.0
 40
7.6479949999999981
 50
64.852628000238994
 51
115.14736999989989
  0
ARC
  5
35EF
  8
0
 10
237.7012495769267
 20
432.31947454931668
 30
0.0
 40
7.6479949999999981
 50
244.85263000009999
 51
295.14736999989992
  0
ARC
  5
35F0
  8
0
 10
231.20124957692681
 20
432.31947454931668
 30
0.0
 40
7.6479949999999981
 50
244.85263000009999
 51
295.14736999989992
  0
ARC
  5
35F1
  8
0
 10
231.20124957692681
 20
400.81947454931668
 30
0.0
 40
7.647994500000002
 50
244.85263000009999
 51
295.14736999989992
  0
ARC
  5
35F2
  8
0
 10
237.7012495769267
 20
400.81947454931668
 30
0.0
 40
7.647994500000002
 50
244.85263000009999
 51
295.14736999989992
  0
ARC
  5
35F3
  8
0
 10
319.45124957692673
 20
411.67147954931778
 30
0.0
 40
70.0
 50
21.275766975563769
 51
158.72423302443619
  0
ARC
  5
35F4
  8
0
 10
319.45124957692673
 20
411.67147954931778
 30
0.0
 40
70.0
 50
201.2757669755637
 51
338.72423302443622
  0
ARC
  5
35F5
  8
0
  6
CENTER
 10
319.45124957692673
 20
411.67147954931778
 30
0.0
 40
52.5
 50
28.934505055511458
 51
151.06549494448851
  0
ARC
  5
35F6
  8
0
  6
CENTER
 10
319.45124957692673
 20
411.67147954931778
 30
0.0
 40
52.5
 50
208.93450505550001
 51
331.0654949444999
  0
LINE
  5
35F7
  8
0
 10
241.70124957692309
 20
386.27147954931911
 30
0.0
 11
1198.791619777541
 21
386.27147954931911
 31
0.0
  0
LINE
  5
35F8
  8
0
 10
241.70124957692309
 20
437.07147954931833
 30
0.0
 11
1198.791619777541
 21
437.07147954931833
 31
0.0
  0
LINE
  5
35F9
  8
0
 10
213.4512495769267
 20
386.32147954931878
 30
0.0
 11
213.4512495769267
 21
437.02147954931729
 31
0.0
  0
LINE
  5
35FA
  8
0
 10
227.20124957692681
 20
386.32147954931833
 30
0.0
 11
213.4512495769267
 21
386.32147954931878
 31
0.0
  0
LINE
  5
35FB
  8
0
 10
227.20124957692681
 20
437.02147954931729
 30
0.0
 11
213.4512495769267
 21
437.02147954931729
 31
0.0
  0
LINE
  5
35FC
  8
0
 10
241.70124957692681
 20
380.81698230823588
 30
0.0
 11
241.70124957692681
 21
442.67147954931738
 31
0.0
  0
LINE
  5
35FD
  8
0
 10
227.20124957692681
 20
380.81698359366982
 30
0.0
 11
227.20124957692681
 21
442.67147954931738
 31
0.0
  0
LINE
  5
35FE
  8
0
 10
239.15345793706359
 20
449.67147954931738
 30
0.0
 11
239.15210701908291
 21
433.17147954931738
 31
0.0
  0
LINE
  5
35FF
  8
0
 10
239.1488433853373
 20
393.30972807970301
 30
0.0
 11
239.1472355270125
 21
373.67148005877169
 31
0.0
  0
LINE
  5
3600
  8
0
 10
229.74904121678989
 20
449.67147954931738
 30
0.0
 11
229.75039213477061
 21
433.17147954931738
 31
0.0
  0
LINE
  5
3601
  8
0
 10
229.75365576851621
 20
393.30972807970261
 30
0.0
 11
229.75526362684101
 21
373.67148005877169
 31
0.0
  0
LINE
  5
3602
  8
0
 10
241.45124957692681
 20
408.67147954931738
 30
0.0
 11
227.4512495769267
 21
408.67147954931738
 31
0.0
  0
LINE
  5
3603
  8
0
 10
241.45124957692681
 20
398.67147954931738
 30
0.0
 11
227.4512495769267
 21
398.67147954931738
 31
0.0
  0
LINE
  5
3604
  8
0
 10
241.45124957692681
 20
414.67147954931733
 30
0.0
 11
227.4512495769267
 21
414.67147954931733
 31
0.0
  0
LINE
  5
3605
  8
0
 10
241.45124957692681
 20
424.67147954931738
 30
0.0
 11
227.4512495769267
 21
424.67147954931738
 31
0.0
  0
LINE
  5
3606
  8
0
 10
241.45124957692681
 20
398.67147954931738
 30
0.0
 11
241.45124957692681
 21
408.67147954931738
 31
0.0
  0
LINE
  5
3607
  8
0
 10
241.45124957692681
 20
424.67147954931738
 30
0.0
 11
241.45124957692681
 21
414.67147954931733
 31
0.0
  0
LINE
  5
3608
  8
0
 10
238.4512495769267
 20
414.67147954931733
 30
0.0
 11
238.4512495769267
 21
408.67147954931738
 31
0.0
  0
LINE
  5
3609
  8
0
 10
230.4512495769267
 20
414.67147954931733
 30
0.0
 11
230.4512495769267
 21
408.67147954931738
 31
0.0
  0
LINE
  5
360A
  8
0
 10
230.4512495769267
 20
438.67147954931738
 30
0.0
 11
230.4512495769267
 21
433.17147954931738
 31
0.0
  0
LINE
  5
360B
  8
0
 10
229.4512495769267
 20
433.17147954931738
 30
0.0
 11
239.45124957692681
 21
433.17147954931738
 31
0.0
  0
LINE
  5
360C
  8
0
 10
230.4512495769267
 20
438.67147954931738
 30
0.0
 11
238.4512495769267
 21
438.67147954931738
 31
0.0
  0
LINE
  5
360D
  8
0
 10
228.4512495769267
 20
432.17147954931733
 30
0.0
 11
228.4512495769267
 21
431.17147954931733
 31
0.0
  0
LINE
  5
360E
  8
0
 10
240.4512495769267
 20
432.17147954931733
 30
0.0
 11
240.4512495769267
 21
431.17147954931733
 31
0.0
  0
LINE
  5
360F
  8
0
 10
240.9512495769267
 20
431.17147954931733
 30
0.0
 11
227.9512495769267
 21
431.17147954931733
 31
0.0
  0
LINE
  5
3610
  8
0
 10
240.9512495769267
 20
431.17147954931733
 30
0.0
 11
240.9512495769267
 21
424.67147954931738
 31
0.0
  0
LINE
  5
3611
  8
0
 10
227.9512495769267
 20
431.17147954931733
 30
0.0
 11
227.9512495769267
 21
424.67147954931738
 31
0.0
  0
LINE
  5
3612
  8
0
 10
238.4512495769267
 20
438.67147954931738
 30
0.0
 11
238.4512495769267
 21
433.17147954931738
 31
0.0
  0
LINE
  5
3613
  8
0
  6
CENTER
 10
234.4512495769267
 20
440.32281454931598
 30
0.0
 11
234.4512495769267
 21
389.8437535493178
 31
0.0
  0
LINE
  5
3614
  8
0
 10
231.20124957692681
 20
393.17147954931733
 30
0.0
 11
237.7012495769267
 21
393.17147954931733
 31
0.0
  0
LINE
  5
3615
  8
0
 10
227.9512495769267
 20
393.89637354931642
 30
0.0
 11
227.9512495769267
 21
398.67147954931738
 31
0.0
  0
LINE
  5
3616
  8
0
 10
240.9512495769267
 20
393.89637354931642
 30
0.0
 11
240.9512495769267
 21
398.67147954931738
 31
0.0
  0
LINE
  5
3617
  8
0
 10
227.4512495769267
 20
398.67147954931738
 30
0.0
 11
227.4512495769267
 21
408.67147954931738
 31
0.0
  0
LINE
  5
3618
  8
0
 10
227.4512495769267
 20
424.67147954931738
 30
0.0
 11
227.4512495769267
 21
414.67147954931733
 31
0.0
  0
LINE
  5
3619
  8
AM_0_T3
 10
239.15345793706359
 20
449.67147954931738
 30
0.0
 11
229.74904121678989
 21
449.67147954931738
 31
0.0
  0
LINE
  5
361A
  8
AM_0_T3
 10
241.70124957692681
 20
442.67147954931738
 30
0.0
 11
239.15345793706359
 21
449.67147954931738
 31
0.0
  0
LINE
  5
361B
  8
AM_0_T3
 10
229.74904121678989
 20
449.67147954931738
 30
0.0
 11
227.20124957692681
 21
442.67147954931738
 31
0.0
  0
LINE
  5
361C
  8
AM_0_T3
 10
239.15345793706359
 20
373.6714795493192
 30
0.0
 11
229.74904121678989
 21
373.6714795493192
 31
0.0
  0
LINE
  5
361D
  8
AM_0_T3
 10
241.70124957692681
 20
380.6714795493192
 30
0.0
 11
239.15345793706359
 21
373.6714795493192
 31
0.0
  0
LINE
  5
361E
  8
AM_0_T3
 10
229.74904121678989
 20
373.6714795493192
 30
0.0
 11
227.20124957692681
 21
380.6714795493192
 31
0.0
  0
LINE
  5
361F
  8
0
  6
CENTER
 10
296.11672579777218
 20
388.33695577016192
 30
0.0
 11
268.53956133149762
 21
360.7597913038864
 31
0.0
  0
LINE
  5
3620
  8
0
  6
CENTER
 10
296.11672579777218
 20
435.0060033284737
 30
0.0
 11
268.53956133149762
 21
462.58316779474922
 31
0.0
  0
LINE
  5
3621
  8
0
  6
CENTER
 10
342.78577335608492
 20
388.33695577016192
 30
0.0
 11
370.36293782235953
 21
360.7597913038864
 31
0.0
  0
LINE
  5
3622
  8
0
  6
CENTER
 10
342.78577335608492
 20
435.0060033284737
 30
0.0
 11
370.36293782235953
 21
462.58316779474922
 31
0.0
  0
ARC
  5
362E
  8
0
 10
2236.451249815349
 20
48.000000000000462
 30
0.0
 40
7.0
 50
312.20616791854383
 51
351.78674173944449
  0
ARC
  5
362F
  8
0
 10
2236.451249815349
 20
48.000000000000462
 30
0.0
 40
7.0
 50
8.2132024012145912
 51
51.786795918454878
  0
ARC
  5
3630
  8
0
 10
2236.451249815349
 20
48.000000000000462
 30
0.0
 40
7.0
 50
68.2131224893851
 51
111.7868775106148
  0
ARC
  5
3631
  8
0
 10
2236.451249815349
 20
48.000000000000462
 30
0.0
 40
7.0
 50
128.21320408154509
 51
171.7867975987854
  0
ARC
  5
3632
  8
0
 10
2236.451249815349
 20
48.000000000000462
 30
0.0
 40
7.0
 50
188.21325826055551
 51
227.79382681198189
  0
ARC
  5
3633
  8
0
 10
2236.451249815349
 20
-47.999999999999538
 30
0.0
 40
7.0
 50
132.12875643080051
 51
171.78674173944449
  0
ARC
  5
3634
  8
0
 10
2236.451249815349
 20
-47.999999999999538
 30
0.0
 40
7.0
 50
188.21320240121449
 51
231.7867959184548
  0
ARC
  5
3635
  8
0
 10
2236.451249815349
 20
-47.999999999999538
 30
0.0
 40
7.0
 50
248.2131224893802
 51
291.78687751061477
  0
ARC
  5
3636
  8
0
 10
2236.451249815349
 20
-47.999999999999538
 30
0.0
 40
7.0
 50
308.21320408154509
 51
351.78679759878543
  0
ARC
  5
3637
  8
AM_0_T3
 10
2151.4512495769259
 20
32.793916418243043
 30
0.0
 40
25.400000000000109
 50
196.92376729140651
 51
343.07623270858102
  0
ARC
  5
3638
  8
0
 10
2236.451249815349
 20
-47.999999999999538
 30
0.0
 40
7.0
 50
8.2132582605554916
 51
47.871248831388762
  0
LINE
  5
3639
  8
0
 10
2221.4512495769259
 20
74.000000000000227
 30
0.0
 11
2081.4512495769268
 21
74.000000000000227
 31
0.0
  0
LINE
  5
363A
  8
0
 10
2229.20124957693
 20
-25.399999999999181
 30
0.0
 11
1272.1108793763119
 21
-25.399999999999181
 31
0.0
  0
LINE
  5
363B
  8
0
 10
2229.20124957693
 20
25.400000000000091
 30
0.0
 11
2175.7512495769288
 21
25.400000000000091
 31
0.0
  0
LINE
  5
363C
  8
0
 10
2127.1512495769239
 20
25.400000000000091
 30
0.0
 11
1272.1108793763119
 21
25.400000000000091
 31
0.0
  0
LINE
  5
363D
  8
0
 10
2257.4512495769268
 20
-25.349999999999682
 30
0.0
 11
2257.45124957693
 21
25.349999999999
 31
0.0
  0
LINE
  5
363E
  8
0
 10
2243.70124957693
 20
-25.349999999999909
 30
0.0
 11
2257.4512495769268
 21
-25.349999999999682
 31
0.0
  0
LINE
  5
363F
  8
0
 10
2243.7012495769259
 20
25.349999999999
 30
0.0
 11
2257.45124957693
 21
25.349999999999
 31
0.0
  0
LINE
  5
3640
  8
0
 10
2232.698473415348
 20
54.499996000000472
 30
0.0
 11
2240.2040276153489
 21
54.499996000000472
 31
0.0
  0
LINE
  5
3641
  8
0
 10
2240.2040268153501
 20
54.499999000000571
 30
0.0
 11
2243.9568040153499
 21
47.99999800000068
 31
0.0
  0
LINE
  5
3642
  8
0
 10
2243.9568046153472
 20
47.99999800000068
 30
0.0
 11
2240.2040275153481
 21
41.499997000000349
 31
0.0
  0
LINE
  5
3643
  8
0
 10
2240.2040276153489
 20
41.500000000000448
 30
0.0
 11
2232.698473415348
 21
41.500000000000448
 31
0.0
  0
LINE
  5
3644
  8
0
 10
2228.9456950153508
 20
47.99999800000068
 30
0.0
 11
2232.698472115349
 21
41.499997000000349
 31
0.0
  0
LINE
  5
3645
  8
0
 10
2232.698472815347
 20
54.499999000000571
 30
0.0
 11
2228.9456956153481
 21
47.99999800000068
 31
0.0
  0
LINE
  5
3646
  8
0
 10
2240.2040262153491
 20
-54.499995999999548
 30
0.0
 11
2232.6984720153482
 21
-54.499995999999548
 31
0.0
  0
LINE
  5
3647
  8
0
 10
2232.698472815347
 20
-54.499998999999661
 30
0.0
 11
2228.9456956153481
 21
-47.999997999999323
 31
0.0
  0
LINE
  5
3648
  8
0
 10
2228.9456950153508
 20
-47.999997999999323
 30
0.0
 11
2232.698472115349
 21
-41.499996999999439
 31
0.0
  0
LINE
  5
3649
  8
0
 10
2243.9568046153472
 20
-47.999997999999323
 30
0.0
 11
2240.2040275153481
 21
-41.499996999999439
 31
0.0
  0
LINE
  5
364A
  8
0
 10
2240.2040268153501
 20
-54.499998999999661
 30
0.0
 11
2243.9568040153499
 21
-47.999997999999323
 31
0.0
  0
LINE
  5
364B
  8
0
 10
2232.6984720153482
 20
-41.499999999999552
 30
0.0
 11
2240.2040262153491
 21
-41.499999999999552
 31
0.0
  0
LINE
  5
364C
  8
0
  6
CENTER
 10
2226.451249815349
 20
-47.999999999999538
 30
0.0
 11
2246.4512498153481
 21
-47.999999999999538
 31
0.0
  0
LINE
  5
364D
  8
0
  6
CENTER
 10
2236.4512500537671
 20
-57.999999999999538
 30
0.0
 11
2236.4512500537671
 21
-37.999999999999538
 31
0.0
  0
LINE
  5
364E
  8
0
  6
CENTER
 10
2226.451249815349
 20
48.000000000000462
 30
0.0
 11
2246.4512498153481
 21
48.000000000000462
 31
0.0
  0
LINE
  5
364F
  8
0
  6
CENTER
 10
2236.45124957693
 20
38.000000000000448
 30
0.0
 11
2236.45124957693
 21
58.000000000000462
 31
0.0
  0
LINE
  5
3650
  8
0
 10
2229.20124957693
 20
-30.854497241082289
 30
0.0
 11
2229.20124957693
 21
30.85449724108366
 31
0.0
  0
LINE
  5
3651
  8
0
 10
2243.70124957693
 20
-30.85449595564841
 30
0.0
 11
2243.70124957693
 21
30.85449595564933
 31
0.0
  0
LINE
  5
3652
  8
0
 10
2231.748647004642
 20
42.814874465865607
 30
0.0
 11
2231.7556573191941
 21
-42.808525150781861
 31
0.0
  0
LINE
  5
3653
  8
0
 10
2241.1538521491821
 20
42.814874033369961
 30
0.0
 11
2241.146841834699
 21
-42.808524719522659
 31
0.0
  0
LINE
  5
3654
  8
0
 10
2231.7490509275299
 20
37.88139384975193
 30
0.0
 11
2229.20124957693
 21
30.85449724108366
 31
0.0
  0
LINE
  5
3655
  8
0
 10
2241.153448220673
 20
37.881393625533292
 30
0.0
 11
2243.70124957693
 21
30.85449595564933
 31
0.0
  0
LINE
  5
3656
  8
0
 10
2231.7492289418178
 20
35.707142142714929
 30
0.0
 11
2241.1532702120421
 21
35.707142142714929
 31
0.0
  0
LINE
  5
3657
  8
0
 10
2231.7490509275299
 20
-37.881393849751021
 30
0.0
 11
2229.20124957693
 21
-30.854497241082289
 31
0.0
  0
LINE
  5
3658
  8
0
 10
2241.153448220673
 20
-37.881393625532382
 30
0.0
 11
2243.70124957693
 21
-30.85449595564841
 31
0.0
  0
LINE
  5
3659
  8
0
 10
2231.7492289418178
 20
-35.707142142713558
 30
0.0
 11
2241.1532702120421
 21
-35.707142142713558
 31
0.0
  0
LINE
  5
365A
  8
0
 10
2127.1512495769271
 20
73.999999999999773
 30
0.0
 11
2127.1512495769271
 21
25.400000000000091
 31
0.0
  0
LINE
  5
365B
  8
0
 10
2081.4512495769268
 20
90.000000000000227
 30
0.0
 11
2221.4512495769259
 21
90.000000000000227
 31
0.0
  0
LINE
  5
365C
  8
0
 10
2081.4512495769268
 20
74.000000000000227
 30
0.0
 11
2081.4512495769268
 21
90.000000000000227
 31
0.0
  0
LINE
  5
365D
  8
0
  6
CENTER
 10
2098.9512495769268
 20
98.000000000000227
 30
0.0
 11
2098.9512495769268
 21
64.000000000000227
 31
0.0
  0
LINE
  5
365E
  8
0
 10
2175.7512495769288
 20
73.999999999999773
 30
0.0
 11
2175.7512495769288
 21
25.400000000000091
 31
0.0
  0
LINE
  5
365F
  8
0
  6
CENTER
 10
2203.9512495769268
 20
98.000000000000227
 30
0.0
 11
2203.9512495769268
 21
64.000000000000227
 31
0.0
  0
LINE
  5
3660
  8
0
 10
2221.4512495769259
 20
90.000000000000227
 30
0.0
 11
2221.4512495769259
 21
74.000000000000227
 31
0.0
  0
LINE
  5
3A61
  8
0
  6
CENTER
 10
2151.4512495769259
 20
327.67151673118701
 30
0.0
 11
2151.45124957693
 21
495.67144236744957
 31
0.0
  0
LINE
  5
3A64
  8
0
  6
CENTER
 10
319.45124957692673
 20
-97.999999999999773
 30
0.0
 11
319.45124957692673
 21
0.0000000000004547
 31
0.0
  0
LINE
  5
3A67
  8
0
  6
CENTER
 10
2151.4512495769259
 20
98.000000000000227
 30
0.0
 11
2151.4512495769259
 21
0.0
 31
0.0
  0
LINE
  5
3A6C
  8
0
  6
CENTER
 10
319.45124957692673
 20
327.6715167311865
 30
0.0
 11
319.45124957693042
 21
495.671442367449
 31
0.0
  0
TEXT
  5
4643
  8
0
 10
853.30839243407331
 20
534.28139750375897
 30
0.0
 40
50.0
  1
2SX2000L-40AX15A
 72
     4
 11
1235.45124957693
 21
559.28139750375897
 31
0.0
  0
LINE
  5
464D
  8
0
 10
194.45124957693039
 20
5.8499999999996808
 30
0.0
 11
194.45124957693039
 21
-28.150000000000311
 31
0.0
  0
LINE
  5
464E
  8
0
 10
197.30124957692891
 20
5.070773487537962
 30
0.0
 11
197.30124957692891
 21
-27.37077348753882
 31
0.0
  0
LINE
  5
464F
  8
0
  6
CENTER
 10
191.55668676165439
 20
-11.150000000000309
 30
0.0
 11
214.10914253716319
 21
-11.150000000000309
 31
0.0
  0
LINE
  5
4650
  8
0
 10
196.7410835463597
 20
5.8499999999996808
 30
0.0
 11
194.45124957693039
 21
5.8499999999996808
 31
0.0
  0
LINE
  5
4651
  8
0
 10
200.94008159408619
 20
-0.3000000000004093
 30
0.0
 11
213.45124957693039
 21
-0.3000000000006366
 31
0.0
  0
LINE
  5
4652
  8
0
 10
199.53974443071999
 20
-21.999958681098629
 30
0.0
 11
199.53974443071999
 21
-0.3000413189020037
 31
0.0
  0
LINE
  5
4653
  8
0
 10
197.4928376429888
 20
5.3236161146601262
 30
0.0
 11
199.0606963525133
 21
1.0159597133483651
 31
0.0
  0
ARC
  5
4654
  8
0
 10
196.7410835463597
 20
5.0499999999997272
 30
0.0
 40
0.8
 50
20.000000000029289
 51
90.0
1001
GENIUS_GENODEF_13
1002
{
1000
HIER
1070
     0
1002
}
1002
{
1000
MANEDIT
1070
     0
1002
}
1002
{
1000
NOSEL
1070
     0
1002
}
1002
{
1000
BEHIND
1070
     0
1002
}
1002
{
1000
OTHER
1070
     0
1002
}
1002
{
1000
REACTOR
1002
}
1001
GENIUS_GENOBJ-N-FIL_13
1002
{
1000
OWNER
1000
GEN
1002
}
  0
ARC
  5
4655
  8
0
 10
200.94008159408619
 20
1.6999999999995901
 30
0.0
 40
2.0
 50
200.00000000002919
 51
270.0
1001
GENIUS_GENODEF_13
1002
{
1000
HIER
1070
     0
1002
}
1002
{
1000
MANEDIT
1070
     0
1002
}
1002
{
1000
NOSEL
1070
     0
1002
}
1002
{
1000
BEHIND
1070
     0
1002
}
1002
{
1000
OTHER
1070
     0
1002
}
1002
{
1000
REACTOR
1002
}
1001
GENIUS_GENOBJ-N-FIL_13
1002
{
1000
OWNER
1000
GEN
1002
}
  0
LINE
  5
4656
  8
0
 10
196.7410835463597
 20
-28.150000000000311
 30
0.0
 11
194.45124957693039
 21
-28.150000000000311
 31
0.0
  0
LINE
  5
4657
  8
0
 10
200.94008159408619
 20
-22.000000000000451
 30
0.0
 11
213.45124957693039
 21
-22.000000000000679
 31
0.0
  0
LINE
  5
4658
  8
0
 10
197.4928376429888
 20
-27.62361611466099
 30
0.0
 11
199.0606963525133
 21
-23.315959713348999
 31
0.0
  0
ARC
  5
4659
  8
0
 10
196.7410835463597
 20
-27.35000000000036
 30
0.0
 40
0.8
 50
270.0
 51
339.99999999997073
1001
GENIUS_GENODEF_13
1002
{
1000
HIER
1070
     0
1002
}
1002
{
1000
MANEDIT
1070
     0
1002
}
1002
{
1000
NOSEL
1070
     0
1002
}
1002
{
1000
BEHIND
1070
     0
1002
}
1002
{
1000
OTHER
1070
     0
1002
}
1002
{
1000
REACTOR
1002
}
1001
GENIUS_GENOBJ-N-FIL_13
1002
{
1000
OWNER
1000
GEN
1002
}
  0
ARC
  5
465A
  8
0
 10
200.94008159408619
 20
-24.000000000000451
 30
0.0
 40
2.0
 50
90.0
 51
159.99999999997061
1001
GENIUS_GENODEF_13
1002
{
1000
HIER
1070
     0
1002
}
1002
{
1000
MANEDIT
1070
     0
1002
}
1002
{
1000
NOSEL
1070
     0
1002
}
1002
{
1000
BEHIND
1070
     0
1002
}
1002
{
1000
OTHER
1070
     0
1002
}
1002
{
1000
REACTOR
1002
}
1001
GENIUS_GENOBJ-N-FIL_13
1002
{
1000
OWNER
1000
GEN
1002
}
  0
LINE
  5
465B
  8
0
 10
2276.45124957693
 20
394.67147954931818
 30
0.0
 11
2276.45124957693
 21
428.67147954931829
 31
0.0
  0
LINE
  5
465C
  8
0
 10
2273.6012495769319
 20
395.45070606178001
 30
0.0
 11
2273.6012495769319
 21
427.89225303685652
 31
0.0
  0
LINE
  5
465E
  8
0
 10
2274.1614156075011
 20
394.67147954931818
 30
0.0
 11
2276.45124957693
 21
394.67147954931818
 31
0.0
  0
LINE
  5
465F
  8
0
 10
2269.9624175597742
 20
400.82147954931833
 30
0.0
 11
2257.45124957693
 21
400.82147954931878
 31
0.0
  0
LINE
  5
4660
  8
0
 10
2271.3627547231399
 20
422.52143823041678
 30
0.0
 11
2271.3627547231399
 21
400.82152086821969
 31
0.0
  0
LINE
  5
4661
  8
0
 10
2273.409661510871
 20
395.19786343465807
 30
0.0
 11
2271.8418028013471
 21
399.50551983596978
 31
0.0
  0
ARC
  5
4662
  8
0
 10
2274.1614156075011
 20
395.47147954931842
 30
0.0
 40
0.8
 50
200.00000000000469
 51
270.0
1001
GENIUS_GENODEF_13
1002
{
1000
HIER
1070
     0
1002
}
1002
{
1000
MANEDIT
1070
     0
1002
}
1002
{
1000
NOSEL
1070
     0
1002
}
1002
{
1000
BEHIND
1070
     0
1002
}
1002
{
1000
OTHER
1070
     0
1002
}
1002
{
1000
REACTOR
1002
}
1001
GENIUS_GENOBJ-N-FIL_13
1002
{
1000
OWNER
1000
GEN
1002
}
  0
ARC
  5
4663
  8
0
 10
2269.9624175597742
 20
398.82147954931833
 30
0.0
 40
2.0
 50
20.00000000000481
 51
90.0
1001
GENIUS_GENODEF_13
1002
{
1000
HIER
1070
     0
1002
}
1002
{
1000
MANEDIT
1070
     0
1002
}
1002
{
1000
NOSEL
1070
     0
1002
}
1002
{
1000
BEHIND
1070
     0
1002
}
1002
{
1000
OTHER
1070
     0
1002
}
1002
{
1000
REACTOR
1002
}
1001
GENIUS_GENOBJ-N-FIL_13
1002
{
1000
OWNER
1000
GEN
1002
}
  0
LINE
  5
4664
  8
0
 10
2274.1614156075011
 20
428.67147954931829
 30
0.0
 11
2276.45124957693
 21
428.67147954931829
 31
0.0
  0
LINE
  5
4665
  8
0
 10
2269.9624175597742
 20
422.5214795493186
 30
0.0
 11
2257.45124957693
 21
422.5214795493186
 31
0.0
  0
LINE
  5
4666
  8
0
 10
2273.409661510871
 20
428.14509566397902
 30
0.0
 11
2271.8418028013471
 21
423.83743926266669
 31
0.0
  0
ARC
  5
4667
  8
0
 10
2274.1614156075011
 20
427.87147954931811
 30
0.0
 40
0.8
 50
90.0
 51
159.99999999999511
1001
GENIUS_GENODEF_13
1002
{
1000
HIER
1070
     0
1002
}
1002
{
1000
MANEDIT
1070
     0
1002
}
1002
{
1000
NOSEL
1070
     0
1002
}
1002
{
1000
BEHIND
1070
     0
1002
}
1002
{
1000
OTHER
1070
     0
1002
}
1002
{
1000
REACTOR
1002
}
1001
GENIUS_GENOBJ-N-FIL_13
1002
{
1000
OWNER
1000
GEN
1002
}
  0
ARC
  5
4668
  8
0
 10
2269.9624175597742
 20
424.5214795493186
 30
0.0
 40
2.0
 50
270.0
 51
339.99999999999511
1001
GENIUS_GENODEF_13
1002
{
1000
HIER
1070
     0
1002
}
1002
{
1000
MANEDIT
1070
     0
1002
}
1002
{
1000
NOSEL
1070
     0
1002
}
1002
{
1000
BEHIND
1070
     0
1002
}
1002
{
1000
OTHER
1070
     0
1002
}
1002
{
1000
REACTOR
1002
}
1001
GENIUS_GENOBJ-N-FIL_13
1002
{
1000
OWNER
1000
GEN
1002
}
  0
LINE
  5
4669
  8
0
 10
194.45124957693039
 20
394.67147954931818
 30
0.0
 11
194.45124957693039
 21
428.67147954931829
 31
0.0
  0
LINE
  5
466A
  8
0
 10
197.30124957692891
 20
395.45070606178001
 30
0.0
 11
197.30124957692891
 21
427.89225303685652
 31
0.0
  0
LINE
  5
466B
  8
0
  6
CENTER
 10
191.55668676165439
 20
411.67147954931829
 30
0.0
 11
2279.345812392206
 21
411.67147954931829
 31
0.0
  0
LINE
  5
466C
  8
0
 10
196.7410835463597
 20
394.67147954931818
 30
0.0
 11
194.45124957693039
 21
394.67147954931818
 31
0.0
  0
LINE
  5
466D
  8
0
 10
200.94008159408619
 20
400.82147954931833
 30
0.0
 11
213.45124957693039
 21
400.82147954931878
 31
0.0
  0
LINE
  5
466E
  8
0
 10
199.53974443071999
 20
422.52143823041678
 30
0.0
 11
199.53974443071999
 21
400.82152086821969
 31
0.0
  0
LINE
  5
466F
  8
0
 10
197.4928376429888
 20
395.19786343465807
 30
0.0
 11
199.0606963525133
 21
399.50551983596978
 31
0.0
  0
ARC
  5
4670
  8
0
 10
196.7410835463597
 20
395.47147954931842
 30
0.0
 40
0.8
 50
270.0
 51
339.99999999997073
1001
GENIUS_GENODEF_13
1002
{
1000
HIER
1070
     0
1002
}
1002
{
1000
MANEDIT
1070
     0
1002
}
1002
{
1000
NOSEL
1070
     0
1002
}
1002
{
1000
BEHIND
1070
     0
1002
}
1002
{
1000
OTHER
1070
     0
1002
}
1002
{
1000
REACTOR
1002
}
1001
GENIUS_GENOBJ-N-FIL_13
1002
{
1000
OWNER
1000
GEN
1002
}
  0
ARC
  5
4671
  8
0
 10
200.94008159408619
 20
398.82147954931833
 30
0.0
 40
2.0
 50
90.0
 51
159.99999999997061
1001
GENIUS_GENODEF_13
1002
{
1000
HIER
1070
     0
1002
}
1002
{
1000
MANEDIT
1070
     0
1002
}
1002
{
1000
NOSEL
1070
     0
1002
}
1002
{
1000
BEHIND
1070
     0
1002
}
1002
{
1000
OTHER
1070
     0
1002
}
1002
{
1000
REACTOR
1002
}
1001
GENIUS_GENOBJ-N-FIL_13
1002
{
1000
OWNER
1000
GEN
1002
}
  0
LINE
  5
4672
  8
0
 10
196.7410835463597
 20
428.67147954931829
 30
0.0
 11
194.45124957693039
 21
428.67147954931829
 31
0.0
  0
LINE
  5
4673
  8
0
 10
200.94008159408619
 20
422.5214795493186
 30
0.0
 11
213.45124957693039
 21
422.5214795493186
 31
0.0
  0
LINE
  5
4674
  8
0
 10
197.4928376429888
 20
428.14509566397902
 30
0.0
 11
199.0606963525133
 21
423.83743926266669
 31
0.0
  0
ARC
  5
4675
  8
0
 10
196.7410835463597
 20
427.87147954931811
 30
0.0
 40
0.8
 50
20.000000000029289
 51
90.0
1001
GENIUS_GENODEF_13
1002
{
1000
HIER
1070
     0
1002
}
1002
{
1000
MANEDIT
1070
     0
1002
}
1002
{
1000
NOSEL
1070
     0
1002
}
1002
{
1000
BEHIND
1070
     0
1002
}
1002
{
1000
OTHER
1070
     0
1002
}
1002
{
1000
REACTOR
1002
}
1001
GENIUS_GENOBJ-N-FIL_13
1002
{
1000
OWNER
1000
GEN
1002
}
  0
ARC
  5
4676
  8
0
 10
200.94008159408619
 20
424.5214795493186
 30
0.0
 40
2.0
 50
200.00000000002919
 51
270.0
1001
GENIUS_GENODEF_13
1002
{
1000
HIER
1070
     0
1002
}
1002
{
1000
MANEDIT
1070
     0
1002
}
1002
{
1000
NOSEL
1070
     0
1002
}
1002
{
1000
BEHIND
1070
     0
1002
}
1002
{
1000
OTHER
1070
     0
1002
}
1002
{
1000
REACTOR
1002
}
1001
GENIUS_GENOBJ-N-FIL_13
1002
{
1000
OWNER
1000
GEN
1002
}
  0
LINE
  5
4678
  8
0
 10
2276.45124957693
 20
-5.8499999999996808
 30
0.0
 11
2276.45124957693
 21
28.150000000000311
 31
0.0
  0
LINE
  5
4679
  8
0
 10
2273.6012495769319
 20
-5.070773487537962
 30
0.0
 11
2273.6012495769319
 21
27.37077348753882
 31
0.0
  0
LINE
  5
467A
  8
0
  6
CENTER
 10
2279.345812392206
 20
11.150000000000309
 30
0.0
 11
2256.7933566166971
 21
11.150000000000309
 31
0.0
  0
LINE
  5
467B
  8
0
 10
2274.1614156075011
 20
-5.8499999999996808
 30
0.0
 11
2276.45124957693
 21
-5.8499999999996808
 31
0.0
  0
LINE
  5
467C
  8
0
 10
2271.3627547231399
 20
21.999958681098629
 30
0.0
 11
2271.3627547231399
 21
0.3000413189020037
 31
0.0
  0
LINE
  5
467D
  8
0
 10
2273.409661510871
 20
-5.3236161146601262
 30
0.0
 11
2271.8418028013471
 21
-1.0159597133483651
 31
0.0
  0
ARC
  5
467E
  8
0
 10
2274.1614156075011
 20
-5.0499999999997272
 30
0.0
 40
0.8
 50
200.00000000000469
 51
270.0
1001
GENIUS_GENODEF_13
1002
{
1000
HIER
1070
     0
1002
}
1002
{
1000
MANEDIT
1070
     0
1002
}
1002
{
1000
NOSEL
1070
     0
1002
}
1002
{
1000
BEHIND
1070
     0
1002
}
1002
{
1000
OTHER
1070
     0
1002
}
1002
{
1000
REACTOR
1002
}
1001
GENIUS_GENOBJ-N-FIL_13
1002
{
1000
OWNER
1000
GEN
1002
}
  0
ARC
  5
467F
  8
0
 10
2269.9624175597742
 20
-1.6999999999995901
 30
0.0
 40
2.0
 50
20.00000000000481
 51
90.0
1001
GENIUS_GENODEF_13
1002
{
1000
HIER
1070
     0
1002
}
1002
{
1000
MANEDIT
1070
     0
1002
}
1002
{
1000
NOSEL
1070
     0
1002
}
1002
{
1000
BEHIND
1070
     0
1002
}
1002
{
1000
OTHER
1070
     0
1002
}
1002
{
1000
REACTOR
1002
}
1001
GENIUS_GENOBJ-N-FIL_13
1002
{
1000
OWNER
1000
GEN
1002
}
  0
LINE
  5
4680
  8
0
 10
2274.1614156075011
 20
28.150000000000311
 30
0.0
 11
2276.45124957693
 21
28.150000000000311
 31
0.0
  0
LINE
  5
4681
  8
0
 10
2273.409661510871
 20
27.62361611466099
 30
0.0
 11
2271.8418028013471
 21
23.315959713348999
 31
0.0
  0
ARC
  5
4682
  8
0
 10
2274.1614156075011
 20
27.35000000000036
 30
0.0
 40
0.8
 50
90.0
 51
159.99999999999511
1001
GENIUS_GENODEF_13
1002
{
1000
HIER
1070
     0
1002
}
1002
{
1000
MANEDIT
1070
     0
1002
}
1002
{
1000
NOSEL
1070
     0
1002
}
1002
{
1000
BEHIND
1070
     0
1002
}
1002
{
1000
OTHER
1070
     0
1002
}
1002
{
1000
REACTOR
1002
}
1001
GENIUS_GENOBJ-N-FIL_13
1002
{
1000
OWNER
1000
GEN
1002
}
  0
ARC
  5
4683
  8
0
 10
2269.9624175597742
 20
24.000000000000451
 30
0.0
 40
2.0
 50
270.0
 51
339.99999999999511
1001
GENIUS_GENODEF_13
1002
{
1000
HIER
1070
     0
1002
}
1002
{
1000
MANEDIT
1070
     0
1002
}
1002
{
1000
NOSEL
1070
     0
1002
}
1002
{
1000
BEHIND
1070
     0
1002
}
1002
{
1000
OTHER
1070
     0
1002
}
1002
{
1000
REACTOR
1002
}
1001
GENIUS_GENOBJ-N-FIL_13
1002
{
1000
OWNER
1000
GEN
1002
}
  0
LINE
  5
4876
  8
0
 10
2269.9624175597742
 20
0.3000000000004093
 30
0.0
 11
2257.45124957693
 21
0.3000000000006366
 31
0.0
  0
LINE
  5
4877
  8
0
 10
2269.9624175597742
 20
22.000000000000451
 30
0.0
 11
2257.45124957693
 21
22.000000000000679
 31
0.0
  0
CIRCLE
  5
62AF
  8
0
 10
282.3281435646349
 20
448.79458556161143
 30
0.0
 40
9.5
  0
CIRCLE
  5
62B0
  8
0
 10
282.3281435646349
 20
374.54837353702419
 30
0.0
 40
9.5
  0
CIRCLE
  5
62B1
  8
0
 10
356.57435558922219
 20
374.54837353702419
 30
0.0
 40
9.5
  0
CIRCLE
  5
62B2
  8
0
 10
356.57435558922219
 20
448.79458556161143
 30
0.0
 40
9.5
  0
CIRCLE
  5
62B3
  8
0
 10
2151.4512495769259
 20
411.67147954931778
 30
0.0
 40
70.0
  0
CIRCLE
  5
62B4
  8
0
 10
2188.5743555892182
 20
448.79458556161143
 30
0.0
 40
9.5
  0
CIRCLE
  5
62B5
  8
0
 10
2188.5743555892182
 20
374.54837353702419
 30
0.0
 40
9.5
  0
CIRCLE
  5
62B6
  8
0
  6
CENTER
 10
2151.4512495769259
 20
411.67147954931778
 30
0.0
 40
52.5
  0
CIRCLE
  5
62B7
  8
0
 10
2114.3281435646309
 20
374.54837353702419
 30
0.0
 40
9.5
  0
CIRCLE
  5
62B8
  8
0
 10
2114.3281435646309
 20
448.79458556161143
 30
0.0
 40
9.5
  0
CIRCLE
  5
62B9
  8
AM_0_T3
 10
2151.4512495769259
 20
411.67147954931778
 30
0.0
 40
24.299999999999731
  0
LINE
  5
67F1
  8
0
 10
3.0
 20
-55.0
 30
0.0
 11
3.0
 21
-28.844409999999701
 31
0.0
  0
LINE
  5
67F2
  8
0
 10
13.0
 20
-55.0
 30
0.0
 11
13.0
 21
-35.707142000000204
 31
0.0
  0
LINE
  5
67F3
  8
0
 10
-3.0
 20
-55.0
 30
0.0
 11
-3.0
 21
-28.844409999999701
 31
0.0
  0
LINE
  5
67F4
  8
0
 10
-13.0
 20
-55.0
 30
0.0
 11
-13.0
 21
-35.707142000000204
 31
0.0
  0
LINE
  5
67F5
  8
0
 10
13.0
 20
55.0
 30
0.0
 11
13.0
 21
35.707142000000204
 31
0.0
  0
LINE
  5
67F6
  8
0
 10
3.0
 20
55.0
 30
0.0
 11
3.0
 21
28.844409999999701
 31
0.0
  0
LINE
  5
67F7
  8
0
 10
-3.0
 20
55.0
 30
0.0
 11
-3.0
 21
28.844409999999701
 31
0.0
  0
LINE
  5
67F8
  8
0
 10
-13.0
 20
55.0
 30
0.0
 11
-13.0
 21
35.707142000000204
 31
0.0
  0
LINE
  5
67F9
  8
0
 10
13.0
 20
-55.0
 30
0.0
 11
3.0
 21
-55.0
 31
0.0
  0
LINE
  5
67FA
  8
0
 10
-13.0
 20
-55.0
 30
0.0
 11
-3.0
 21
-55.0
 31
0.0
  0
LINE
  5
67FB
  8
0
 10
13.0
 20
55.0
 30
0.0
 11
3.0
 21
55.0
 31
0.0
  0
LINE
  5
67FC
  8
0
 10
-13.0
 20
55.0
 30
0.0
 11
-3.0
 21
55.0
 31
0.0
  0
LINE
  5
67FD
  8
0
 10
-3.0
 20
52.0
 30
0.0
 11
3.0
 21
52.0
 31
0.0
  0
LINE
  5
67FE
  8
0
 10
-3.0
 20
44.0
 30
0.0
 11
3.0
 21
44.0
 31
0.0
  0
LINE
  5
67FF
  8
0
 10
-3.0
 20
-52.0
 30
0.0
 11
3.0
 21
-52.0
 31
0.0
  0
LINE
  5
6800
  8
0
 10
-3.0
 20
-44.0
 30
0.0
 11
3.0
 21
-44.0
 31
0.0
  0
LINE
  5
6801
  8
0
 10
-27.0
 20
44.0
 30
0.0
 11
-21.499999999999989
 21
44.0
 31
0.0
  0
LINE
  5
6802
  8
0
 10
-21.499999999999989
 20
43.0
 30
0.0
 11
-21.499999999999989
 21
53.0
 31
0.0
  0
LINE
  5
6803
  8
0
 10
-27.0
 20
44.0
 30
0.0
 11
-27.0
 21
52.0
 31
0.0
  0
LINE
  5
6804
  8
0
 10
-20.5
 20
42.0
 30
0.0
 11
-19.5
 21
42.0
 31
0.0
  0
LINE
  5
6805
  8
0
 10
-20.5
 20
54.0
 30
0.0
 11
-19.5
 21
54.0
 31
0.0
  0
LINE
  5
6806
  8
0
 10
-19.5
 20
54.5
 30
0.0
 11
-19.5
 21
41.5
 31
0.0
  0
LINE
  5
6807
  8
0
 10
-19.5
 20
54.5
 30
0.0
 11
-13.0
 21
54.5
 31
0.0
  0
LINE
  5
6808
  8
0
 10
-19.5
 20
41.5
 30
0.0
 11
-13.0
 21
41.5
 31
0.0
  0
LINE
  5
6809
  8
0
 10
-27.0
 20
52.0
 30
0.0
 11
-21.499999999999989
 21
52.0
 31
0.0
  0
LINE
  5
680A
  8
0
  6
CENTER
 10
-28.65133499999865
 20
48.0
 30
0.0
 11
22.389211999998221
 21
48.0
 31
0.0
  0
LINE
  5
680B
  8
0
 10
-27.0
 20
-44.0
 30
0.0
 11
-21.499999999999989
 21
-44.0
 31
0.0
  0
LINE
  5
680C
  8
0
 10
-21.499999999999989
 20
-43.0
 30
0.0
 11
-21.499999999999989
 21
-53.0
 31
0.0
  0
LINE
  5
680D
  8
0
 10
-27.0
 20
-44.0
 30
0.0
 11
-27.0
 21
-52.0
 31
0.0
  0
LINE
  5
680E
  8
0
 10
-20.5
 20
-42.0
 30
0.0
 11
-19.5
 21
-42.0
 31
0.0
  0
LINE
  5
680F
  8
0
 10
-20.5
 20
-54.0
 30
0.0
 11
-19.5
 21
-54.0
 31
0.0
  0
LINE
  5
6810
  8
0
 10
-19.5
 20
-54.5
 30
0.0
 11
-19.5
 21
-41.5
 31
0.0
  0
LINE
  5
6811
  8
0
 10
-19.5
 20
-54.5
 30
0.0
 11
-13.0
 21
-54.5
 31
0.0
  0
LINE
  5
6812
  8
0
 10
-19.5
 20
-41.5
 30
0.0
 11
-13.0
 21
-41.5
 31
0.0
  0
LINE
  5
6813
  8
0
 10
-27.0
 20
-52.0
 30
0.0
 11
-21.499999999999989
 21
-52.0
 31
0.0
  0
LINE
  5
6814
  8
0
  6
CENTER
 10
-28.65133499999865
 20
-48.0
 30
0.0
 11
21.827725999999529
 21
-48.0
 31
0.0
  0
LINE
  5
6815
  8
0
 10
18.5
 20
-44.75
 30
0.0
 11
18.5
 21
-51.25
 31
0.0
  0
LINE
  5
6816
  8
0
 10
17.77510600000096
 20
-41.5
 30
0.0
 11
13.0
 21
-41.5
 31
0.0
  0
LINE
  5
6817
  8
0
 10
17.77510600000096
 20
-54.5
 30
0.0
 11
13.0
 21
-54.5
 31
0.0
  0
LINE
  5
6818
  8
0
 10
18.5
 20
44.75
 30
0.0
 11
18.5
 21
51.25
 31
0.0
  0
LINE
  5
6819
  8
0
 10
17.77510600000096
 20
41.5
 30
0.0
 11
13.0
 21
41.5
 31
0.0
  0
LINE
  5
681A
  8
0
 10
17.77510600000096
 20
54.5
 30
0.0
 11
13.0
 21
54.5
 31
0.0
  0
ARC
  5
681B
  8
0
 10
0.0
 20
0.0
 30
0.0
 40
38.0
 50
94.528059999869868
 51
265.47193499986992
  0
ARC
  5
681C
  8
0
 10
0.0
 20
0.0
 30
0.0
 40
29.0
 50
95.937769999707484
 51
264.06222500006783
  0
ARC
  5
681D
  8
0
 10
0.0
 20
0.0
 30
0.0
 40
31.0
 50
95.937769999707484
 51
264.06222500006783
  0
ARC
  5
681E
  8
0
 10
0.0
 20
0.0
 30
0.0
 40
38.0
 50
274.52806299994222
 51
85.471936986257219
  0
ARC
  5
681F
  8
0
 10
0.0
 20
0.0
 30
0.0
 40
29.0
 50
275.93777299984231
 51
84.062220000261803
  0
ARC
  5
6820
  8
0
 10
0.0
 20
0.0
 30
0.0
 40
31.0
 50
275.93777299984231
 51
84.446555804084582
  0
ARC
  5
6821
  8
0
 10
-20.5
 20
43.0
 30
0.0
 40
1.0
 50
179.99998999999889
 51
269.99999600002042
  0
ARC
  5
6822
  8
0
 10
-20.5
 20
53.0
 30
0.0
 40
1.0
 50
90.0
 51
180.00000500893739
  0
ARC
  5
6823
  8
0
 10
-11.85200500000064
 20
51.25
 30
0.0
 40
7.6479949999999981
 50
154.85263000010701
 51
205.14737500003099
  0
ARC
  5
6824
  8
0
 10
-11.85200500000064
 20
44.75
 30
0.0
 40
7.6479949999999981
 50
154.85263000010701
 51
205.1473680000901
  0
ARC
  5
6825
  8
0
 10
-20.647994999999352
 20
51.25
 30
0.0
 40
7.6479949999999981
 50
334.85263000010701
 51
25.147369999892991
  0
ARC
  5
6826
  8
0
 10
-20.647994999999352
 20
44.75
 30
0.0
 40
7.6479949999999981
 50
334.85263000010701
 51
25.147369999892991
  0
ARC
  5
6827
  8
0
 10
-20.5
 20
-43.0
 30
0.0
 40
1.0
 50
90.0
 51
180.00000500893739
  0
ARC
  5
6828
  8
0
 10
-20.5
 20
-53.0
 30
0.0
 40
1.0
 50
179.99998999999889
 51
269.99999600002042
  0
ARC
  5
6829
  8
0
 10
-11.85200500000064
 20
-51.25
 30
0.0
 40
7.6479949999999981
 50
154.85261999999599
 51
205.14737199986081
  0
ARC
  5
682A
  8
0
 10
-11.85200500000064
 20
-44.75
 30
0.0
 40
7.6479949999999981
 50
154.85263000010701
 51
205.14737199986081
  0
ARC
  5
682B
  8
0
 10
-20.647994999999352
 20
-51.25
 30
0.0
 40
7.6479949999999981
 50
334.85263000010701
 51
25.147369999892991
  0
ARC
  5
682C
  8
0
 10
-20.647994999999352
 20
-44.75
 30
0.0
 40
7.6479949999999981
 50
334.85263000010701
 51
25.147369999892991
  0
ARC
  5
682D
  8
0
 10
10.85200500000064
 20
-44.75
 30
0.0
 40
7.647994500000002
 50
334.85263000010701
 51
25.147369999892991
  0
ARC
  5
682E
  8
0
 10
10.85200500000064
 20
-51.25
 30
0.0
 40
7.647994500000002
 50
334.85263000010701
 51
25.147369999892991
  0
ARC
  5
682F
  8
0
 10
10.85200500000064
 20
44.75
 30
0.0
 40
7.647994500000002
 50
334.85263000010701
 51
25.147369999892991
  0
ARC
  5
6830
  8
0
 10
10.85200500000064
 20
51.25
 30
0.0
 40
7.647994500000002
 50
334.85263000010701
 51
25.147369999892991
  0
LINE
  5
6831
  8
0
  6
CENTER
 10
0.0
 20
55.759478892277002
 30
0.0
 11
0.0
 21
-98.000000000000227
 31
0.0
  0
LINE
  5
6832
  8
0
  6
CENTER
 10
-55.759478892276093
 20
0.0
 30
0.0
 11
55.759478892276093
 21
0.0
 31
0.0
  0
LINE
  5
68F6
  8
0
  6
CENTER
 10
-21.809530600177819
 20
-11.150000000000309
 30
0.0
 11
21.809530600177819
 21
-11.150000000000309
 31
0.0
  0
LINE
  5
68F7
  8
0
 10
-70.0
 20
-74.000000000000227
 30
0.0
 11
70.0
 21
-74.000000000000227
 31
0.0
  0
LINE
  5
68F8
  8
0
 10
24.299999999999269
 20
-73.999999999999773
 30
0.0
 11
24.30000000000291
 21
-29.21489346206749
 31
0.0
  0
LINE
  5
68F9
  8
0
 10
70.0
 20
-90.000000000000227
 30
0.0
 11
-70.0
 21
-90.000000000000227
 31
0.0
  0
LINE
  5
68FA
  8
0
 10
70.0
 20
-74.000000000000227
 30
0.0
 11
70.0
 21
-90.000000000000227
 31
0.0
  0
LINE
  5
68FB
  8
0
  6
CENTER
 10
52.5
 20
-98.000000000000227
 30
0.0
 11
52.5
 21
-64.000000000000227
 31
0.0
  0
LINE
  5
68FC
  8
0
 10
-24.30000000000291
 20
-73.999999999999773
 30
0.0
 11
-24.30000000000291
 21
-52.0
 31
0.0
  0
LINE
  5
68FD
  8
0
 10
-24.30000000000291
 20
-43.999999999999773
 30
0.0
 11
-24.30000000000291
 21
-29.214893462066581
 31
0.0
  0
LINE
  5
68FE
  8
0
  6
CENTER
 10
-52.5
 20
-98.000000000000227
 30
0.0
 11
-52.5
 21
-64.000000000000227
 31
0.0
  0
LINE
  5
68FF
  8
0
 10
-70.0
 20
-90.000000000000227
 30
0.0
 11
-70.0
 21
-74.000000000000227
 31
0.0
  0
LINE
  5
6900
  8
0
 10
-70.0
 20
74.000000000000227
 30
0.0
 11
70.0
 21
74.000000000000227
 31
0.0
  0
LINE
  5
6901
  8
0
 10
24.299999999999269
 20
73.999999999999773
 30
0.0
 11
24.30000000000291
 21
29.21489346206749
 31
0.0
  0
LINE
  5
6902
  8
0
 10
70.0
 20
90.000000000000227
 30
0.0
 11
-70.0
 21
90.000000000000227
 31
0.0
  0
LINE
  5
6903
  8
0
 10
70.0
 20
74.000000000000227
 30
0.0
 11
70.0
 21
90.000000000000227
 31
0.0
  0
LINE
  5
6904
  8
0
  6
CENTER
 10
52.5
 20
98.000000000000227
 30
0.0
 11
52.5
 21
64.000000000000227
 31
0.0
  0
LINE
  5
6905
  8
0
 10
-24.30000000000291
 20
73.999999999999773
 30
0.0
 11
-24.299999999999269
 21
52.0
 31
0.0
  0
LINE
  5
6906
  8
0
  6
CENTER
 10
-52.5
 20
98.000000000000227
 30
0.0
 11
-52.5
 21
64.000000000000227
 31
0.0
  0
LINE
  5
6907
  8
0
 10
-70.0
 20
90.000000000000227
 30
0.0
 11
-70.0
 21
74.000000000000227
 31
0.0
  0
CIRCLE
  5
6946
  8
AM_0_T3
 10
0.0
 20
-11.150000000000309
 30
0.0
 40
17.0
  0
CIRCLE
  5
6947
  8
AM_0_T3
 10
0.0
 20
-11.150000000000309
 30
0.0
 40
10.85000000000036
  0
ENDSEC
  0
EOF
