  0
SECTION
  2
HEADER
  9
$ACADVER
  1
AC1009
  9
$INSBASE
 10
0.0
 20
0.0
 30
0.0
  9
$EXTMIN
 10
-70.0
 20
-98.000000000000227
 30
0.0
  9
$EXTMAX
 10
2282.59999229799
 20
584.28139750375919
 30
0.0
  9
$LIMMIN
 10
0.0
 20
0.0
  9
$LIMMAX
 10
420.0
 20
297.0
  9
$ORTHOMODE
 70
     0
  9
$REGENMODE
 70
     1
  9
$FILLMODE
 70
     1
  9
$QTEXTMODE
 70
     0
  9
$MIRRTEXT
 70
     1
  9
$DRAGMODE
 70
     2
  9
$LTSCALE
 40
1.0
  9
$OSMODE
 70
    37
  9
$ATTMODE
 70
     1
  9
$TEXTSIZE
 40
73.985717453579113
  9
$TRACEWID
 40
1.0
  9
$TEXTSTYLE
  7
STANDARD
  9
$CLAYER
  8
0
  9
$CELTYPE
  6
BYLAYER
  9
$CECOLOR
 62
   256
  9
$DIMSCALE
 40
1.0
  9
$DIMASZ
 40
3.0
  9
$DIMEXO
 40
1.0
  9
$DIMDLI
 40
10.0
  9
$DIMRND
 40
0.0
  9
$DIMDLE
 40
0.0
  9
$DIMEXE
 40
1.0
  9
$DIMTP
 40
0.1
  9
$DIMTM
 40
0.1
  9
$DIMTXT
 40
30.0
  9
$DIMCEN
 40
0.0
  9
$DIMTSZ
 40
0.0
  9
$DIMTOL
 70
     0
  9
$DIMLIM
 70
     0
  9
$DIMTIH
 70
     0
  9
$DIMTOH
 70
     0
  9
$DIMSE1
 70
     0
  9
$DIMSE2
 70
     0
  9
$DIMTAD
 70
     3
  9
$DIMZIN
 70
     8
  9
$DIMBLK
  1
OPEN
  9
$DIMASO
 70
     1
  9
$DIMSHO
 70
     1
  9
$DIMPOST
  1

  9
$DIMAPOST
  1
"
  9
$DIMALT
 70
     0
  9
$DIMALTD
 70
     2
  9
$DIMALTF
 40
0.0393701
  9
$DIMLFAC
 40
1.0
  9
$DIMTOFL
 70
     1
  9
$DIMTVP
 40
0.0
  9
$DIMTIX
 70
     0
  9
$DIMSOXD
 70
     0
  9
$DIMSAH
 70
     0
  9
$DIMBLK1
  1

  9
$DIMBLK2
  1

  9
$DIMSTYLE
  2
TSK
  9
$DIMCLRD
 70
   256
  9
$DIMCLRE
 70
   256
  9
$DIMCLRT
 70
     2
  9
$DIMTFAC
 40
0.71
  9
$DIMGAP
 40
1.5
  9
$LUNITS
 70
     2
  9
$LUPREC
 70
     8
  9
$SKETCHINC
 40
1.0
  9
$FILLETRAD
 40
0.0
  9
$AUNITS
 70
     0
  9
$AUPREC
 70
     8
  9
$MENU
  1
.
  9
$ELEVATION
 40
0.0
  9
$PELEVATION
 40
0.0
  9
$THICKNESS
 40
0.0
  9
$LIMCHECK
 70
     0
  9
$BLIPMODE
 70
     0
  9
$CHAMFERA
 40
2.5
  9
$CHAMFERB
 40
2.5
  9
$SKPOLY
 70
     0
  9
$TDCREATE
 40
2454739.7204081588
  9
$TDUPDATE
 40
2454748.5620255899
  9
$TDINDWG
 40
0.278445463
  9
$TDUSRTIMER
 40
0.278445463
  9
$USRTIMER
 70
     1
  9
$ANGBASE
 50
0.0
  9
$ANGDIR
 70
     1
  9
$PDMODE
 70
     0
  9
$PDSIZE
 40
0.0
  9
$PLINEWID
 40
0.0
  9
$COORDS
 70
     1
  9
$SPLFRAME
 70
     0
  9
$SPLINETYPE
 70
     6
  9
$SPLINESEGS
 70
     8
  9
$ATTDIA
 70
     0
  9
$ATTREQ
 70
     1
  9
$HANDLING
 70
 22529
  9
$HANDSEED
  5
6BC0
  9
$SURFTAB1
 70
     6
  9
$SURFTAB2
 70
     6
  9
$SURFTYPE
 70
     6
  9
$SURFU
 70
     6
  9
$SURFV
 70
     6
  9
$UCSNAME
  2

  9
$UCSORG
 10
0.0
 20
0.0
 30
0.0
  9
$UCSXDIR
 10
1.0
 20
0.0
 30
0.0
  9
$UCSYDIR
 10
0.0
 20
1.0
 30
0.0
  9
$PUCSNAME
  2

  9
$PUCSORG
 10
0.0
 20
0.0
 30
0.0
  9
$PUCSXDIR
 10
1.0
 20
0.0
 30
0.0
  9
$PUCSYDIR
 10
0.0
 20
1.0
 30
0.0
  9
$USERI1
 70
     0
  9
$USERI2
 70
     0
  9
$USERI3
 70
     0
  9
$USERI4
 70
     0
  9
$USERI5
 70
     0
  9
$USERR1
 40
0.0
  9
$USERR2
 40
0.0
  9
$USERR3
 40
0.0
  9
$USERR4
 40
0.0
  9
$USERR5
 40
0.0
  9
$WORLDVIEW
 70
     1
  9
$SHADEDGE
 70
     3
  9
$SHADEDIF
 70
    70
  9
$TILEMODE
 70
     1
  9
$MAXACTVP
 70
    48
  9
$PLIMCHECK
 70
     0
  9
$PEXTMIN
 10
1.0000000000000000E+020
 20
1.0000000000000000E+020
 30
1.0000000000000000E+020
  9
$PEXTMAX
 10
-1.0000000000000000E+020
 20
-1.0000000000000000E+020
 30
-1.0000000000000000E+020
  9
$PLIMMIN
 10
0.0
 20
0.0
  9
$PLIMMAX
 10
420.0
 20
297.0
  9
$UNITMODE
 70
     0
  9
$VISRETAIN
 70
     1
  9
$PLINEGEN
 70
     0
  9
$PSLTSCALE
 70
     1
  0
ENDSEC
  0
SECTION
  2
TABLES
  0
TABLE
  2
VPORT
 70
     2
  0
VPORT
  2
*ACTIVE
 70
     0
 10
0.0
 20
0.0
 11
1.0
 21
1.0
 12
1156.369108457181
 22
243.14266217318871
 13
0.0
 23
0.0
 14
2.5
 24
2.5
 15
10.0
 25
10.0
 16
0.0
 26
0.0
 36
1.0
 17
0.0
 27
0.0
 37
0.0
 40
1543.606671342166
 41
1.596774193548387
 42
50.0
 43
0.0
 44
0.0
 50
0.0
 51
0.0
 71
     0
 72
   100
 73
     1
 74
     3
 75
     0
 76
     0
 77
     0
 78
     0
  0
ENDTAB
  0
TABLE
  2
LTYPE
 70
     2
  0
LTYPE
  2
CONTINUOUS
 70
     0
  3
Solid line
 72
    65
 73
     0
 40
0.0
  0
LTYPE
  2
CENTER
 70
     0
  3
__ . __
 72
    65
 73
     4
 40
7.0
 49
4.0
 49
-1.0
 49
1.0
 49
-1.0
  0
ENDTAB
  0
TABLE
  2
LAYER
 70
     2
  0
LAYER
  2
0
 70
     0
 62
     7
  6
CONTINUOUS
  0
LAYER
  2
AM_0_T3
 70
     0
 62
     7
  6
CONTINUOUS
  0
ENDTAB
  0
TABLE
  2
STYLE
 70
     2
  0
STYLE
  2
STANDARD
 70
     0
 40
0.0
 41
0.7
 50
0.0
 71
     0
 42
73.985717453579113
  3
romans.shx
  4
bigfont.shx
  0
STYLE
  2
TSKDIM
 70
     0
 40
0.0
 41
0.75
 50
0.0
 71
     0
 42
4.0
  3
romans.shx
  4
EXTFONT.SHX
  0
ENDTAB
  0
TABLE
  2
VIEW
 70
     0
  0
ENDTAB
  0
TABLE
  2
UCS
 70
     0
  0
ENDTAB
  0
TABLE
  2
APPID
 70
    41
  0
APPID
  2
ACAD
 70
     0
  0
APPID
  2
MCAD_NO_VIS
 70
     0
  0
APPID
  2
ACAD_TEMP_GRAPHIC
 70
     0
  0
APPID
  2
ACATTRIBSERVICES
 70
     0
  0
APPID
  2
AD_DRAW
 70
     0
  0
APPID
  2
DESIGNERASSEMBLIES
 70
     0
  0
APPID
  2
ASURF_PCURVE_APPNAME
 70
     0
  0
APPID
  2
ACADM_DIM_EDIT
 70
     0
  0
APPID
  2
GENIUS_GENDIM_13
 70
     0
  0
APPID
  2
GENIUS_GENDTOL_13
 70
     0
  0
APPID
  2
GENIUS_GE3DTOL_13
 70
     0
  0
APPID
  2
AMG_3D2D_5_0
 70
     0
  0
APPID
  2
AMDT_DM_ADJ
 70
     0
  0
APPID
  2
CK_MATE-SERIES
 70
     0
  0
APPID
  2
GEVID1042077799
 70
     0
  0
APPID
  2
GEVMK
 70
     0
  0
APPID
  2
GEVDC
 70
     0
  0
APPID
  2
GENIUS_GENBH_13
 70
     0
  0
APPID
  2
GENIUS_GENOLIS_13
 70
     0
  0
APPID
  2
GENIUS_GENOENT_13
 70
     0
  0
APPID
  2
GENIUS_GENODEF_13
 70
     0
  0
APPID
  2
GENIUS_GENOBJ-NBEHI-BHF_13
 70
     0
  0
APPID
  2
GENIUS_GENOREF_13
 70
     0
  0
APPID
  2
GENIUS_GENOBJ-NBEHI-BHB_13
 70
     0
  0
APPID
  2
GEVID1042183772
 70
     0
  0
APPID
  2
GEVID1042183773
 70
     0
  0
APPID
  2
GEVID1042183774
 70
     0
  0
APPID
  2
DCO15
 70
     0
  0
APPID
  2
ACAD_DSTYLE_DIMARC_LENGTH_
 70
     0
  0
APPID
  2
ACAD_DSTYLE_DIMJOGGED_JOGA
 70
     0
  0
APPID
  2
ACAD_MLEADERVER
 70
     0
  0
APPID
  2
ACAD_DSTYLE_DIMJAG
 70
     0
  0
APPID
  2
ACAD_DSTYLE_DIMTALN
 70
     0
  0
APPID
  2
ACAD_PSEXT
 70
     0
  0
APPID
  2
ACAD_EXEMPT_FROM_CAD_STANDARDS
 70
     0
  0
APPID
  2
ACAD_DSTYLE_DIMINSPECT
 70
     0
  0
APPID
  2
ACAD_DSTYLE_DIMANGULAR_EXT
 70
     0
  0
APPID
  2
GENIUS_GENOBJ-N-FIL_13
 70
     0
  0
APPID
  2
ACAD_DSTYLE_DIM_LINETYPE
 70
     0
  0
APPID
  2
ACAD_DSTYLE_DIM_EXT1_LINETYPE
 70
     0
  0
APPID
  2
ACAD_DSTYLE_DIM_EXT2_LINETYPE
 70
     0
  0
ENDTAB
  0
TABLE
  2
DIMSTYLE
 70
     1
  0
DIMSTYLE
  2
TSK
 70
     0
  3

  4
"
  5
OPEN
  6

  7

 40
1.0
 41
3.0
 42
1.0
 43
10.0
 44
1.0
 45
0.0
 46
0.0
 47
0.1
 48
0.1
140
3.0
141
0.0
142
0.0
143
0.0393701
144
1.0
145
0.0
146
0.71
147
1.5
 71
     0
 72
     0
 73
     0
 74
     0
 75
     0
 76
     0
 77
     3
 78
     8
170
     0
171
     2
172
     1
173
     0
174
     0
175
     0
176
   256
177
   256
178
     2
  0
ENDTAB
  0
ENDSEC
  0
SECTION
  2
BLOCKS
  0
BLOCK
  8
0
  2
$MODEL_SPACE
 70
     0
 10
0.0
 20
0.0
 30
0.0
  3
$MODEL_SPACE
  1

  0
ENDBLK
  5
21
  8
0
  0
BLOCK
 67
     1
  8
0
  2
$PAPER_SPACE
 70
     0
 10
0.0
 20
0.0
 30
0.0
  3
$PAPER_SPACE
  1

  0
ENDBLK
  5
1D
 67
     1
  8
0
  0
BLOCK
  8
0
  2
_OPEN
 70
     0
 10
0.0
 20
0.0
 30
0.0
  3
_OPEN
  1

  0
LINE
  5
15A
  8
0
  6
BYBLOCK
 62
     0
 10
-1.0
 20
0.1666666666666666
 30
0.0
 11
0.0
 21
0.0
 31
0.0
  0
LINE
  5
15B
  8
0
  6
BYBLOCK
 62
     0
 10
-1.0
 20
-0.1666666666666666
 30
0.0
 11
0.0
 21
0.0
 31
0.0
  0
LINE
  5
15C
  8
0
  6
BYBLOCK
 62
     0
 10
0.0
 20
0.0
 30
0.0
 11
-1.0
 21
0.0
 31
0.0
  0
ENDBLK
  5
15E
  8
0
  0
ENDSEC
  0
SECTION
  2
ENTITIES
  0
LINE
  5
26F7
  8
0
 10
1219.701249576935
 20
-37.499999999997492
 30
0.0
 11
1219.7012495769341
 21
37.500000000002267
 31
0.0
  0
LINE
  5
26F8
  8
0
 10
1224.2012495769341
 20
-37.499999999997492
 30
0.0
 11
1224.201249576932
 21
37.500000000002267
 31
0.0
  0
LINE
  5
26F9
  8
0
 10
1228.701249576937
 20
-37.499999999997492
 30
0.0
 11
1228.701249576937
 21
37.500000000002267
 31
0.0
  0
LINE
  5
26FA
  8
0
 10
1233.2012495769341
 20
-37.499999999997492
 30
0.0
 11
1233.201249576932
 21
37.500000000002267
 31
0.0
  0
LINE
  5
2700
  8
0
 10
1198.7512495769331
 20
-31.040918148760738
 30
0.0
 11
1202.480402222465
 21
-37.499999999997719
 31
0.0
  0
LINE
  5
2703
  8
0
 10
1202.480402222465
 20
-37.499999999997719
 30
0.0
 11
1268.422096931404
 21
-37.499999999997719
 31
0.0
  0
LINE
  5
270B
  8
0
 10
1198.7512495769331
 20
-31.040918148760738
 30
0.0
 11
1198.7512495769331
 21
31.040918148761651
 31
0.0
  0
LINE
  5
2713
  8
0
 10
1198.7512495769331
 20
31.040918148761651
 30
0.0
 11
1202.480402222465
 21
37.500000000002267
 31
0.0
  0
LINE
  5
2718
  8
0
 10
1202.480402222465
 20
37.500000000002267
 30
0.0
 11
1268.4220969314019
 21
37.500000000002267
 31
0.0
  0
LINE
  5
2729
  8
0
 10
1202.480402222465
 20
-37.499999999994081
 30
0.0
 11
1202.480402222465
 21
37.500000000002267
 31
0.0
  0
LINE
  5
2BD4
  8
0
 10
1272.1512495769341
 20
-31.040918148760738
 30
0.0
 11
1268.422096931404
 21
-37.499999999997719
 31
0.0
  0
LINE
  5
2BD5
  8
0
 10
1272.1512495769341
 20
-31.040918148760738
 30
0.0
 11
1272.1512495769341
 21
31.040918148761651
 31
0.0
  0
LINE
  5
2BD6
  8
0
 10
1272.1512495769341
 20
31.040918148761651
 30
0.0
 11
1268.4220969314019
 21
37.500000000002267
 31
0.0
  0
LINE
  5
2BD7
  8
0
 10
1268.4220969314019
 20
-37.499999999994081
 30
0.0
 11
1268.4220969314019
 21
37.500000000002267
 31
0.0
  0
LINE
  5
2BE4
  8
0
 10
1205.7512495769331
 20
-37.499999999997719
 30
0.0
 11
1205.7512495769331
 21
37.500000000002267
 31
0.0
  0
LINE
  5
2C36
  8
0
 10
1215.201249576935
 20
-37.499999999997492
 30
0.0
 11
1215.2012495769341
 21
37.500000000002267
 31
0.0
  0
LINE
  5
2C37
  8
0
 10
1210.7012495769361
 20
-37.499999999997492
 30
0.0
 11
1210.7012495769341
 21
37.500000000002267
 31
0.0
  0
LINE
  5
2C38
  8
0
 10
1251.201249576932
 20
-37.499999999997492
 30
0.0
 11
1251.2012495769341
 21
37.500000000002267
 31
0.0
  0
LINE
  5
2C39
  8
0
 10
1255.701249576932
 20
-37.499999999997492
 30
0.0
 11
1255.7012495769341
 21
37.500000000002267
 31
0.0
  0
LINE
  5
2C3A
  8
0
 10
1260.201249576932
 20
-37.499999999997492
 30
0.0
 11
1260.2012495769341
 21
37.500000000002267
 31
0.0
  0
LINE
  5
2C3B
  8
0
 10
1246.7012495769341
 20
-37.499999999997492
 30
0.0
 11
1246.701249576935
 21
37.500000000002267
 31
0.0
  0
LINE
  5
2C3C
  8
0
 10
1242.20124957693
 20
-37.499999999997492
 30
0.0
 11
1242.20124957693
 21
37.500000000002267
 31
0.0
  0
LINE
  5
2C3D
  8
0
 10
1237.7012495769341
 20
-37.499999999997492
 30
0.0
 11
1237.701249576935
 21
37.500000000002267
 31
0.0
  0
LINE
  5
2C3E
  8
0
 10
1265.1512495769341
 20
-37.499999999997719
 30
0.0
 11
1265.1512495769341
 21
37.500000000002267
 31
0.0
  0
ARC
  5
2D3F
  8
0
 10
234.45124933851361
 20
-48.0
 30
0.0
 40
7.0
 50
132.20616791856131
 51
171.7867417394703
  0
ARC
  5
2D40
  8
0
 10
234.45124933851361
 20
-48.0
 30
0.0
 40
7.0
 50
188.2132024012403
 51
231.7867959184548
  0
ARC
  5
2D41
  8
0
 10
234.45124933851361
 20
-48.0
 30
0.0
 40
7.0
 50
248.21312248938511
 51
291.78687751061477
  0
ARC
  5
2D42
  8
0
 10
234.45124933851361
 20
-48.0
 30
0.0
 40
7.0
 50
308.21320408154509
 51
351.78679759875962
  0
ARC
  5
2D43
  8
0
 10
234.45124933851361
 20
-48.0
 30
0.0
 40
7.0
 50
8.2132582605297042
 51
47.793826811973183
  0
ARC
  5
2D48
  8
0
 10
234.45124933851361
 20
48.0
 30
0.0
 40
7.0
 50
312.12875643080048
 51
351.7867417394703
  0
ARC
  5
2D49
  8
0
 10
234.45124933851361
 20
48.0
 30
0.0
 40
7.0
 50
8.2132024012145912
 51
51.786795918454878
  0
ARC
  5
2D4A
  8
0
 10
234.45124933851361
 20
48.0
 30
0.0
 40
7.0
 50
68.2131224893851
 51
111.7868775106148
  0
ARC
  5
2D4B
  8
0
 10
234.45124933851361
 20
48.0
 30
0.0
 40
7.0
 50
128.21320408154509
 51
171.78679759875959
  0
LINE
  5
2D54
  8
0
 10
1219.701249576935
 20
374.17147954932102
 30
0.0
 11
1219.7012495769341
 21
449.17147954932051
 31
0.0
  0
LINE
  5
2D55
  8
0
 10
1215.201249576935
 20
374.17147954932102
 30
0.0
 11
1215.2012495769341
 21
449.17147954932051
 31
0.0
  0
LINE
  5
2D56
  8
0
 10
1210.7012495769361
 20
374.17147954932102
 30
0.0
 11
1210.7012495769341
 21
449.17147954932051
 31
0.0
  0
LINE
  5
2D57
  8
0
 10
1224.2012495769341
 20
374.17147954932102
 30
0.0
 11
1224.201249576932
 21
449.17147954932051
 31
0.0
  0
LINE
  5
2D58
  8
0
 10
1228.701249576937
 20
374.17147954932102
 30
0.0
 11
1228.701249576937
 21
449.17147954932051
 31
0.0
  0
LINE
  5
2D59
  8
0
 10
1233.2012495769341
 20
374.17147954932102
 30
0.0
 11
1233.201249576932
 21
449.17147954932051
 31
0.0
  0
LINE
  5
2D5A
  8
0
 10
1198.7512495769331
 20
380.6305614005575
 30
0.0
 11
1202.480402222465
 21
374.17147954932051
 31
0.0
  0
LINE
  5
2D5B
  8
0
 10
1202.480402222465
 20
374.17147954932051
 30
0.0
 11
1268.422096931404
 21
374.17147954932051
 31
0.0
  0
LINE
  5
2D5C
  8
0
 10
1198.7512495769331
 20
380.6305614005575
 30
0.0
 11
1198.7512495769331
 21
442.71239769807988
 31
0.0
  0
LINE
  5
2D5D
  8
0
 10
1205.7512495769331
 20
374.17147954932051
 30
0.0
 11
1205.7512495769331
 21
449.17147954932051
 31
0.0
  0
LINE
  5
2D5E
  8
0
 10
1198.7512495769331
 20
442.71239769807988
 30
0.0
 11
1202.480402222465
 21
449.17147954932051
 31
0.0
  0
LINE
  5
2D5F
  8
0
 10
1202.480402222465
 20
449.17147954932051
 30
0.0
 11
1268.4220969314019
 21
449.17147954932051
 31
0.0
  0
LINE
  5
2D62
  8
0
  6
CENTER
 10
2282.59999229799
 20
411.67147954931829
 30
0.0
 11
188.30250685587811
 21
411.67147954931829
 31
0.0
  0
LINE
  5
2D63
  8
0
 10
1202.480402222465
 20
374.17147954932409
 30
0.0
 11
1202.480402222465
 21
449.17147954932051
 31
0.0
  0
LINE
  5
2D64
  8
0
 10
1272.1512495769341
 20
380.6305614005575
 30
0.0
 11
1268.422096931404
 21
374.17147954932051
 31
0.0
  0
LINE
  5
2D65
  8
0
 10
1272.1512495769341
 20
380.6305614005575
 30
0.0
 11
1272.1512495769341
 21
442.71239769807988
 31
0.0
  0
LINE
  5
2D66
  8
0
 10
1272.1512495769341
 20
442.71239769807988
 30
0.0
 11
1268.4220969314019
 21
449.17147954932051
 31
0.0
  0
LINE
  5
2D67
  8
0
 10
1268.4220969314019
 20
374.17147954932409
 30
0.0
 11
1268.4220969314019
 21
449.17147954932051
 31
0.0
  0
LINE
  5
2D68
  8
0
 10
1251.201249576932
 20
374.17147954932102
 30
0.0
 11
1251.2012495769341
 21
449.17147954932051
 31
0.0
  0
LINE
  5
2D69
  8
0
 10
1255.701249576932
 20
374.17147954932102
 30
0.0
 11
1255.7012495769341
 21
449.17147954932051
 31
0.0
  0
LINE
  5
2D6A
  8
0
 10
1260.201249576932
 20
374.17147954932102
 30
0.0
 11
1260.2012495769341
 21
449.17147954932051
 31
0.0
  0
LINE
  5
2D6B
  8
0
 10
1246.7012495769341
 20
374.17147954932102
 30
0.0
 11
1246.701249576935
 21
449.17147954932051
 31
0.0
  0
LINE
  5
2D6C
  8
0
 10
1242.20124957693
 20
374.17147954932102
 30
0.0
 11
1242.20124957693
 21
449.17147954932051
 31
0.0
  0
LINE
  5
2D6D
  8
0
 10
1237.7012495769341
 20
374.17147954932102
 30
0.0
 11
1237.701249576935
 21
449.17147954932051
 31
0.0
  0
LINE
  5
2D6E
  8
0
 10
1265.1512495769341
 20
374.17147954932051
 30
0.0
 11
1265.1512495769341
 21
449.17147954932051
 31
0.0
  0
ARC
  5
2DD2
  8
0
 10
2241.4512495769359
 20
432.17147954931733
 30
0.0
 40
1.0
 50
0.0
 51
90.000005008833185
  0
ARC
  5
2DD3
  8
0
 10
2231.4512495769359
 20
432.17147954931733
 30
0.0
 40
1.0
 50
89.999989999842668
 51
179.99999600002039
  0
ARC
  5
2DD4
  8
0
 10
2233.201249576935
 20
423.52348454931803
 30
0.0
 40
7.6479949999999981
 50
64.852620000106981
 51
115.14737199976651
  0
ARC
  5
2DD5
  8
0
 10
2239.7012495769359
 20
423.52348454931803
 30
0.0
 40
7.6479949999999981
 50
64.852630000094493
 51
115.14737199976651
  0
ARC
  5
2DD6
  8
0
 10
2233.201249576935
 20
432.31947454931668
 30
0.0
 40
7.6479949999999981
 50
244.85263000009451
 51
295.14736999990549
  0
ARC
  5
2DD7
  8
0
 10
2239.7012495769359
 20
432.31947454931668
 30
0.0
 40
7.6479949999999981
 50
244.85263000009451
 51
295.14736999990549
  0
ARC
  5
2DD8
  8
0
 10
2239.7012495769359
 20
400.81947454931668
 30
0.0
 40
7.647994500000002
 50
244.85263000009451
 51
295.14736999990549
  0
ARC
  5
2DD9
  8
0
 10
2233.201249576935
 20
400.81947454931668
 30
0.0
 40
7.647994500000002
 50
244.85263000009451
 51
295.14736999990549
  0
ARC
  5
2E94
  8
AM_0_T3
 10
319.451249576934
 20
-32.793916418242588
 30
0.0
 40
25.400000000000109
 50
16.92376729139405
 51
163.07623270860589
  0
ARC
  5
2ED0
  8
0
 10
234.45124933851361
 20
48.0
 30
0.0
 40
7.0
 50
188.21325826052961
 51
227.87124883138
  0
LINE
  5
2ED4
  8
0
 10
2229.2012495769368
 20
386.27147954931911
 30
0.0
 11
2216.680384171837
 21
386.2714795493186
 31
0.0
  0
LINE
  5
2ED5
  8
0
 10
2229.2012495769368
 20
437.07147954931833
 30
0.0
 11
2216.680384171837
 21
437.07147954931833
 31
0.0
  0
LINE
  5
2ED6
  8
0
 10
2257.4512495769341
 20
386.32147954931878
 30
0.0
 11
2257.4512495769359
 21
437.02147954931729
 31
0.0
  0
LINE
  5
2ED7
  8
0
 10
2243.7012495769359
 20
386.32147954931833
 30
0.0
 11
2257.4512495769341
 21
386.32147954931878
 31
0.0
  0
LINE
  5
2ED8
  8
0
 10
2243.7012495769341
 20
437.02147954931729
 30
0.0
 11
2257.4512495769359
 21
437.02147954931729
 31
0.0
  0
LINE
  5
2ED9
  8
0
 10
2229.2012495769359
 20
380.81698230823588
 30
0.0
 11
2229.2012495769359
 21
442.67147954931738
 31
0.0
  0
LINE
  5
2EDA
  8
0
 10
2243.7012495769359
 20
380.81698359366982
 30
0.0
 11
2243.7012495769359
 21
442.67147954931738
 31
0.0
  0
LINE
  5
2EDB
  8
0
 10
2231.749041216799
 20
449.67147954931738
 30
0.0
 11
2231.750392134777
 21
433.17147954931738
 31
0.0
  0
LINE
  5
2EDC
  8
0
 10
2231.753655768523
 20
393.30972807970301
 30
0.0
 11
2231.7552636268501
 21
373.67148005877169
 31
0.0
  0
LINE
  5
2EDD
  8
0
 10
2241.1534579370718
 20
449.67147954931738
 30
0.0
 11
2241.152107019092
 21
433.17147954931738
 31
0.0
  0
LINE
  5
2EDE
  8
0
 10
2241.148843385346
 20
393.30972807970261
 30
0.0
 11
2241.1472355270189
 21
373.67148005877169
 31
0.0
  0
LINE
  5
2EDF
  8
0
 10
2229.4512495769359
 20
408.67147954931738
 30
0.0
 11
2243.451249576935
 21
408.67147954931738
 31
0.0
  0
LINE
  5
2EE0
  8
0
 10
2229.4512495769359
 20
398.67147954931738
 30
0.0
 11
2243.451249576935
 21
398.67147954931738
 31
0.0
  0
LINE
  5
2EE1
  8
0
 10
2229.4512495769359
 20
414.67147954931733
 30
0.0
 11
2243.451249576935
 21
414.67147954931733
 31
0.0
  0
LINE
  5
2EE2
  8
0
 10
2229.4512495769359
 20
424.67147954931738
 30
0.0
 11
2243.451249576935
 21
424.67147954931738
 31
0.0
  0
LINE
  5
2EE3
  8
0
 10
2229.4512495769359
 20
398.67147954931738
 30
0.0
 11
2229.4512495769359
 21
408.67147954931738
 31
0.0
  0
LINE
  5
2EE4
  8
0
 10
2229.4512495769359
 20
424.67147954931738
 30
0.0
 11
2229.4512495769359
 21
414.67147954931733
 31
0.0
  0
LINE
  5
2EE5
  8
0
 10
2232.451249576935
 20
414.67147954931733
 30
0.0
 11
2232.451249576935
 21
408.67147954931738
 31
0.0
  0
LINE
  5
2EE6
  8
0
 10
2240.4512495769359
 20
414.67147954931733
 30
0.0
 11
2240.4512495769359
 21
408.67147954931738
 31
0.0
  0
LINE
  5
2EE8
  8
0
 10
2240.4512495769359
 20
438.67147954931738
 30
0.0
 11
2240.4512495769359
 21
433.17147954931738
 31
0.0
  0
LINE
  5
2EE9
  8
0
 10
2241.4512495769359
 20
433.17147954931738
 30
0.0
 11
2231.4512495769359
 21
433.17147954931738
 31
0.0
  0
LINE
  5
2EEA
  8
0
 10
2240.4512495769359
 20
438.67147954931738
 30
0.0
 11
2232.451249576935
 21
438.67147954931738
 31
0.0
  0
LINE
  5
2EEB
  8
0
 10
2242.451249576935
 20
432.17147954931733
 30
0.0
 11
2242.451249576935
 21
431.17147954931733
 31
0.0
  0
LINE
  5
2EEC
  8
0
 10
2230.451249576935
 20
432.17147954931733
 30
0.0
 11
2230.451249576935
 21
431.17147954931733
 31
0.0
  0
LINE
  5
2EEE
  8
0
 10
2229.9512495769359
 20
431.17147954931733
 30
0.0
 11
2242.9512495769359
 21
431.17147954931733
 31
0.0
  0
LINE
  5
2EEF
  8
0
 10
2229.9512495769359
 20
431.17147954931733
 30
0.0
 11
2229.9512495769359
 21
424.67147954931738
 31
0.0
  0
LINE
  5
2EF0
  8
0
 10
2242.9512495769359
 20
431.17147954931733
 30
0.0
 11
2242.9512495769359
 21
424.67147954931738
 31
0.0
  0
LINE
  5
2EF1
  8
0
 10
2232.451249576935
 20
438.67147954931738
 30
0.0
 11
2232.451249576935
 21
433.17147954931738
 31
0.0
  0
LINE
  5
2EF2
  8
0
  6
CENTER
 10
2236.451249576935
 20
440.32281454931598
 30
0.0
 11
2236.451249576935
 21
389.8437535493178
 31
0.0
  0
LINE
  5
2EF4
  8
0
 10
2239.7012495769359
 20
393.17147954931733
 30
0.0
 11
2233.201249576935
 21
393.17147954931733
 31
0.0
  0
LINE
  5
2EF5
  8
0
 10
2242.9512495769359
 20
393.89637354931642
 30
0.0
 11
2242.9512495769359
 21
398.67147954931738
 31
0.0
  0
LINE
  5
2EF6
  8
0
 10
2229.9512495769359
 20
393.89637354931642
 30
0.0
 11
2229.9512495769359
 21
398.67147954931738
 31
0.0
  0
LINE
  5
2EFF
  8
0
 10
2243.451249576935
 20
398.67147954931738
 30
0.0
 11
2243.451249576935
 21
408.67147954931738
 31
0.0
  0
LINE
  5
2F00
  8
0
 10
2243.451249576935
 20
424.67147954931738
 30
0.0
 11
2243.451249576935
 21
414.67147954931733
 31
0.0
  0
LINE
  5
2F01
  8
AM_0_T3
 10
2231.749041216799
 20
449.67147954931738
 30
0.0
 11
2241.1534579370718
 21
449.67147954931738
 31
0.0
  0
LINE
  5
2F02
  8
AM_0_T3
 10
2229.2012495769359
 20
442.67147954931738
 30
0.0
 11
2231.749041216799
 21
449.67147954931738
 31
0.0
  0
LINE
  5
2F03
  8
AM_0_T3
 10
2241.1534579370718
 20
449.67147954931738
 30
0.0
 11
2243.7012495769359
 21
442.67147954931738
 31
0.0
  0
LINE
  5
2F04
  8
AM_0_T3
 10
2231.749041216799
 20
373.6714795493192
 30
0.0
 11
2241.1534579370718
 21
373.6714795493192
 31
0.0
  0
LINE
  5
2F05
  8
AM_0_T3
 10
2229.2012495769359
 20
380.6714795493192
 30
0.0
 11
2231.749041216799
 21
373.6714795493192
 31
0.0
  0
LINE
  5
2F06
  8
AM_0_T3
 10
2241.1534579370718
 20
373.6714795493192
 30
0.0
 11
2243.7012495769359
 21
380.6714795493192
 31
0.0
  0
LINE
  5
2F12
  8
0
  6
CENTER
 10
2174.7857733560882
 20
388.33695577016192
 30
0.0
 11
2202.362937822365
 21
360.7597913038864
 31
0.0
  0
LINE
  5
2F13
  8
0
  6
CENTER
 10
2174.7857733560882
 20
435.0060033284737
 30
0.0
 11
2202.362937822365
 21
462.58316779474922
 31
0.0
  0
LINE
  5
2F14
  8
0
  6
CENTER
 10
2128.1167257977768
 20
388.33695577016192
 30
0.0
 11
2100.5395613315009
 21
360.7597913038864
 31
0.0
  0
LINE
  5
2F15
  8
0
  6
CENTER
 10
2128.1167257977768
 20
435.0060033284737
 30
0.0
 11
2100.5395613315009
 21
462.58316779474922
 31
0.0
  0
LINE
  5
2F46
  8
0
 10
249.451249576934
 20
-73.999999999999773
 30
0.0
 11
389.451249576934
 21
-73.999999999999773
 31
0.0
  0
LINE
  5
2F4F
  8
0
 10
241.70124957693039
 20
25.399999999999629
 30
0.0
 11
1198.791619777548
 21
25.399999999999402
 31
0.0
  0
LINE
  5
2F50
  8
0
 10
241.70124957693039
 20
-25.399999999999629
 30
0.0
 11
295.15124957693291
 21
-25.399999999999629
 31
0.0
  0
LINE
  5
2F51
  8
0
 10
343.75124957693691
 20
-25.399999999999629
 30
0.0
 11
1198.791619777548
 21
-25.39999999999986
 31
0.0
  0
LINE
  5
2F52
  8
0
 10
213.451249576934
 20
25.350000000000129
 30
0.0
 11
213.45124957693221
 21
-25.349999999998541
 31
0.0
  0
LINE
  5
2F53
  8
0
 10
227.20124957693221
 20
25.35000000000036
 30
0.0
 11
213.451249576934
 21
25.350000000000129
 31
0.0
  0
LINE
  5
2F54
  8
0
 10
227.201249576934
 20
-25.349999999998541
 30
0.0
 11
213.45124957693221
 21
-25.349999999998541
 31
0.0
  0
LINE
  5
2F55
  8
0
 10
238.20402573851419
 20
-54.49999600000001
 30
0.0
 11
230.6984715385133
 21
-54.49999600000001
 31
0.0
  0
LINE
  5
2F56
  8
0
 10
230.69847233851209
 20
-54.499999000000123
 30
0.0
 11
226.94569513851269
 21
-47.999998000000232
 31
0.0
  0
LINE
  5
2F57
  8
0
 10
226.9456945385154
 20
-47.999998000000232
 30
0.0
 11
230.69847163851401
 21
-41.499996999999887
 31
0.0
  0
LINE
  5
2F58
  8
0
 10
230.6984715385133
 20
-41.5
 30
0.0
 11
238.20402573851419
 21
-41.5
 31
0.0
  0
LINE
  5
2F59
  8
0
 10
241.95680413851181
 20
-47.999998000000232
 30
0.0
 11
238.2040270385132
 21
-41.499996999999887
 31
0.0
  0
LINE
  5
2F5A
  8
0
 10
238.20402633851509
 20
-54.499999000000123
 30
0.0
 11
241.95680353851449
 21
-47.999998000000232
 31
0.0
  0
LINE
  5
2F5B
  8
0
 10
230.69847293851299
 20
54.49999600000001
 30
0.0
 11
238.20402713851399
 21
54.49999600000001
 31
0.0
  0
LINE
  5
2F5C
  8
0
 10
238.20402633851509
 20
54.499999000000123
 30
0.0
 11
241.95680353851449
 21
47.999997999999771
 31
0.0
  0
LINE
  5
2F5D
  8
0
 10
241.95680413851181
 20
47.999997999999771
 30
0.0
 11
238.2040270385132
 21
41.499996999999887
 31
0.0
  0
LINE
  5
2F5E
  8
0
 10
226.9456945385154
 20
47.999997999999771
 30
0.0
 11
230.69847163851401
 21
41.499996999999887
 31
0.0
  0
LINE
  5
2F5F
  8
0
 10
230.69847233851209
 20
54.499999000000123
 30
0.0
 11
226.94569513851269
 21
47.999997999999771
 31
0.0
  0
LINE
  5
2F60
  8
0
 10
238.20402713851399
 20
41.5
 30
0.0
 11
230.69847293851299
 21
41.5
 31
0.0
  0
LINE
  5
2F61
  8
0
  6
CENTER
 10
244.45124933851361
 20
48.0
 30
0.0
 11
224.45124933851361
 21
48.0
 31
0.0
  0
LINE
  5
2F62
  8
0
  6
CENTER
 10
234.451249100095
 20
58.0
 30
0.0
 11
234.451249100095
 21
38.0
 31
0.0
  0
LINE
  5
2F63
  8
0
  6
CENTER
 10
244.45124933851361
 20
-48.0
 30
0.0
 11
224.45124933851361
 21
-48.0
 31
0.0
  0
LINE
  5
2F64
  8
0
  6
CENTER
 10
234.45124957693221
 20
-38.0
 30
0.0
 11
234.45124957693221
 21
-58.0
 31
0.0
  0
LINE
  5
2F65
  8
0
 10
241.70124957693221
 20
30.85449724108275
 30
0.0
 11
241.70124957693221
 21
-30.854497241083202
 31
0.0
  0
LINE
  5
2F66
  8
0
 10
227.20124957693221
 20
30.854495955648868
 30
0.0
 11
227.20124957693221
 21
-30.854495955648868
 31
0.0
  0
LINE
  5
2F67
  8
0
 10
239.1538521492202
 20
-42.814874465865159
 30
0.0
 11
239.14684183466849
 21
42.808525150782309
 31
0.0
  0
LINE
  5
2F6D
  8
0
 10
229.74864700468061
 20
-42.814874033369499
 30
0.0
 11
229.75565731916319
 21
42.80852471952312
 31
0.0
  0
LINE
  5
2F6E
  8
0
 10
239.1534482263323
 20
-37.881393849751468
 30
0.0
 11
241.70124957693221
 21
-30.854497241083202
 31
0.0
  0
LINE
  5
2F6F
  8
0
 10
229.74905093318921
 20
-37.88139362553283
 30
0.0
 11
227.20124957693221
 21
-30.854495955648868
 31
0.0
  0
LINE
  5
2F70
  8
0
 10
239.15327021204391
 20
-35.707142142714467
 30
0.0
 11
229.74922894182049
 21
-35.707142142714467
 31
0.0
  0
LINE
  5
2F76
  8
0
 10
239.1534482263323
 20
37.881393849751468
 30
0.0
 11
241.70124957693221
 21
30.85449724108275
 31
0.0
  0
LINE
  5
2F77
  8
0
 10
229.74905093318921
 20
37.88139362553283
 30
0.0
 11
227.20124957693221
 21
30.854495955648868
 31
0.0
  0
LINE
  5
2F78
  8
0
 10
239.15327021204391
 20
35.707142142714019
 30
0.0
 11
229.74922894182049
 21
35.707142142714019
 31
0.0
  0
LINE
  5
2F79
  8
0
 10
343.75124957693328
 20
-73.999999999999304
 30
0.0
 11
343.75124957693509
 21
-25.399999999999629
 31
0.0
  0
LINE
  5
2F7B
  8
0
 10
389.451249576934
 20
-89.999999999999758
 30
0.0
 11
249.451249576934
 21
-89.999999999999758
 31
0.0
  0
LINE
  5
2F7C
  8
0
 10
389.451249576934
 20
-73.999999999999773
 30
0.0
 11
389.451249576934
 21
-89.999999999999758
 31
0.0
  0
LINE
  5
2F7D
  8
0
  6
CENTER
 10
371.951249576934
 20
-97.999999999999773
 30
0.0
 11
371.951249576934
 21
-63.999999999999773
 31
0.0
  0
LINE
  5
2F7F
  8
0
 10
295.15124957693291
 20
-73.999999999999304
 30
0.0
 11
295.15124957693291
 21
-25.399999999999629
 31
0.0
  0
LINE
  5
2F80
  8
0
  6
CENTER
 10
266.951249576934
 20
-97.999999999999773
 30
0.0
 11
266.951249576934
 21
-63.999999999999773
 31
0.0
  0
LINE
  5
2F81
  8
0
 10
249.451249576934
 20
-89.999999999999758
 30
0.0
 11
249.451249576934
 21
-73.999999999999773
 31
0.0
  0
ARC
  5
2FA4
  8
0
 10
229.45124957693221
 20
432.17147954931733
 30
0.0
 40
1.0
 50
89.999994991166815
 51
180.0
  0
ARC
  5
2FA5
  8
0
 10
239.45124957693221
 20
432.17147954931733
 30
0.0
 40
1.0
 50
0.0000039999795585
 51
90.000010000157346
  0
ARC
  5
2FA6
  8
0
 10
237.70124957693221
 20
423.52348454931803
 30
0.0
 40
7.6479949999999981
 50
64.852628000238994
 51
115.147379999893
  0
ARC
  5
2FA7
  8
0
 10
231.20124957693221
 20
423.52348454931803
 30
0.0
 40
7.6479949999999981
 50
64.852628000238994
 51
115.14736999989989
  0
ARC
  5
2FA8
  8
0
 10
237.70124957693221
 20
432.31947454931668
 30
0.0
 40
7.6479949999999981
 50
244.85263000009999
 51
295.14736999989992
  0
ARC
  5
2FA9
  8
0
 10
231.20124957693221
 20
432.31947454931668
 30
0.0
 40
7.6479949999999981
 50
244.85263000009999
 51
295.14736999989992
  0
ARC
  5
2FAA
  8
0
 10
231.20124957693221
 20
400.81947454931668
 30
0.0
 40
7.647994500000002
 50
244.85263000009999
 51
295.14736999989992
  0
ARC
  5
2FAB
  8
0
 10
237.70124957693221
 20
400.81947454931668
 30
0.0
 40
7.647994500000002
 50
244.85263000009999
 51
295.14736999989992
  0
ARC
  5
2FB9
  8
0
 10
319.451249576934
 20
411.67147954931778
 30
0.0
 40
70.0
 50
21.275766975563769
 51
158.72423302443619
  0
ARC
  5
2FBC
  8
0
  6
CENTER
 10
319.451249576934
 20
411.67147954931778
 30
0.0
 40
52.5
 50
28.934505055500061
 51
151.0654949444999
  0
LINE
  5
2FC0
  8
0
 10
241.70124957693039
 20
386.27147954931911
 30
0.0
 11
1198.791619777548
 21
386.27147954931911
 31
0.0
  0
LINE
  5
2FC1
  8
0
 10
241.70124957693039
 20
437.07147954931833
 30
0.0
 11
1198.791619777548
 21
437.07147954931833
 31
0.0
  0
LINE
  5
2FC2
  8
0
 10
213.451249576934
 20
386.32147954931878
 30
0.0
 11
213.45124957693221
 21
437.02147954931729
 31
0.0
  0
LINE
  5
2FC3
  8
0
 10
227.20124957693221
 20
386.32147954931833
 30
0.0
 11
213.451249576934
 21
386.32147954931878
 31
0.0
  0
LINE
  5
2FC4
  8
0
 10
227.201249576934
 20
437.02147954931729
 30
0.0
 11
213.45124957693221
 21
437.02147954931729
 31
0.0
  0
LINE
  5
2FC5
  8
0
 10
241.70124957693221
 20
380.81698230823588
 30
0.0
 11
241.70124957693221
 21
442.67147954931738
 31
0.0
  0
LINE
  5
2FC6
  8
0
 10
227.20124957693221
 20
380.81698359366982
 30
0.0
 11
227.20124957693221
 21
442.67147954931738
 31
0.0
  0
LINE
  5
2FC7
  8
0
 10
239.15345793706911
 20
449.67147954931738
 30
0.0
 11
239.1521070190901
 21
433.17147954931738
 31
0.0
  0
LINE
  5
2FC8
  8
0
 10
239.14884338534461
 20
393.30972807970301
 30
0.0
 11
239.1472355270179
 21
373.67148005877169
 31
0.0
  0
LINE
  5
2FC9
  8
0
 10
229.74904121679529
 20
449.67147954931738
 30
0.0
 11
229.75039213477609
 21
433.17147954931738
 31
0.0
  0
LINE
  5
2FCA
  8
0
 10
229.75365576852161
 20
393.30972807970261
 30
0.0
 11
229.75526362684829
 21
373.67148005877169
 31
0.0
  0
LINE
  5
2FCB
  8
0
 10
241.45124957693221
 20
408.67147954931738
 30
0.0
 11
227.45124957693221
 21
408.67147954931738
 31
0.0
  0
LINE
  5
2FCC
  8
0
 10
241.45124957693221
 20
398.67147954931738
 30
0.0
 11
227.45124957693221
 21
398.67147954931738
 31
0.0
  0
LINE
  5
2FCD
  8
0
 10
241.45124957693221
 20
414.67147954931733
 30
0.0
 11
227.45124957693221
 21
414.67147954931733
 31
0.0
  0
LINE
  5
2FCE
  8
0
 10
241.45124957693221
 20
424.67147954931738
 30
0.0
 11
227.45124957693221
 21
424.67147954931738
 31
0.0
  0
LINE
  5
2FCF
  8
0
 10
241.45124957693221
 20
398.67147954931738
 30
0.0
 11
241.45124957693221
 21
408.67147954931738
 31
0.0
  0
LINE
  5
2FD0
  8
0
 10
241.45124957693221
 20
424.67147954931738
 30
0.0
 11
241.45124957693221
 21
414.67147954931733
 31
0.0
  0
LINE
  5
2FD1
  8
0
 10
238.45124957693221
 20
414.67147954931733
 30
0.0
 11
238.45124957693221
 21
408.67147954931738
 31
0.0
  0
LINE
  5
2FD2
  8
0
 10
230.45124957693221
 20
414.67147954931733
 30
0.0
 11
230.45124957693221
 21
408.67147954931738
 31
0.0
  0
LINE
  5
2FD4
  8
0
 10
230.45124957693221
 20
438.67147954931738
 30
0.0
 11
230.45124957693221
 21
433.17147954931738
 31
0.0
  0
LINE
  5
2FD5
  8
0
 10
229.45124957693221
 20
433.17147954931738
 30
0.0
 11
239.45124957693221
 21
433.17147954931738
 31
0.0
  0
LINE
  5
2FD6
  8
0
 10
230.45124957693221
 20
438.67147954931738
 30
0.0
 11
238.45124957693221
 21
438.67147954931738
 31
0.0
  0
LINE
  5
2FD7
  8
0
 10
228.45124957693221
 20
432.17147954931733
 30
0.0
 11
228.45124957693221
 21
431.17147954931733
 31
0.0
  0
LINE
  5
2FD8
  8
0
 10
240.45124957693221
 20
432.17147954931733
 30
0.0
 11
240.45124957693221
 21
431.17147954931733
 31
0.0
  0
LINE
  5
2FDA
  8
0
 10
240.95124957693221
 20
431.17147954931733
 30
0.0
 11
227.95124957693221
 21
431.17147954931733
 31
0.0
  0
LINE
  5
2FDB
  8
0
 10
240.95124957693221
 20
431.17147954931733
 30
0.0
 11
240.95124957693221
 21
424.67147954931738
 31
0.0
  0
LINE
  5
2FDC
  8
0
 10
227.95124957693221
 20
431.17147954931733
 30
0.0
 11
227.95124957693221
 21
424.67147954931738
 31
0.0
  0
LINE
  5
2FDD
  8
0
 10
238.45124957693221
 20
438.67147954931738
 30
0.0
 11
238.45124957693221
 21
433.17147954931738
 31
0.0
  0
LINE
  5
2FDE
  8
0
  6
CENTER
 10
234.45124957693221
 20
440.32281454931598
 30
0.0
 11
234.45124957693221
 21
389.8437535493178
 31
0.0
  0
LINE
  5
2FE0
  8
0
 10
231.20124957693221
 20
393.17147954931733
 30
0.0
 11
237.70124957693221
 21
393.17147954931733
 31
0.0
  0
LINE
  5
2FE1
  8
0
 10
227.95124957693221
 20
393.89637354931642
 30
0.0
 11
227.95124957693221
 21
398.67147954931738
 31
0.0
  0
LINE
  5
2FE2
  8
0
 10
240.95124957693221
 20
393.89637354931642
 30
0.0
 11
240.95124957693221
 21
398.67147954931738
 31
0.0
  0
LINE
  5
2FEB
  8
0
 10
227.45124957693221
 20
398.67147954931738
 30
0.0
 11
227.45124957693221
 21
408.67147954931738
 31
0.0
  0
LINE
  5
2FEC
  8
0
 10
227.45124957693221
 20
424.67147954931738
 30
0.0
 11
227.45124957693221
 21
414.67147954931733
 31
0.0
  0
LINE
  5
2FED
  8
AM_0_T3
 10
239.15345793706911
 20
449.67147954931738
 30
0.0
 11
229.74904121679529
 21
449.67147954931738
 31
0.0
  0
LINE
  5
2FEE
  8
AM_0_T3
 10
241.70124957693221
 20
442.67147954931738
 30
0.0
 11
239.15345793706911
 21
449.67147954931738
 31
0.0
  0
LINE
  5
2FEF
  8
AM_0_T3
 10
229.74904121679529
 20
449.67147954931738
 30
0.0
 11
227.20124957693221
 21
442.67147954931738
 31
0.0
  0
LINE
  5
2FF0
  8
AM_0_T3
 10
239.15345793706911
 20
373.6714795493192
 30
0.0
 11
229.74904121679529
 21
373.6714795493192
 31
0.0
  0
LINE
  5
2FF1
  8
AM_0_T3
 10
241.70124957693221
 20
380.6714795493192
 30
0.0
 11
239.15345793706911
 21
373.6714795493192
 31
0.0
  0
LINE
  5
2FF2
  8
AM_0_T3
 10
229.74904121679529
 20
373.6714795493192
 30
0.0
 11
227.20124957693221
 21
380.6714795493192
 31
0.0
  0
LINE
  5
2FF4
  8
0
  6
CENTER
 10
296.11672579777951
 20
388.33695577016192
 30
0.0
 11
268.53956133150308
 21
360.7597913038864
 31
0.0
  0
LINE
  5
2FF5
  8
0
  6
CENTER
 10
296.11672579777951
 20
435.0060033284737
 30
0.0
 11
268.53956133150308
 21
462.58316779474922
 31
0.0
  0
LINE
  5
2FF6
  8
0
  6
CENTER
 10
342.78577335609037
 20
388.33695577016192
 30
0.0
 11
370.3629378223668
 21
360.7597913038864
 31
0.0
  0
LINE
  5
2FF7
  8
0
  6
CENTER
 10
342.78577335609037
 20
435.0060033284737
 30
0.0
 11
370.3629378223668
 21
462.58316779474922
 31
0.0
  0
ARC
  5
3001
  8
0
 10
319.451249576934
 20
411.67147954931778
 30
0.0
 40
70.0
 50
201.2757669755637
 51
338.72423302443622
  0
ARC
  5
3002
  8
0
  6
CENTER
 10
319.451249576934
 20
411.67147954931778
 30
0.0
 40
52.5
 50
208.93450505550001
 51
331.0654949444999
  0
LINE
  5
3019
  8
0
 10
2086.2221149820298
 20
437.07147954931833
 30
0.0
 11
1272.110879376319
 21
437.07147954931833
 31
0.0
  0
LINE
  5
301A
  8
0
 10
2086.2221149820298
 20
386.2714795493186
 30
0.0
 11
1272.110879376319
 21
386.27147954931911
 31
0.0
  0
ARC
  5
301B
  8
0
 10
2236.451249815354
 20
48.000000000000462
 30
0.0
 40
7.0
 50
312.20616791854383
 51
351.78674173944449
  0
ARC
  5
301C
  8
0
 10
2236.451249815354
 20
48.000000000000462
 30
0.0
 40
7.0
 50
8.2132024012145912
 51
51.78679591846295
  0
ARC
  5
301D
  8
0
 10
2236.451249815354
 20
48.000000000000462
 30
0.0
 40
7.0
 50
68.213122489380268
 51
111.7868775106197
  0
ARC
  5
301E
  8
0
 10
2236.451249815354
 20
48.000000000000462
 30
0.0
 40
7.0
 50
128.21320408153699
 51
171.7867975987854
  0
ARC
  5
301F
  8
0
 10
2236.451249815354
 20
48.000000000000462
 30
0.0
 40
7.0
 50
188.21325826055551
 51
227.79382681199061
  0
ARC
  5
3020
  8
0
 10
2236.451249815354
 20
-47.999999999999538
 30
0.0
 40
7.0
 50
132.12875643080051
 51
171.78674173944449
  0
ARC
  5
3021
  8
0
 10
2236.451249815354
 20
-47.999999999999538
 30
0.0
 40
7.0
 50
188.21320240121449
 51
231.7867959184629
  0
ARC
  5
3022
  8
0
 10
2236.451249815354
 20
-47.999999999999538
 30
0.0
 40
7.0
 50
248.2131224893802
 51
291.78687751061972
  0
ARC
  5
3023
  8
0
 10
2236.451249815354
 20
-47.999999999999538
 30
0.0
 40
7.0
 50
308.21320408153701
 51
351.78679759878543
  0
ARC
  5
3024
  8
AM_0_T3
 10
2151.4512495769341
 20
32.793916418243043
 30
0.0
 40
25.400000000000109
 50
196.92376729140651
 51
343.07623270859341
  0
ARC
  5
3025
  8
0
 10
2236.451249815354
 20
-47.999999999999538
 30
0.0
 40
7.0
 50
8.2132582605554916
 51
47.871248831380029
  0
LINE
  5
3026
  8
0
 10
2221.4512495769341
 20
74.000000000000227
 30
0.0
 11
2081.4512495769341
 21
74.000000000000227
 31
0.0
  0
LINE
  5
3027
  8
0
 10
2229.2012495769368
 20
-25.399999999999181
 30
0.0
 11
1272.110879376319
 21
-25.399999999999181
 31
0.0
  0
LINE
  5
3028
  8
0
 10
2229.2012495769368
 20
25.400000000000091
 30
0.0
 11
2175.7512495769352
 21
25.400000000000091
 31
0.0
  0
LINE
  5
3029
  8
0
 10
2127.1512495769311
 20
25.400000000000091
 30
0.0
 11
1272.110879376319
 21
25.400000000000091
 31
0.0
  0
LINE
  5
302A
  8
0
 10
2257.4512495769341
 20
-25.349999999999682
 30
0.0
 11
2257.4512495769359
 21
25.349999999999
 31
0.0
  0
LINE
  5
302B
  8
0
 10
2243.7012495769359
 20
-25.349999999999909
 30
0.0
 11
2257.4512495769341
 21
-25.349999999999682
 31
0.0
  0
LINE
  5
302C
  8
0
 10
2243.7012495769341
 20
25.349999999999
 30
0.0
 11
2257.4512495769359
 21
25.349999999999
 31
0.0
  0
LINE
  5
302D
  8
0
 10
2232.698473415353
 20
54.499996000000472
 30
0.0
 11
2240.2040276153548
 21
54.499996000000472
 31
0.0
  0
LINE
  5
302E
  8
0
 10
2240.204026815356
 20
54.499999000000571
 30
0.0
 11
2243.9568040153549
 21
47.99999800000068
 31
0.0
  0
LINE
  5
302F
  8
0
 10
2243.9568046153522
 20
47.99999800000068
 30
0.0
 11
2240.204027515354
 21
41.499997000000349
 31
0.0
  0
LINE
  5
3030
  8
0
 10
2240.2040276153548
 20
41.500000000000448
 30
0.0
 11
2232.698473415353
 21
41.500000000000448
 31
0.0
  0
LINE
  5
3031
  8
0
 10
2228.9456950153558
 20
47.99999800000068
 30
0.0
 11
2232.6984721153549
 21
41.499997000000349
 31
0.0
  0
LINE
  5
3032
  8
0
 10
2232.6984728153529
 20
54.499999000000571
 30
0.0
 11
2228.9456956153531
 21
47.99999800000068
 31
0.0
  0
LINE
  5
3033
  8
0
 10
2240.204026215355
 20
-54.499995999999548
 30
0.0
 11
2232.6984720153541
 21
-54.499995999999548
 31
0.0
  0
LINE
  5
3034
  8
0
 10
2232.6984728153529
 20
-54.499998999999661
 30
0.0
 11
2228.9456956153531
 21
-47.999997999999323
 31
0.0
  0
LINE
  5
3035
  8
0
 10
2228.9456950153558
 20
-47.999997999999323
 30
0.0
 11
2232.6984721153549
 21
-41.499996999999439
 31
0.0
  0
LINE
  5
3036
  8
0
 10
2243.9568046153522
 20
-47.999997999999323
 30
0.0
 11
2240.204027515354
 21
-41.499996999999439
 31
0.0
  0
LINE
  5
3037
  8
0
 10
2240.204026815356
 20
-54.499998999999661
 30
0.0
 11
2243.9568040153549
 21
-47.999997999999323
 31
0.0
  0
LINE
  5
3038
  8
0
 10
2232.6984720153541
 20
-41.499999999999552
 30
0.0
 11
2240.204026215355
 21
-41.499999999999552
 31
0.0
  0
LINE
  5
3039
  8
0
  6
CENTER
 10
2226.451249815354
 20
-47.999999999999538
 30
0.0
 11
2246.451249815354
 21
-47.999999999999538
 31
0.0
  0
LINE
  5
303A
  8
0
  6
CENTER
 10
2236.451250053773
 20
-57.999999999999538
 30
0.0
 11
2236.451250053773
 21
-37.999999999999538
 31
0.0
  0
LINE
  5
303B
  8
0
  6
CENTER
 10
2226.451249815354
 20
48.000000000000462
 30
0.0
 11
2246.451249815354
 21
48.000000000000462
 31
0.0
  0
LINE
  5
303C
  8
0
  6
CENTER
 10
2236.451249576935
 20
38.000000000000448
 30
0.0
 11
2236.451249576935
 21
58.000000000000462
 31
0.0
  0
LINE
  5
303D
  8
0
 10
2229.2012495769359
 20
-30.854497241082289
 30
0.0
 11
2229.2012495769359
 21
30.85449724108366
 31
0.0
  0
LINE
  5
303E
  8
0
 10
2243.7012495769359
 20
-30.85449595564841
 30
0.0
 11
2243.7012495769359
 21
30.85449595564933
 31
0.0
  0
LINE
  5
303F
  8
0
 10
2231.7486470046479
 20
42.814874465865607
 30
0.0
 11
2231.7556573191991
 21
-42.808525150781861
 31
0.0
  0
LINE
  5
3040
  8
0
 10
2241.1538521491871
 20
42.814874033369961
 30
0.0
 11
2241.1468418347049
 21
-42.808524719522659
 31
0.0
  0
LINE
  5
3041
  8
0
 10
2231.7490509275358
 20
37.88139384975193
 30
0.0
 11
2229.2012495769359
 21
30.85449724108366
 31
0.0
  0
LINE
  5
3042
  8
0
 10
2241.153448220678
 20
37.881393625533292
 30
0.0
 11
2243.7012495769359
 21
30.85449595564933
 31
0.0
  0
LINE
  5
3043
  8
0
 10
2231.7492289418242
 20
35.707142142714929
 30
0.0
 11
2241.1532702120471
 21
35.707142142714929
 31
0.0
  0
LINE
  5
3044
  8
0
 10
2231.7490509275358
 20
-37.881393849751021
 30
0.0
 11
2229.2012495769359
 21
-30.854497241082289
 31
0.0
  0
LINE
  5
3045
  8
0
 10
2241.153448220678
 20
-37.881393625532382
 30
0.0
 11
2243.7012495769359
 21
-30.85449595564841
 31
0.0
  0
LINE
  5
3046
  8
0
 10
2231.7492289418242
 20
-35.707142142713558
 30
0.0
 11
2241.1532702120471
 21
-35.707142142713558
 31
0.0
  0
LINE
  5
3047
  8
0
 10
2127.1512495769339
 20
73.999999999999773
 30
0.0
 11
2127.1512495769321
 21
25.400000000000091
 31
0.0
  0
LINE
  5
3048
  8
0
 10
2081.4512495769341
 20
90.000000000000227
 30
0.0
 11
2221.4512495769341
 21
90.000000000000227
 31
0.0
  0
LINE
  5
3049
  8
0
 10
2081.4512495769341
 20
74.000000000000227
 30
0.0
 11
2081.4512495769341
 21
90.000000000000227
 31
0.0
  0
LINE
  5
304A
  8
0
  6
CENTER
 10
2098.9512495769341
 20
98.000000000000227
 30
0.0
 11
2098.9512495769341
 21
64.000000000000227
 31
0.0
  0
LINE
  5
304B
  8
0
 10
2175.7512495769352
 20
73.999999999999773
 30
0.0
 11
2175.7512495769352
 21
25.400000000000091
 31
0.0
  0
LINE
  5
304C
  8
0
  6
CENTER
 10
2203.9512495769341
 20
98.000000000000227
 30
0.0
 11
2203.9512495769341
 21
64.000000000000227
 31
0.0
  0
LINE
  5
304D
  8
0
 10
2221.4512495769341
 20
90.000000000000227
 30
0.0
 11
2221.4512495769341
 21
74.000000000000227
 31
0.0
  0
LINE
  5
34FA
  8
0
  6
CENTER
 10
2151.4512495769341
 20
327.67151673118701
 30
0.0
 11
2151.4512495769359
 21
495.67144236744957
 31
0.0
  0
LINE
  5
34FD
  8
0
  6
CENTER
 10
319.451249576934
 20
-97.999999999999773
 30
0.0
 11
319.451249576934
 21
0.0000000000004547
 31
0.0
  0
LINE
  5
3500
  8
0
  6
CENTER
 10
2151.4512495769341
 20
98.000000000000227
 30
0.0
 11
2151.4512495769341
 21
0.0
 31
0.0
  0
LINE
  5
3505
  8
0
  6
CENTER
 10
319.451249576934
 20
327.6715167311865
 30
0.0
 11
319.45124957693582
 21
495.671442367449
 31
0.0
  0
LINE
  5
3FD7
  8
0
 10
198.86907646237881
 20
-21.325680005634009
 30
0.0
 11
198.86907646237881
 21
3.6256800056351031
 31
0.0
  0
LINE
  5
3FD8
  8
0
 10
191.451249576934
 20
16.400000000000539
 30
0.0
 11
191.451249576934
 21
-34.099999999999447
 31
0.0
  0
LINE
  5
3FD9
  8
0
 10
194.3012495769344
 20
15.575224941696661
 30
0.0
 11
194.30124957693249
 21
-33.275224941695562
 31
0.0
  0
LINE
  5
3FDA
  8
0
  6
CENTER
 10
188.30250685587811
 20
-8.8499999999994543
 30
0.0
 11
219.48225944314979
 21
-8.8499999999994543
 31
0.0
  0
LINE
  5
3FDB
  8
0
 10
200.2694910933933
 20
3.8500000000005912
 30
0.0
 11
213.45124857692269
 21
3.8500000000005912
 31
0.0
  0
ARC
  5
3FDC
  8
0
 10
200.2694910933933
 20
5.8500000000005912
 30
0.0
 40
2.0
 50
200.00000000002919
 51
270.0
1001
GENIUS_GENOBJ-N-FIL_13
1002
{
1000
OWNER
1000
GEN
1002
}
1001
GENIUS_GENODEF_13
1002
{
1000
HIER
1070
     0
1002
}
1002
{
1000
MANEDIT
1070
     0
1002
}
1002
{
1000
NOSEL
1070
     0
1002
}
1002
{
1000
BEHIND
1070
     0
1002
}
1002
{
1000
OTHER
1070
     0
1002
}
1002
{
1000
REACTOR
1002
}
  0
LINE
  5
3FDD
  8
0
 10
191.451249576934
 20
16.400000000000539
 30
0.0
 11
193.74108354636701
 21
16.400000000000539
 31
0.0
  0
LINE
  5
3FDF
  8
0
 10
194.49283764299611
 20
15.87361611466121
 30
0.0
 11
198.3901058518222
 21
5.1659597133491379
 31
0.0
  0
ARC
  5
3FE0
  8
0
 10
193.74108354636701
 20
15.600000000000589
 30
0.0
 40
0.8
 50
20.000000000029289
 51
90.0
1001
GENIUS_GENOBJ-N-FIL_13
1002
{
1000
OWNER
1000
GEN
1002
}
1001
GENIUS_GENODEF_13
1002
{
1000
HIER
1070
     0
1002
}
1002
{
1000
MANEDIT
1070
     0
1002
}
1002
{
1000
NOSEL
1070
     0
1002
}
1002
{
1000
BEHIND
1070
     0
1002
}
1002
{
1000
OTHER
1070
     0
1002
}
1002
{
1000
REACTOR
1002
}
  0
LINE
  5
3FE1
  8
0
 10
200.2694910933933
 20
-21.549999999999269
 30
0.0
 11
213.45124857692269
 21
-21.5499999999995
 31
0.0
  0
ARC
  5
3FE2
  8
0
 10
200.2694910933933
 20
-23.549999999999269
 30
0.0
 40
2.0
 50
90.0
 51
159.99999999997061
1001
GENIUS_GENOBJ-N-FIL_13
1002
{
1000
OWNER
1000
GEN
1002
}
1001
GENIUS_GENODEF_13
1002
{
1000
HIER
1070
     0
1002
}
1002
{
1000
MANEDIT
1070
     0
1002
}
1002
{
1000
NOSEL
1070
     0
1002
}
1002
{
1000
BEHIND
1070
     0
1002
}
1002
{
1000
OTHER
1070
     0
1002
}
1002
{
1000
REACTOR
1002
}
  0
LINE
  5
3FE3
  8
0
 10
191.451249576934
 20
-34.099999999999447
 30
0.0
 11
193.74108354636701
 21
-34.099999999999447
 31
0.0
  0
LINE
  5
3FE4
  8
0
 10
194.49283764299429
 20
-33.573616114659892
 30
0.0
 11
198.3901058518222
 21
-22.86595971334804
 31
0.0
  0
ARC
  5
3FE5
  8
0
 10
193.74108354636701
 20
-33.2999999999995
 30
0.0
 40
0.8
 50
270.0
 51
339.99999999997073
1001
GENIUS_GENOBJ-N-FIL_13
1002
{
1000
OWNER
1000
GEN
1002
}
1001
GENIUS_GENODEF_13
1002
{
1000
HIER
1070
     0
1002
}
1002
{
1000
MANEDIT
1070
     0
1002
}
1002
{
1000
NOSEL
1070
     0
1002
}
1002
{
1000
BEHIND
1070
     0
1002
}
1002
{
1000
OTHER
1070
     0
1002
}
1002
{
1000
REACTOR
1002
}
  0
LINE
  5
3FE6
  8
0
 10
2272.0334226914888
 20
424.14715955495308
 30
0.0
 11
2272.0334226914888
 21
399.19579954368339
 31
0.0
  0
LINE
  5
3FE7
  8
0
 10
2279.4512495769341
 20
386.42147954931818
 30
0.0
 11
2279.4512495769341
 21
436.92147954931818
 31
0.0
  0
LINE
  5
3FE8
  8
0
 10
2276.6012495769342
 20
387.2462546076224
 30
0.0
 11
2276.6012495769351
 21
436.09670449101412
 31
0.0
  0
LINE
  5
3FEA
  8
0
 10
2270.6330080604739
 20
398.97147954931842
 30
0.0
 11
2257.4512505769449
 21
398.97147954931842
 31
0.0
  0
ARC
  5
3FEB
  8
0
 10
2270.6330080604739
 20
396.97147954931842
 30
0.0
 40
2.0
 50
19.999999999992571
 51
90.0
1001
GENIUS_GENOBJ-N-FIL_13
1002
{
1000
OWNER
1000
GEN
1002
}
1001
GENIUS_GENODEF_13
1002
{
1000
HIER
1070
     0
1002
}
1002
{
1000
MANEDIT
1070
     0
1002
}
1002
{
1000
NOSEL
1070
     0
1002
}
1002
{
1000
BEHIND
1070
     0
1002
}
1002
{
1000
OTHER
1070
     0
1002
}
1002
{
1000
REACTOR
1002
}
  0
LINE
  5
3FEC
  8
0
 10
2279.4512495769341
 20
386.42147954931818
 30
0.0
 11
2277.1614156075011
 21
386.42147954931818
 31
0.0
  0
LINE
  5
3FEE
  8
0
 10
2276.409661510871
 20
386.94786343465762
 30
0.0
 11
2272.512393302045
 21
397.65551983596941
 31
0.0
  0
ARC
  5
3FEF
  8
0
 10
2277.1614156075011
 20
387.22147954931842
 30
0.0
 40
0.8
 50
199.9999999999925
 51
270.0
1001
GENIUS_GENOBJ-N-FIL_13
1002
{
1000
OWNER
1000
GEN
1002
}
1001
GENIUS_GENODEF_13
1002
{
1000
HIER
1070
     0
1002
}
1002
{
1000
MANEDIT
1070
     0
1002
}
1002
{
1000
NOSEL
1070
     0
1002
}
1002
{
1000
BEHIND
1070
     0
1002
}
1002
{
1000
OTHER
1070
     0
1002
}
1002
{
1000
REACTOR
1002
}
  0
LINE
  5
3FF0
  8
0
 10
2270.6330080604739
 20
424.37147954931811
 30
0.0
 11
2257.4512505769449
 21
424.37147954931811
 31
0.0
  0
ARC
  5
3FF1
  8
0
 10
2270.6330080604739
 20
426.371479549318
 30
0.0
 40
2.0
 50
270.0
 51
340.00000000000739
1001
GENIUS_GENOBJ-N-FIL_13
1002
{
1000
OWNER
1000
GEN
1002
}
1001
GENIUS_GENODEF_13
1002
{
1000
HIER
1070
     0
1002
}
1002
{
1000
MANEDIT
1070
     0
1002
}
1002
{
1000
NOSEL
1070
     0
1002
}
1002
{
1000
BEHIND
1070
     0
1002
}
1002
{
1000
OTHER
1070
     0
1002
}
1002
{
1000
REACTOR
1002
}
  0
LINE
  5
3FF2
  8
0
 10
2279.4512495769341
 20
436.92147954931818
 30
0.0
 11
2277.1614156075011
 21
436.92147954931818
 31
0.0
  0
LINE
  5
3FF3
  8
0
 10
2276.4096615108729
 20
436.39509566397851
 30
0.0
 11
2272.512393302045
 21
425.68743926266711
 31
0.0
  0
ARC
  5
3FF4
  8
0
 10
2277.1614156075011
 20
436.12147954931811
 30
0.0
 40
0.8
 50
90.0
 51
160.00000000000739
1001
GENIUS_GENOBJ-N-FIL_13
1002
{
1000
OWNER
1000
GEN
1002
}
1001
GENIUS_GENODEF_13
1002
{
1000
HIER
1070
     0
1002
}
1002
{
1000
MANEDIT
1070
     0
1002
}
1002
{
1000
NOSEL
1070
     0
1002
}
1002
{
1000
BEHIND
1070
     0
1002
}
1002
{
1000
OTHER
1070
     0
1002
}
1002
{
1000
REACTOR
1002
}
  0
LINE
  5
3FF6
  8
0
 10
198.86907646237881
 20
424.14715955495308
 30
0.0
 11
198.86907646237881
 21
399.19579954368339
 31
0.0
  0
LINE
  5
3FF7
  8
0
 10
191.451249576934
 20
386.42147954931818
 30
0.0
 11
191.451249576934
 21
436.92147954931818
 31
0.0
  0
LINE
  5
3FF8
  8
0
 10
194.3012495769344
 20
387.2462546076224
 30
0.0
 11
194.30124957693249
 21
436.09670449101412
 31
0.0
  0
LINE
  5
3FF9
  8
0
 10
200.2694910933933
 20
398.97147954931842
 30
0.0
 11
213.45124857692269
 21
398.97147954931842
 31
0.0
  0
ARC
  5
3FFA
  8
0
 10
200.2694910933933
 20
396.97147954931842
 30
0.0
 40
2.0
 50
90.0
 51
159.99999999998289
1001
GENIUS_GENOBJ-N-FIL_13
1002
{
1000
OWNER
1000
GEN
1002
}
1001
GENIUS_GENODEF_13
1002
{
1000
HIER
1070
     0
1002
}
1002
{
1000
MANEDIT
1070
     0
1002
}
1002
{
1000
NOSEL
1070
     0
1002
}
1002
{
1000
BEHIND
1070
     0
1002
}
1002
{
1000
OTHER
1070
     0
1002
}
1002
{
1000
REACTOR
1002
}
  0
LINE
  5
3FFB
  8
0
 10
191.451249576934
 20
386.42147954931818
 30
0.0
 11
193.74108354636701
 21
386.42147954931818
 31
0.0
  0
LINE
  5
3FFD
  8
0
 10
194.49283764299611
 20
386.94786343465762
 30
0.0
 11
198.3901058518222
 21
397.65551983596941
 31
0.0
  0
ARC
  5
3FFE
  8
0
 10
193.74108354636701
 20
387.22147954931842
 30
0.0
 40
0.8
 50
270.0
 51
339.99999999998289
1001
GENIUS_GENOBJ-N-FIL_13
1002
{
1000
OWNER
1000
GEN
1002
}
1001
GENIUS_GENODEF_13
1002
{
1000
HIER
1070
     0
1002
}
1002
{
1000
MANEDIT
1070
     0
1002
}
1002
{
1000
NOSEL
1070
     0
1002
}
1002
{
1000
BEHIND
1070
     0
1002
}
1002
{
1000
OTHER
1070
     0
1002
}
1002
{
1000
REACTOR
1002
}
  0
LINE
  5
3FFF
  8
0
 10
200.2694910933933
 20
424.37147954931811
 30
0.0
 11
213.45124857692269
 21
424.37147954931811
 31
0.0
  0
ARC
  5
4000
  8
0
 10
200.2694910933933
 20
426.371479549318
 30
0.0
 40
2.0
 50
200.000000000017
 51
270.0
1001
GENIUS_GENOBJ-N-FIL_13
1002
{
1000
OWNER
1000
GEN
1002
}
1001
GENIUS_GENODEF_13
1002
{
1000
HIER
1070
     0
1002
}
1002
{
1000
MANEDIT
1070
     0
1002
}
1002
{
1000
NOSEL
1070
     0
1002
}
1002
{
1000
BEHIND
1070
     0
1002
}
1002
{
1000
OTHER
1070
     0
1002
}
1002
{
1000
REACTOR
1002
}
  0
LINE
  5
4001
  8
0
 10
191.451249576934
 20
436.92147954931818
 30
0.0
 11
193.74108354636701
 21
436.92147954931818
 31
0.0
  0
LINE
  5
4002
  8
0
 10
194.49283764299429
 20
436.39509566397851
 30
0.0
 11
198.3901058518222
 21
425.68743926266711
 31
0.0
  0
ARC
  5
4003
  8
0
 10
193.74108354636701
 20
436.12147954931811
 30
0.0
 40
0.8
 50
20.000000000017049
 51
90.0
1001
GENIUS_GENOBJ-N-FIL_13
1002
{
1000
OWNER
1000
GEN
1002
}
1001
GENIUS_GENODEF_13
1002
{
1000
HIER
1070
     0
1002
}
1002
{
1000
MANEDIT
1070
     0
1002
}
1002
{
1000
NOSEL
1070
     0
1002
}
1002
{
1000
BEHIND
1070
     0
1002
}
1002
{
1000
OTHER
1070
     0
1002
}
1002
{
1000
REACTOR
1002
}
  0
LINE
  5
4004
  8
0
  6
CENTER
 10
2265.4512495769368
 20
0.0
 30
0.0
 11
205.45124957693039
 21
0.0000000000004547
 31
0.0
  0
LINE
  5
4005
  8
0
 10
2272.0334226914888
 20
21.32568000563446
 30
0.0
 11
2272.0334226914888
 21
-3.6256800056346492
 31
0.0
  0
LINE
  5
4006
  8
0
 10
2279.4512495769341
 20
-16.400000000000091
 30
0.0
 11
2279.4512495769341
 21
34.099999999999909
 31
0.0
  0
LINE
  5
4007
  8
0
 10
2276.6012495769342
 20
-15.575224941696201
 30
0.0
 11
2276.6012495769351
 21
33.275224941696017
 31
0.0
  0
LINE
  5
4008
  8
0
  6
CENTER
 10
2282.59999229799
 20
8.8499999999999091
 30
0.0
 11
2251.4202397107179
 21
8.8499999999999091
 31
0.0
  0
LINE
  5
4009
  8
0
 10
2270.6330080604739
 20
-3.850000000000136
 30
0.0
 11
2257.4512505769449
 21
-3.850000000000136
 31
0.0
  0
ARC
  5
400A
  8
0
 10
2270.6330080604739
 20
-5.8500000000001364
 30
0.0
 40
2.0
 50
19.999999999992571
 51
90.0
1001
GENIUS_GENOBJ-N-FIL_13
1002
{
1000
OWNER
1000
GEN
1002
}
1001
GENIUS_GENODEF_13
1002
{
1000
HIER
1070
     0
1002
}
1002
{
1000
MANEDIT
1070
     0
1002
}
1002
{
1000
NOSEL
1070
     0
1002
}
1002
{
1000
BEHIND
1070
     0
1002
}
1002
{
1000
OTHER
1070
     0
1002
}
1002
{
1000
REACTOR
1002
}
  0
LINE
  5
400B
  8
0
 10
2279.4512495769341
 20
-16.400000000000091
 30
0.0
 11
2277.1614156075011
 21
-16.400000000000091
 31
0.0
  0
LINE
  5
400D
  8
0
 10
2276.409661510871
 20
-15.873616114660759
 30
0.0
 11
2272.512393302045
 21
-5.1659597133486841
 31
0.0
  0
ARC
  5
400E
  8
0
 10
2277.1614156075011
 20
-15.600000000000129
 30
0.0
 40
0.8
 50
199.9999999999925
 51
270.0
1001
GENIUS_GENOBJ-N-FIL_13
1002
{
1000
OWNER
1000
GEN
1002
}
1001
GENIUS_GENODEF_13
1002
{
1000
HIER
1070
     0
1002
}
1002
{
1000
MANEDIT
1070
     0
1002
}
1002
{
1000
NOSEL
1070
     0
1002
}
1002
{
1000
BEHIND
1070
     0
1002
}
1002
{
1000
OTHER
1070
     0
1002
}
1002
{
1000
REACTOR
1002
}
  0
LINE
  5
400F
  8
0
 10
2270.6330080604739
 20
21.54999999999972
 30
0.0
 11
2257.4512505769449
 21
21.549999999999951
 31
0.0
  0
ARC
  5
4010
  8
0
 10
2270.6330080604739
 20
23.54999999999972
 30
0.0
 40
2.0
 50
270.0
 51
340.00000000000739
1001
GENIUS_GENOBJ-N-FIL_13
1002
{
1000
OWNER
1000
GEN
1002
}
1001
GENIUS_GENODEF_13
1002
{
1000
HIER
1070
     0
1002
}
1002
{
1000
MANEDIT
1070
     0
1002
}
1002
{
1000
NOSEL
1070
     0
1002
}
1002
{
1000
BEHIND
1070
     0
1002
}
1002
{
1000
OTHER
1070
     0
1002
}
1002
{
1000
REACTOR
1002
}
  0
LINE
  5
4011
  8
0
 10
2279.4512495769341
 20
34.099999999999909
 30
0.0
 11
2277.1614156075011
 21
34.099999999999909
 31
0.0
  0
LINE
  5
4012
  8
0
 10
2276.4096615108729
 20
33.573616114660346
 30
0.0
 11
2272.512393302045
 21
22.865959713348499
 31
0.0
  0
ARC
  5
4013
  8
0
 10
2277.1614156075011
 20
33.299999999999947
 30
0.0
 40
0.8
 50
90.0
 51
160.00000000000739
1001
GENIUS_GENOBJ-N-FIL_13
1002
{
1000
OWNER
1000
GEN
1002
}
1001
GENIUS_GENODEF_13
1002
{
1000
HIER
1070
     0
1002
}
1002
{
1000
MANEDIT
1070
     0
1002
}
1002
{
1000
NOSEL
1070
     0
1002
}
1002
{
1000
BEHIND
1070
     0
1002
}
1002
{
1000
OTHER
1070
     0
1002
}
1002
{
1000
REACTOR
1002
}
  0
TEXT
  5
463D
  8
0
 10
877.11791624360058
 20
534.28139750375897
 30
0.0
 40
50.0
  1
2SX2000L-40AX1S
 72
     4
 11
1235.4512495769341
 21
559.28139750375897
 31
0.0
  0
CIRCLE
  5
628F
  8
0
 10
282.32814356464218
 20
448.79458556161143
 30
0.0
 40
9.5
  0
CIRCLE
  5
6290
  8
0
 10
282.32814356464218
 20
374.54837353702419
 30
0.0
 40
9.5
  0
CIRCLE
  5
6291
  8
0
 10
356.57435558922953
 20
374.54837353702419
 30
0.0
 40
9.5
  0
CIRCLE
  5
6292
  8
0
 10
356.57435558922953
 20
448.79458556161143
 30
0.0
 40
9.5
  0
CIRCLE
  5
6293
  8
0
 10
2151.4512495769341
 20
411.67147954931778
 30
0.0
 40
70.0
  0
CIRCLE
  5
6294
  8
0
 10
2188.5743555892259
 20
448.79458556161143
 30
0.0
 40
9.5
  0
CIRCLE
  5
6295
  8
0
 10
2188.5743555892259
 20
374.54837353702419
 30
0.0
 40
9.5
  0
CIRCLE
  5
6296
  8
0
  6
CENTER
 10
2151.4512495769341
 20
411.67147954931778
 30
0.0
 40
52.5
  0
CIRCLE
  5
6297
  8
0
 10
2114.3281435646381
 20
374.54837353702419
 30
0.0
 40
9.5
  0
CIRCLE
  5
6298
  8
0
 10
2114.3281435646381
 20
448.79458556161143
 30
0.0
 40
9.5
  0
CIRCLE
  5
6299
  8
AM_0_T3
 10
2151.4512495769318
 20
411.67147954931778
 30
0.0
 40
24.299999999999731
  0
LINE
  5
6693
  8
0
 10
3.0
 20
-55.0
 30
0.0
 11
3.0
 21
-33.92114875708716
 31
0.0
  0
LINE
  5
6694
  8
0
 10
13.0
 20
-55.0
 30
0.0
 11
13.0
 21
-35.707142000000204
 31
0.0
  0
LINE
  5
6695
  8
0
 10
-3.0
 20
-55.0
 30
0.0
 11
-3.0
 21
-33.92114875708716
 31
0.0
  0
LINE
  5
6696
  8
0
 10
-13.0
 20
-55.0
 30
0.0
 11
-13.0
 21
-35.707142000000204
 31
0.0
  0
LINE
  5
6697
  8
0
 10
13.0
 20
55.0
 30
0.0
 11
13.0
 21
35.707142000000204
 31
0.0
  0
LINE
  5
6698
  8
0
 10
3.0
 20
55.0
 30
0.0
 11
3.0
 21
28.844409999999701
 31
0.0
  0
LINE
  5
6699
  8
0
 10
-3.0
 20
55.0
 30
0.0
 11
-3.0
 21
28.844409999999701
 31
0.0
  0
LINE
  5
669A
  8
0
 10
-13.0
 20
55.0
 30
0.0
 11
-13.0
 21
35.707142000000204
 31
0.0
  0
LINE
  5
669B
  8
0
 10
13.0
 20
-55.0
 30
0.0
 11
3.0
 21
-55.0
 31
0.0
  0
LINE
  5
669C
  8
0
 10
-13.0
 20
-55.0
 30
0.0
 11
-3.0
 21
-55.0
 31
0.0
  0
LINE
  5
669D
  8
0
 10
13.0
 20
55.0
 30
0.0
 11
3.0
 21
55.0
 31
0.0
  0
LINE
  5
669E
  8
0
 10
-13.0
 20
55.0
 30
0.0
 11
-3.0
 21
55.0
 31
0.0
  0
LINE
  5
669F
  8
0
 10
-3.0
 20
52.0
 30
0.0
 11
3.0
 21
52.0
 31
0.0
  0
LINE
  5
66A0
  8
0
 10
-3.0
 20
44.0
 30
0.0
 11
3.0
 21
44.0
 31
0.0
  0
LINE
  5
66A1
  8
0
 10
-3.0
 20
-52.0
 30
0.0
 11
3.0
 21
-52.0
 31
0.0
  0
LINE
  5
66A2
  8
0
 10
-3.0
 20
-44.0
 30
0.0
 11
3.0
 21
-44.0
 31
0.0
  0
LINE
  5
66A3
  8
0
 10
-27.0
 20
44.0
 30
0.0
 11
-21.499999999999989
 21
44.0
 31
0.0
  0
LINE
  5
66A4
  8
0
 10
-21.499999999999989
 20
43.0
 30
0.0
 11
-21.499999999999989
 21
53.0
 31
0.0
  0
LINE
  5
66A5
  8
0
 10
-27.0
 20
44.0
 30
0.0
 11
-27.0
 21
52.0
 31
0.0
  0
LINE
  5
66A6
  8
0
 10
-20.5
 20
42.0
 30
0.0
 11
-19.5
 21
42.0
 31
0.0
  0
LINE
  5
66A7
  8
0
 10
-20.5
 20
54.0
 30
0.0
 11
-19.5
 21
54.0
 31
0.0
  0
LINE
  5
66A8
  8
0
 10
-19.5
 20
54.5
 30
0.0
 11
-19.5
 21
41.5
 31
0.0
  0
LINE
  5
66A9
  8
0
 10
-19.5
 20
54.5
 30
0.0
 11
-13.0
 21
54.5
 31
0.0
  0
LINE
  5
66AA
  8
0
 10
-19.5
 20
41.5
 30
0.0
 11
-13.0
 21
41.5
 31
0.0
  0
LINE
  5
66AB
  8
0
 10
-27.0
 20
52.0
 30
0.0
 11
-21.499999999999989
 21
52.0
 31
0.0
  0
LINE
  5
66AC
  8
0
  6
CENTER
 10
-28.65133499999865
 20
48.0
 30
0.0
 11
22.389211999998221
 21
48.0
 31
0.0
  0
LINE
  5
66AD
  8
0
 10
-27.0
 20
-44.0
 30
0.0
 11
-21.499999999999989
 21
-44.0
 31
0.0
  0
LINE
  5
66AE
  8
0
 10
-21.499999999999989
 20
-43.0
 30
0.0
 11
-21.499999999999989
 21
-53.0
 31
0.0
  0
LINE
  5
66AF
  8
0
 10
-27.0
 20
-44.0
 30
0.0
 11
-27.0
 21
-52.0
 31
0.0
  0
LINE
  5
66B0
  8
0
 10
-20.5
 20
-42.0
 30
0.0
 11
-19.5
 21
-42.0
 31
0.0
  0
LINE
  5
66B1
  8
0
 10
-20.5
 20
-54.0
 30
0.0
 11
-19.5
 21
-54.0
 31
0.0
  0
LINE
  5
66B2
  8
0
 10
-19.5
 20
-54.5
 30
0.0
 11
-19.5
 21
-41.5
 31
0.0
  0
LINE
  5
66B3
  8
0
 10
-19.5
 20
-54.5
 30
0.0
 11
-13.0
 21
-54.5
 31
0.0
  0
LINE
  5
66B4
  8
0
 10
-19.5
 20
-41.5
 30
0.0
 11
-13.0
 21
-41.5
 31
0.0
  0
LINE
  5
66B5
  8
0
 10
-27.0
 20
-52.0
 30
0.0
 11
-21.499999999999989
 21
-52.0
 31
0.0
  0
LINE
  5
66B6
  8
0
  6
CENTER
 10
-28.65133499999865
 20
-48.0
 30
0.0
 11
21.827725999999529
 21
-48.0
 31
0.0
  0
LINE
  5
66B7
  8
0
 10
18.5
 20
-44.75
 30
0.0
 11
18.5
 21
-51.25
 31
0.0
  0
LINE
  5
66B8
  8
0
 10
17.77510600000096
 20
-41.5
 30
0.0
 11
13.0
 21
-41.5
 31
0.0
  0
LINE
  5
66B9
  8
0
 10
17.77510600000096
 20
-54.5
 30
0.0
 11
13.0
 21
-54.5
 31
0.0
  0
LINE
  5
66BA
  8
0
 10
18.5
 20
44.75
 30
0.0
 11
18.5
 21
51.25
 31
0.0
  0
LINE
  5
66BB
  8
0
 10
17.77510600000096
 20
41.5
 30
0.0
 11
13.0
 21
41.5
 31
0.0
  0
LINE
  5
66BC
  8
0
 10
17.77510600000096
 20
54.5
 30
0.0
 11
13.0
 21
54.5
 31
0.0
  0
ARC
  5
66BD
  8
0
 10
0.0
 20
0.0
 30
0.0
 40
38.0
 50
94.528060000078654
 51
265.47193500007882
  0
ARC
  5
66BE
  8
0
 10
0.0
 20
0.0
 30
0.0
 40
29.0
 50
95.937769999916156
 51
213.29286703403139
  0
ARC
  5
66BF
  8
0
 10
0.0
 20
0.0
 30
0.0
 40
31.0
 50
95.937769999916156
 51
227.07143144192619
  0
ARC
  5
66C0
  8
0
 10
0.0
 20
0.0
 30
0.0
 40
38.0
 50
274.52806299994222
 51
85.471936986257219
  0
ARC
  5
66C1
  8
0
 10
0.0
 20
0.0
 30
0.0
 40
29.0
 50
326.70713296596853
 51
84.062220000051809
  0
ARC
  5
66C2
  8
0
 10
0.0
 20
0.0
 30
0.0
 40
31.0
 50
312.92856855807378
 51
84.446555804294576
  0
ARC
  5
66C3
  8
0
 10
-20.5
 20
43.0
 30
0.0
 40
1.0
 50
179.99998999999889
 51
269.99999600002042
  0
ARC
  5
66C4
  8
0
 10
-20.5
 20
53.0
 30
0.0
 40
1.0
 50
90.0
 51
180.00000500893739
  0
ARC
  5
66C5
  8
0
 10
-11.85200500000064
 20
51.25
 30
0.0
 40
7.6479949999999981
 50
154.85263000003621
 51
205.14737500014601
  0
ARC
  5
66C6
  8
0
 10
-11.85200500000064
 20
44.75
 30
0.0
 40
7.6479949999999981
 50
154.85263000003621
 51
205.14736800011369
  0
ARC
  5
66C7
  8
0
 10
-20.647994999999352
 20
51.25
 30
0.0
 40
7.6479949999999981
 50
334.85263000003619
 51
25.14736999996374
  0
ARC
  5
66C8
  8
0
 10
-20.647994999999352
 20
44.75
 30
0.0
 40
7.6479949999999981
 50
334.85263000003619
 51
25.14736999996374
  0
ARC
  5
66C9
  8
0
 10
-20.5
 20
-43.0
 30
0.0
 40
1.0
 50
90.0
 51
180.00000500893739
  0
ARC
  5
66CA
  8
0
 10
-20.5
 20
-53.0
 30
0.0
 40
1.0
 50
179.99998999999889
 51
269.99999600002042
  0
ARC
  5
66CB
  8
0
 10
-11.85200500000064
 20
-51.25
 30
0.0
 40
7.6479949999999981
 50
154.85261999999599
 51
205.14737199986081
  0
ARC
  5
66CC
  8
0
 10
-11.85200500000064
 20
-44.75
 30
0.0
 40
7.6479949999999981
 50
154.85263000003621
 51
205.14737199986081
  0
ARC
  5
66CD
  8
0
 10
-20.647994999999352
 20
-51.25
 30
0.0
 40
7.6479949999999981
 50
334.85263000003619
 51
25.14736999996374
  0
ARC
  5
66CE
  8
0
 10
-20.647994999999352
 20
-44.75
 30
0.0
 40
7.6479949999999981
 50
334.85263000003619
 51
25.14736999996374
  0
ARC
  5
66CF
  8
0
 10
10.85200500000064
 20
-44.75
 30
0.0
 40
7.647994500000002
 50
334.85263000003619
 51
25.14736999996374
  0
ARC
  5
66D0
  8
0
 10
10.85200500000064
 20
-51.25
 30
0.0
 40
7.647994500000002
 50
334.85263000003619
 51
25.14736999996374
  0
ARC
  5
66D1
  8
0
 10
10.85200500000064
 20
44.75
 30
0.0
 40
7.647994500000002
 50
334.85263000003619
 51
25.14736999996374
  0
ARC
  5
66D2
  8
0
 10
10.85200500000064
 20
51.25
 30
0.0
 40
7.647994500000002
 50
334.85263000003619
 51
25.14736999996374
  0
LINE
  5
66D3
  8
0
  6
CENTER
 10
-55.759478892276093
 20
0.0
 30
0.0
 11
55.759478892276093
 21
0.0
 31
0.0
  0
LINE
  5
6797
  8
0
  6
CENTER
 10
-30.518080352572721
 20
-8.8499999999999091
 30
0.0
 11
30.518080352572721
 21
-8.8499999999999091
 31
0.0
  0
LINE
  5
67D6
  8
0
 10
-70.0
 20
-74.000000000000227
 30
0.0
 11
70.0
 21
-74.000000000000227
 31
0.0
  0
LINE
  5
67D7
  8
0
 10
24.299999999999269
 20
-73.999999999999773
 30
0.0
 11
24.300000000001091
 21
-29.21489346206749
 31
0.0
  0
LINE
  5
67D8
  8
0
 10
70.0
 20
-90.000000000000227
 30
0.0
 11
-70.0
 21
-90.000000000000227
 31
0.0
  0
LINE
  5
67D9
  8
0
 10
70.0
 20
-74.000000000000227
 30
0.0
 11
70.0
 21
-90.000000000000227
 31
0.0
  0
LINE
  5
67DA
  8
0
  6
CENTER
 10
52.5
 20
-98.000000000000227
 30
0.0
 11
52.5
 21
-64.000000000000227
 31
0.0
  0
LINE
  5
67DB
  8
0
 10
-24.300000000001091
 20
-73.999999999999773
 30
0.0
 11
-24.300000000001091
 21
-52.0
 31
0.0
  0
LINE
  5
67DC
  8
0
 10
-24.30000000000291
 20
-43.999999999999773
 30
0.0
 11
-24.30000000000291
 21
-29.214893462066581
 31
0.0
  0
LINE
  5
67DD
  8
0
  6
CENTER
 10
-52.5
 20
-98.000000000000227
 30
0.0
 11
-52.5
 21
-64.000000000000227
 31
0.0
  0
LINE
  5
67DE
  8
0
 10
-70.0
 20
-90.000000000000227
 30
0.0
 11
-70.0
 21
-74.000000000000227
 31
0.0
  0
LINE
  5
67DF
  8
0
  6
CENTER
 10
0.0
 20
-98.000000000000227
 30
0.0
 11
0.0
 21
98.000000000000227
 31
0.0
  0
LINE
  5
67E0
  8
0
 10
-70.0
 20
74.000000000000227
 30
0.0
 11
70.0
 21
74.000000000000227
 31
0.0
  0
LINE
  5
67E1
  8
0
 10
24.299999999999269
 20
73.999999999999773
 30
0.0
 11
24.300000000001091
 21
29.21489346206749
 31
0.0
  0
LINE
  5
67E2
  8
0
 10
70.0
 20
90.000000000000227
 30
0.0
 11
-70.0
 21
90.000000000000227
 31
0.0
  0
LINE
  5
67E3
  8
0
 10
70.0
 20
74.000000000000227
 30
0.0
 11
70.0
 21
90.000000000000227
 31
0.0
  0
LINE
  5
67E4
  8
0
  6
CENTER
 10
52.5
 20
98.000000000000227
 30
0.0
 11
52.5
 21
64.000000000000227
 31
0.0
  0
LINE
  5
67E5
  8
0
 10
-24.300000000001091
 20
73.999999999999773
 30
0.0
 11
-24.299999999999269
 21
52.0
 31
0.0
  0
LINE
  5
67E6
  8
0
 10
-24.299999999999269
 20
44.0
 30
0.0
 11
-24.30000000000291
 21
29.214893462066581
 31
0.0
  0
LINE
  5
67E7
  8
0
  6
CENTER
 10
-52.5
 20
98.000000000000227
 30
0.0
 11
-52.5
 21
64.000000000000227
 31
0.0
  0
LINE
  5
67E8
  8
0
 10
-70.0
 20
90.000000000000227
 30
0.0
 11
-70.0
 21
74.000000000000227
 31
0.0
  0
CIRCLE
  5
67E9
  8
AM_0_T3
 10
0.0
 20
-8.8499999999999091
 30
0.0
 40
25.25
  0
CIRCLE
  5
67EA
  8
AM_0_T3
 10
0.0
 20
-8.8499999999999091
 30
0.0
 40
12.70000000000004
  0
ENDSEC
  0
EOF
