  0
SECTION
  2
HEADER
  9
$ACADVER
  1
AC1009
  9
$INSBASE
 10
0.0
 20
0.0
 30
0.0
  9
$EXTMIN
 10
-62.5
 20
-99.000000000000455
 30
0.0
  9
$EXTMAX
 10
2279.345812392206
 20
584.28139750375885
 30
0.0
  9
$LIMMIN
 10
0.0
 20
0.0
  9
$LIMMAX
 10
420.0
 20
297.0
  9
$ORTHOMODE
 70
     0
  9
$REGENMODE
 70
     1
  9
$FILLMODE
 70
     1
  9
$QTEXTMODE
 70
     0
  9
$MIRRTEXT
 70
     1
  9
$DRAGMODE
 70
     2
  9
$LTSCALE
 40
1.0
  9
$OSMODE
 70
    37
  9
$ATTMODE
 70
     1
  9
$TEXTSIZE
 40
73.985717453579113
  9
$TRACEWID
 40
1.0
  9
$TEXTSTYLE
  7
STANDARD
  9
$CLAYER
  8
0
  9
$CELTYPE
  6
BYLAYER
  9
$CECOLOR
 62
   256
  9
$DIMSCALE
 40
1.0
  9
$DIMASZ
 40
3.0
  9
$DIMEXO
 40
1.0
  9
$DIMDLI
 40
10.0
  9
$DIMRND
 40
0.0
  9
$DIMDLE
 40
0.0
  9
$DIMEXE
 40
1.0
  9
$DIMTP
 40
0.1
  9
$DIMTM
 40
0.1
  9
$DIMTXT
 40
30.0
  9
$DIMCEN
 40
0.0
  9
$DIMTSZ
 40
0.0
  9
$DIMTOL
 70
     0
  9
$DIMLIM
 70
     0
  9
$DIMTIH
 70
     0
  9
$DIMTOH
 70
     0
  9
$DIMSE1
 70
     0
  9
$DIMSE2
 70
     0
  9
$DIMTAD
 70
     3
  9
$DIMZIN
 70
     8
  9
$DIMBLK
  1
OPEN
  9
$DIMASO
 70
     1
  9
$DIMSHO
 70
     1
  9
$DIMPOST
  1

  9
$DIMAPOST
  1
"
  9
$DIMALT
 70
     0
  9
$DIMALTD
 70
     2
  9
$DIMALTF
 40
0.0393701
  9
$DIMLFAC
 40
1.0
  9
$DIMTOFL
 70
     1
  9
$DIMTVP
 40
0.0
  9
$DIMTIX
 70
     0
  9
$DIMSOXD
 70
     0
  9
$DIMSAH
 70
     0
  9
$DIMBLK1
  1

  9
$DIMBLK2
  1

  9
$DIMSTYLE
  2
TSK
  9
$DIMCLRD
 70
   256
  9
$DIMCLRE
 70
   256
  9
$DIMCLRT
 70
     2
  9
$DIMTFAC
 40
0.71
  9
$DIMGAP
 40
1.5
  9
$LUNITS
 70
     2
  9
$LUPREC
 70
     8
  9
$SKETCHINC
 40
1.0
  9
$FILLETRAD
 40
0.0
  9
$AUNITS
 70
     0
  9
$AUPREC
 70
     8
  9
$MENU
  1
.
  9
$ELEVATION
 40
0.0
  9
$PELEVATION
 40
0.0
  9
$THICKNESS
 40
0.0
  9
$LIMCHECK
 70
     0
  9
$BLIPMODE
 70
     0
  9
$CHAMFERA
 40
2.5
  9
$CHAMFERB
 40
2.5
  9
$SKPOLY
 70
     0
  9
$TDCREATE
 40
2454739.7204081588
  9
$TDUPDATE
 40
2454748.5620572339
  9
$TDINDWG
 40
0.277917419
  9
$TDUSRTIMER
 40
0.277917419
  9
$USRTIMER
 70
     1
  9
$ANGBASE
 50
0.0
  9
$ANGDIR
 70
     1
  9
$PDMODE
 70
     0
  9
$PDSIZE
 40
0.0
  9
$PLINEWID
 40
0.0
  9
$COORDS
 70
     1
  9
$SPLFRAME
 70
     0
  9
$SPLINETYPE
 70
     6
  9
$SPLINESEGS
 70
     8
  9
$ATTDIA
 70
     0
  9
$ATTREQ
 70
     1
  9
$HANDLING
 70
 22529
  9
$HANDSEED
  5
6B9E
  9
$SURFTAB1
 70
     6
  9
$SURFTAB2
 70
     6
  9
$SURFTYPE
 70
     6
  9
$SURFU
 70
     6
  9
$SURFV
 70
     6
  9
$UCSNAME
  2

  9
$UCSORG
 10
0.0
 20
0.0
 30
0.0
  9
$UCSXDIR
 10
1.0
 20
0.0
 30
0.0
  9
$UCSYDIR
 10
0.0
 20
1.0
 30
0.0
  9
$PUCSNAME
  2

  9
$PUCSORG
 10
0.0
 20
0.0
 30
0.0
  9
$PUCSXDIR
 10
1.0
 20
0.0
 30
0.0
  9
$PUCSYDIR
 10
0.0
 20
1.0
 30
0.0
  9
$USERI1
 70
     0
  9
$USERI2
 70
     0
  9
$USERI3
 70
     0
  9
$USERI4
 70
     0
  9
$USERI5
 70
     0
  9
$USERR1
 40
0.0
  9
$USERR2
 40
0.0
  9
$USERR3
 40
0.0
  9
$USERR4
 40
0.0
  9
$USERR5
 40
0.0
  9
$WORLDVIEW
 70
     1
  9
$SHADEDGE
 70
     3
  9
$SHADEDIF
 70
    70
  9
$TILEMODE
 70
     1
  9
$MAXACTVP
 70
    48
  9
$PLIMCHECK
 70
     0
  9
$PEXTMIN
 10
1.0000000000000000E+020
 20
1.0000000000000000E+020
 30
1.0000000000000000E+020
  9
$PEXTMAX
 10
-1.0000000000000000E+020
 20
-1.0000000000000000E+020
 30
-1.0000000000000000E+020
  9
$PLIMMIN
 10
0.0
 20
0.0
  9
$PLIMMAX
 10
420.0
 20
297.0
  9
$UNITMODE
 70
     0
  9
$VISRETAIN
 70
     1
  9
$PLINEGEN
 70
     0
  9
$PSLTSCALE
 70
     1
  0
ENDSEC
  0
SECTION
  2
TABLES
  0
TABLE
  2
VPORT
 70
     2
  0
VPORT
  2
*ACTIVE
 70
     0
 10
0.0
 20
0.0
 11
1.0
 21
1.0
 12
1503.0232650745661
 22
242.62843382204241
 13
0.0
 23
0.0
 14
2.5
 24
2.5
 15
10.0
 25
10.0
 16
0.0
 26
0.0
 36
1.0
 17
0.0
 27
0.0
 37
0.0
 40
1536.5133023195251
 41
2.045360824742267
 42
50.0
 43
0.0
 44
0.0
 50
0.0
 51
0.0
 71
     0
 72
   100
 73
     1
 74
     3
 75
     0
 76
     0
 77
     0
 78
     0
  0
ENDTAB
  0
TABLE
  2
LTYPE
 70
     2
  0
LTYPE
  2
CONTINUOUS
 70
     0
  3
Solid line
 72
    65
 73
     0
 40
0.0
  0
LTYPE
  2
CENTER
 70
     0
  3
__ . __
 72
    65
 73
     4
 40
7.0
 49
4.0
 49
-1.0
 49
1.0
 49
-1.0
  0
ENDTAB
  0
TABLE
  2
LAYER
 70
     2
  0
LAYER
  2
0
 70
     0
 62
     7
  6
CONTINUOUS
  0
LAYER
  2
AM_0_T3
 70
     0
 62
     7
  6
CONTINUOUS
  0
ENDTAB
  0
TABLE
  2
STYLE
 70
     2
  0
STYLE
  2
STANDARD
 70
     0
 40
0.0
 41
0.7
 50
0.0
 71
     0
 42
73.985717453579113
  3
romans.shx
  4
bigfont.shx
  0
STYLE
  2
TSKDIM
 70
     0
 40
0.0
 41
0.75
 50
0.0
 71
     0
 42
4.0
  3
romans.shx
  4
EXTFONT.SHX
  0
ENDTAB
  0
TABLE
  2
VIEW
 70
     0
  0
ENDTAB
  0
TABLE
  2
UCS
 70
     0
  0
ENDTAB
  0
TABLE
  2
APPID
 70
    41
  0
APPID
  2
ACAD
 70
     0
  0
APPID
  2
MCAD_NO_VIS
 70
     0
  0
APPID
  2
ACAD_TEMP_GRAPHIC
 70
     0
  0
APPID
  2
ACATTRIBSERVICES
 70
     0
  0
APPID
  2
AD_DRAW
 70
     0
  0
APPID
  2
DESIGNERASSEMBLIES
 70
     0
  0
APPID
  2
ASURF_PCURVE_APPNAME
 70
     0
  0
APPID
  2
ACADM_DIM_EDIT
 70
     0
  0
APPID
  2
GENIUS_GENDIM_13
 70
     0
  0
APPID
  2
GENIUS_GENDTOL_13
 70
     0
  0
APPID
  2
GENIUS_GE3DTOL_13
 70
     0
  0
APPID
  2
AMG_3D2D_5_0
 70
     0
  0
APPID
  2
AMDT_DM_ADJ
 70
     0
  0
APPID
  2
CK_MATE-SERIES
 70
     0
  0
APPID
  2
GEVID1042077799
 70
     0
  0
APPID
  2
GEVMK
 70
     0
  0
APPID
  2
GEVDC
 70
     0
  0
APPID
  2
GENIUS_GENBH_13
 70
     0
  0
APPID
  2
GENIUS_GENOLIS_13
 70
     0
  0
APPID
  2
GENIUS_GENOENT_13
 70
     0
  0
APPID
  2
GENIUS_GENODEF_13
 70
     0
  0
APPID
  2
GENIUS_GENOBJ-NBEHI-BHF_13
 70
     0
  0
APPID
  2
GENIUS_GENOREF_13
 70
     0
  0
APPID
  2
GENIUS_GENOBJ-NBEHI-BHB_13
 70
     0
  0
APPID
  2
GEVID1042183772
 70
     0
  0
APPID
  2
GEVID1042183773
 70
     0
  0
APPID
  2
GEVID1042183774
 70
     0
  0
APPID
  2
DCO15
 70
     0
  0
APPID
  2
ACAD_DSTYLE_DIMARC_LENGTH_
 70
     0
  0
APPID
  2
ACAD_DSTYLE_DIMJOGGED_JOGA
 70
     0
  0
APPID
  2
ACAD_MLEADERVER
 70
     0
  0
APPID
  2
ACAD_DSTYLE_DIMJAG
 70
     0
  0
APPID
  2
ACAD_DSTYLE_DIMTALN
 70
     0
  0
APPID
  2
ACAD_PSEXT
 70
     0
  0
APPID
  2
ACAD_EXEMPT_FROM_CAD_STANDARDS
 70
     0
  0
APPID
  2
ACAD_DSTYLE_DIMINSPECT
 70
     0
  0
APPID
  2
ACAD_DSTYLE_DIMANGULAR_EXT
 70
     0
  0
APPID
  2
GENIUS_GENOBJ-N-FIL_13
 70
     0
  0
APPID
  2
ACAD_DSTYLE_DIM_LINETYPE
 70
     0
  0
APPID
  2
ACAD_DSTYLE_DIM_EXT1_LINETYPE
 70
     0
  0
APPID
  2
ACAD_DSTYLE_DIM_EXT2_LINETYPE
 70
     0
  0
ENDTAB
  0
TABLE
  2
DIMSTYLE
 70
     1
  0
DIMSTYLE
  2
TSK
 70
     0
  3

  4
"
  5
OPEN
  6

  7

 40
1.0
 41
3.0
 42
1.0
 43
10.0
 44
1.0
 45
0.0
 46
0.0
 47
0.1
 48
0.1
140
3.0
141
0.0
142
0.0
143
0.0393701
144
1.0
145
0.0
146
0.71
147
1.5
 71
     0
 72
     0
 73
     0
 74
     0
 75
     0
 76
     0
 77
     3
 78
     8
170
     0
171
     2
172
     1
173
     0
174
     0
175
     0
176
   256
177
   256
178
     2
  0
ENDTAB
  0
ENDSEC
  0
SECTION
  2
BLOCKS
  0
BLOCK
  8
0
  2
$MODEL_SPACE
 70
     0
 10
0.0
 20
0.0
 30
0.0
  3
$MODEL_SPACE
  1

  0
ENDBLK
  5
21
  8
0
  0
BLOCK
 67
     1
  8
0
  2
$PAPER_SPACE
 70
     0
 10
0.0
 20
0.0
 30
0.0
  3
$PAPER_SPACE
  1

  0
ENDBLK
  5
1D
 67
     1
  8
0
  0
BLOCK
  8
0
  2
_OPEN
 70
     0
 10
0.0
 20
0.0
 30
0.0
  3
_OPEN
  1

  0
LINE
  5
15A
  8
0
  6
BYBLOCK
 62
     0
 10
-1.0
 20
0.1666666666666666
 30
0.0
 11
0.0
 21
0.0
 31
0.0
  0
LINE
  5
15B
  8
0
  6
BYBLOCK
 62
     0
 10
-1.0
 20
-0.1666666666666666
 30
0.0
 11
0.0
 21
0.0
 31
0.0
  0
LINE
  5
15C
  8
0
  6
BYBLOCK
 62
     0
 10
0.0
 20
0.0
 30
0.0
 11
-1.0
 21
0.0
 31
0.0
  0
ENDBLK
  5
15E
  8
0
  0
ENDSEC
  0
SECTION
  2
ENTITIES
  0
LINE
  5
3661
  8
0
 10
1219.70124957693
 20
-37.499999999997272
 30
0.0
 11
1219.7012495769261
 21
37.500000000002267
 31
0.0
  0
LINE
  5
3662
  8
0
 10
1215.20124957693
 20
-37.499999999997272
 30
0.0
 11
1215.2012495769261
 21
37.500000000002267
 31
0.0
  0
LINE
  5
3663
  8
0
 10
1210.70124957693
 20
-37.499999999997272
 30
0.0
 11
1210.7012495769261
 21
37.500000000002267
 31
0.0
  0
LINE
  5
3664
  8
0
 10
1224.2012495769261
 20
-37.499999999997272
 30
0.0
 11
1224.2012495769261
 21
37.500000000002267
 31
0.0
  0
LINE
  5
3665
  8
0
 10
1228.70124957693
 20
-37.499999999997272
 30
0.0
 11
1228.70124957693
 21
37.500000000002267
 31
0.0
  0
LINE
  5
3666
  8
0
 10
1233.2012495769261
 20
-37.499999999997272
 30
0.0
 11
1233.2012495769261
 21
37.500000000002267
 31
0.0
  0
LINE
  5
3667
  8
0
 10
1198.7512495769261
 20
-31.040918148760738
 30
0.0
 11
1202.4804022224589
 21
-37.499999999997719
 31
0.0
  0
LINE
  5
3668
  8
0
 10
1202.4804022224589
 20
-37.499999999997719
 30
0.0
 11
1268.4220969313969
 21
-37.499999999997719
 31
0.0
  0
LINE
  5
3669
  8
0
 10
1198.7512495769261
 20
-31.040918148760738
 30
0.0
 11
1198.7512495769261
 21
31.040918148761651
 31
0.0
  0
LINE
  5
366A
  8
0
 10
1205.7512495769261
 20
-37.499999999997719
 30
0.0
 11
1205.7512495769261
 21
37.500000000002267
 31
0.0
  0
LINE
  5
366B
  8
0
 10
1198.7512495769261
 20
31.040918148761651
 30
0.0
 11
1202.4804022224589
 21
37.500000000002267
 31
0.0
  0
LINE
  5
366C
  8
0
 10
1202.4804022224589
 20
37.500000000002267
 30
0.0
 11
1268.4220969313969
 21
37.500000000002267
 31
0.0
  0
LINE
  5
366E
  8
0
 10
1202.4804022224589
 20
-37.499999999994081
 30
0.0
 11
1202.4804022224589
 21
37.500000000002267
 31
0.0
  0
LINE
  5
366F
  8
0
 10
1272.1512495769271
 20
-31.040918148760738
 30
0.0
 11
1268.4220969313969
 21
-37.499999999997719
 31
0.0
  0
LINE
  5
3670
  8
0
 10
1272.1512495769271
 20
-31.040918148760738
 30
0.0
 11
1272.1512495769271
 21
31.040918148761651
 31
0.0
  0
LINE
  5
3671
  8
0
 10
1272.1512495769271
 20
31.040918148761651
 30
0.0
 11
1268.4220969313969
 21
37.500000000002267
 31
0.0
  0
LINE
  5
3672
  8
0
 10
1268.4220969313969
 20
-37.499999999994081
 30
0.0
 11
1268.4220969313969
 21
37.500000000002267
 31
0.0
  0
LINE
  5
3673
  8
0
 10
1251.2012495769261
 20
-37.499999999997272
 30
0.0
 11
1251.2012495769261
 21
37.500000000002267
 31
0.0
  0
LINE
  5
3674
  8
0
 10
1255.7012495769261
 20
-37.499999999997272
 30
0.0
 11
1255.7012495769261
 21
37.500000000002267
 31
0.0
  0
LINE
  5
3675
  8
0
 10
1260.2012495769261
 20
-37.499999999997272
 30
0.0
 11
1260.2012495769261
 21
37.500000000002267
 31
0.0
  0
LINE
  5
3676
  8
0
 10
1246.7012495769261
 20
-37.499999999997272
 30
0.0
 11
1246.70124957693
 21
37.500000000002267
 31
0.0
  0
LINE
  5
3677
  8
0
 10
1242.2012495769229
 20
-37.499999999997272
 30
0.0
 11
1242.2012495769229
 21
37.500000000002267
 31
0.0
  0
LINE
  5
3678
  8
0
 10
1237.7012495769261
 20
-37.499999999997272
 30
0.0
 11
1237.70124957693
 21
37.500000000002267
 31
0.0
  0
LINE
  5
3679
  8
0
 10
1265.1512495769271
 20
-37.499999999997719
 30
0.0
 11
1265.1512495769271
 21
37.500000000002267
 31
0.0
  0
ARC
  5
36C1
  8
0
 10
234.45124933850821
 20
-48.0
 30
0.0
 40
7.0
 50
132.20616791855261
 51
171.7867417394574
  0
ARC
  5
36C2
  8
0
 10
234.45124933850821
 20
-48.0
 30
0.0
 40
7.0
 50
188.21320240122751
 51
231.7867959184548
  0
ARC
  5
36C3
  8
0
 10
234.45124933850821
 20
-48.0
 30
0.0
 40
7.0
 50
248.2131224893802
 51
291.78687751061972
  0
ARC
  5
36C4
  8
0
 10
234.45124933850821
 20
-48.0
 30
0.0
 40
7.0
 50
308.21320408154509
 51
351.78679759877252
  0
ARC
  5
36C5
  8
0
 10
234.45124933850821
 20
-48.0
 30
0.0
 40
7.0
 50
8.213258260542597
 51
47.793826811981923
  0
ARC
  5
36C6
  8
0
 10
234.45124933850821
 20
48.0
 30
0.0
 40
7.0
 50
312.12875643080048
 51
351.78674173945728
  0
ARC
  5
36C7
  8
0
 10
234.45124933850821
 20
48.0
 30
0.0
 40
7.0
 50
8.2132024012274858
 51
51.786795918454878
  0
ARC
  5
36C8
  8
0
 10
234.45124933850821
 20
48.0
 30
0.0
 40
7.0
 50
68.213122489380268
 51
111.7868775106197
  0
ARC
  5
36C9
  8
0
 10
234.45124933850821
 20
48.0
 30
0.0
 40
7.0
 50
128.21320408154509
 51
171.78679759877241
  0
LINE
  5
36CA
  8
0
 10
1219.70124957693
 20
374.17147954932079
 30
0.0
 11
1219.7012495769261
 21
449.17147954932079
 31
0.0
  0
LINE
  5
36CB
  8
0
 10
1215.20124957693
 20
374.17147954932079
 30
0.0
 11
1215.2012495769261
 21
449.17147954932079
 31
0.0
  0
LINE
  5
36CC
  8
0
 10
1210.70124957693
 20
374.17147954932079
 30
0.0
 11
1210.7012495769261
 21
449.17147954932079
 31
0.0
  0
LINE
  5
36CD
  8
0
 10
1224.2012495769261
 20
374.17147954932079
 30
0.0
 11
1224.2012495769261
 21
449.17147954932079
 31
0.0
  0
LINE
  5
36CE
  8
0
 10
1228.70124957693
 20
374.17147954932079
 30
0.0
 11
1228.70124957693
 21
449.17147954932079
 31
0.0
  0
LINE
  5
36CF
  8
0
 10
1233.2012495769261
 20
374.17147954932079
 30
0.0
 11
1233.2012495769261
 21
449.17147954932079
 31
0.0
  0
LINE
  5
36D0
  8
0
 10
1198.7512495769261
 20
380.63056140055772
 30
0.0
 11
1202.4804022224589
 21
374.17147954932079
 31
0.0
  0
LINE
  5
36D1
  8
0
 10
1202.4804022224589
 20
374.17147954932079
 30
0.0
 11
1268.4220969313969
 21
374.17147954932079
 31
0.0
  0
LINE
  5
36D2
  8
0
 10
1198.7512495769261
 20
380.63056140055772
 30
0.0
 11
1198.7512495769261
 21
442.71239769808011
 31
0.0
  0
LINE
  5
36D3
  8
0
 10
1205.7512495769261
 20
374.17147954932079
 30
0.0
 11
1205.7512495769261
 21
449.17147954932079
 31
0.0
  0
LINE
  5
36D4
  8
0
 10
1198.7512495769261
 20
442.71239769808011
 30
0.0
 11
1202.4804022224589
 21
449.17147954932079
 31
0.0
  0
LINE
  5
36D5
  8
0
 10
1202.4804022224589
 20
449.17147954932079
 30
0.0
 11
1268.4220969313969
 21
449.17147954932079
 31
0.0
  0
LINE
  5
36D7
  8
0
 10
1202.4804022224589
 20
374.17147954932437
 30
0.0
 11
1202.4804022224589
 21
449.17147954932079
 31
0.0
  0
LINE
  5
36D8
  8
0
 10
1272.1512495769271
 20
380.63056140055772
 30
0.0
 11
1268.4220969313969
 21
374.17147954932079
 31
0.0
  0
LINE
  5
36D9
  8
0
 10
1272.1512495769271
 20
380.63056140055772
 30
0.0
 11
1272.1512495769271
 21
442.71239769808011
 31
0.0
  0
LINE
  5
36DA
  8
0
 10
1272.1512495769271
 20
442.71239769808011
 30
0.0
 11
1268.4220969313969
 21
449.17147954932079
 31
0.0
  0
LINE
  5
36DB
  8
0
 10
1268.4220969313969
 20
374.17147954932437
 30
0.0
 11
1268.4220969313969
 21
449.17147954932079
 31
0.0
  0
LINE
  5
36DC
  8
0
 10
1251.2012495769261
 20
374.17147954932079
 30
0.0
 11
1251.2012495769261
 21
449.17147954932079
 31
0.0
  0
LINE
  5
36DD
  8
0
 10
1255.7012495769261
 20
374.17147954932079
 30
0.0
 11
1255.7012495769261
 21
449.17147954932079
 31
0.0
  0
LINE
  5
36DE
  8
0
 10
1260.2012495769261
 20
374.17147954932079
 30
0.0
 11
1260.2012495769261
 21
449.17147954932079
 31
0.0
  0
LINE
  5
36DF
  8
0
 10
1246.7012495769261
 20
374.17147954932079
 30
0.0
 11
1246.70124957693
 21
449.17147954932079
 31
0.0
  0
LINE
  5
36E0
  8
0
 10
1242.2012495769229
 20
374.17147954932079
 30
0.0
 11
1242.2012495769229
 21
449.17147954932079
 31
0.0
  0
LINE
  5
36E1
  8
0
 10
1237.7012495769261
 20
374.17147954932079
 30
0.0
 11
1237.70124957693
 21
449.17147954932079
 31
0.0
  0
LINE
  5
36E2
  8
0
 10
1265.1512495769271
 20
374.17147954932079
 30
0.0
 11
1265.1512495769271
 21
449.17147954932079
 31
0.0
  0
ARC
  5
36E3
  8
0
 10
2241.45124957693
 20
432.1714795493171
 30
0.0
 40
1.0
 50
0.0
 51
90.000005008833185
  0
ARC
  5
36E4
  8
0
 10
2231.45124957693
 20
432.1714795493171
 30
0.0
 40
1.0
 50
89.999989999842668
 51
179.99999600002039
  0
ARC
  5
36E5
  8
0
 10
2233.20124957693
 20
423.52348454931769
 30
0.0
 40
7.6479949999999981
 50
64.852620000101439
 51
115.14737199976651
  0
ARC
  5
36E6
  8
0
 10
2239.70124957693
 20
423.52348454931769
 30
0.0
 40
7.6479949999999981
 50
64.852630000094493
 51
115.14737199976651
  0
ARC
  5
36E7
  8
0
 10
2233.20124957693
 20
432.3194745493164
 30
0.0
 40
7.6479949999999981
 50
244.85263000009451
 51
295.14736999990549
  0
ARC
  5
36E8
  8
0
 10
2239.70124957693
 20
432.3194745493164
 30
0.0
 40
7.6479949999999981
 50
244.85263000009451
 51
295.14736999990549
  0
ARC
  5
36E9
  8
0
 10
2239.70124957693
 20
400.81947454931651
 30
0.0
 40
7.647994500000002
 50
244.85263000009451
 51
295.14736999990549
  0
ARC
  5
36EA
  8
0
 10
2233.20124957693
 20
400.81947454931651
 30
0.0
 40
7.647994500000002
 50
244.85263000009451
 51
295.14736999990549
  0
ARC
  5
36EB
  8
0
 10
234.45124933850821
 20
48.0
 30
0.0
 40
7.0
 50
188.21325826054249
 51
227.87124883138
  0
LINE
  5
36EC
  8
0
 10
2229.20124957693
 20
386.27147954931928
 30
0.0
 11
2208.5572037323391
 21
386.27147954931792
 31
0.0
  0
LINE
  5
36ED
  8
0
 10
2094.3452954215172
 20
386.27147954931888
 30
0.0
 11
1272.1108793763119
 21
386.27147954931928
 31
0.0
  0
LINE
  5
36EE
  8
0
 10
2229.20124957693
 20
437.07147954931861
 30
0.0
 11
2208.5572037323391
 21
437.07147954931861
 31
0.0
  0
LINE
  5
36EF
  8
0
 10
2094.3452954215172
 20
437.07147954931861
 30
0.0
 11
1272.1108793763119
 21
437.07147954931861
 31
0.0
  0
LINE
  5
36F0
  8
0
 10
2257.4512495769268
 20
386.32147954931861
 30
0.0
 11
2257.45124957693
 21
437.02147954931752
 31
0.0
  0
LINE
  5
36F1
  8
0
 10
2243.70124957693
 20
386.32147954931861
 30
0.0
 11
2257.4512495769268
 21
386.32147954931861
 31
0.0
  0
LINE
  5
36F2
  8
0
 10
2243.7012495769259
 20
437.02147954931752
 30
0.0
 11
2257.45124957693
 21
437.02147954931752
 31
0.0
  0
LINE
  5
36F3
  8
0
 10
2229.20124957693
 20
380.81698230823622
 30
0.0
 11
2229.20124957693
 21
442.6714795493171
 31
0.0
  0
LINE
  5
36F4
  8
0
 10
2243.70124957693
 20
380.81698359366959
 30
0.0
 11
2243.70124957693
 21
442.6714795493171
 31
0.0
  0
LINE
  5
36F5
  8
0
 10
2231.7490412167931
 20
449.6714795493171
 30
0.0
 11
2231.7503921347702
 21
433.1714795493171
 31
0.0
  0
LINE
  5
36F6
  8
0
 10
2231.7536557685162
 20
393.30972807970278
 30
0.0
 11
2231.7552636268442
 21
373.67148005877152
 31
0.0
  0
LINE
  5
36F7
  8
0
 10
2241.1534579370668
 20
449.6714795493171
 30
0.0
 11
2241.1521070190861
 21
433.1714795493171
 31
0.0
  0
LINE
  5
36F8
  8
0
 10
2241.148843385341
 20
393.30972807970278
 30
0.0
 11
2241.1472355270121
 21
373.67148005877152
 31
0.0
  0
LINE
  5
36F9
  8
0
 10
2229.45124957693
 20
408.6714795493171
 30
0.0
 11
2243.45124957693
 21
408.6714795493171
 31
0.0
  0
LINE
  5
36FA
  8
0
 10
2229.45124957693
 20
398.6714795493171
 30
0.0
 11
2243.45124957693
 21
398.6714795493171
 31
0.0
  0
LINE
  5
36FB
  8
0
 10
2229.45124957693
 20
414.67147954931721
 30
0.0
 11
2243.45124957693
 21
414.67147954931721
 31
0.0
  0
LINE
  5
36FC
  8
0
 10
2229.45124957693
 20
424.6714795493171
 30
0.0
 11
2243.45124957693
 21
424.6714795493171
 31
0.0
  0
LINE
  5
36FD
  8
0
 10
2229.45124957693
 20
398.6714795493171
 30
0.0
 11
2229.45124957693
 21
408.6714795493171
 31
0.0
  0
LINE
  5
36FE
  8
0
 10
2229.45124957693
 20
424.6714795493171
 30
0.0
 11
2229.45124957693
 21
414.67147954931721
 31
0.0
  0
LINE
  5
36FF
  8
0
 10
2232.45124957693
 20
414.67147954931721
 30
0.0
 11
2232.45124957693
 21
408.6714795493171
 31
0.0
  0
LINE
  5
3700
  8
0
 10
2240.45124957693
 20
414.67147954931721
 30
0.0
 11
2240.45124957693
 21
408.6714795493171
 31
0.0
  0
LINE
  5
3701
  8
0
 10
2240.45124957693
 20
438.6714795493171
 30
0.0
 11
2240.45124957693
 21
433.1714795493171
 31
0.0
  0
LINE
  5
3702
  8
0
 10
2241.45124957693
 20
433.1714795493171
 30
0.0
 11
2231.45124957693
 21
433.1714795493171
 31
0.0
  0
LINE
  5
3703
  8
0
 10
2240.45124957693
 20
438.6714795493171
 30
0.0
 11
2232.45124957693
 21
438.6714795493171
 31
0.0
  0
LINE
  5
3704
  8
0
 10
2242.45124957693
 20
432.1714795493171
 30
0.0
 11
2242.45124957693
 21
431.17147954931721
 31
0.0
  0
LINE
  5
3705
  8
0
 10
2230.45124957693
 20
432.1714795493171
 30
0.0
 11
2230.45124957693
 21
431.17147954931721
 31
0.0
  0
LINE
  5
3706
  8
0
 10
2229.95124957693
 20
431.17147954931721
 30
0.0
 11
2242.95124957693
 21
431.17147954931721
 31
0.0
  0
LINE
  5
3707
  8
0
 10
2229.95124957693
 20
431.17147954931721
 30
0.0
 11
2229.95124957693
 21
424.6714795493171
 31
0.0
  0
LINE
  5
3708
  8
0
 10
2242.95124957693
 20
431.17147954931721
 30
0.0
 11
2242.95124957693
 21
424.6714795493171
 31
0.0
  0
LINE
  5
3709
  8
0
 10
2232.45124957693
 20
438.6714795493171
 30
0.0
 11
2232.45124957693
 21
433.1714795493171
 31
0.0
  0
LINE
  5
370A
  8
0
  6
CENTER
 10
2236.45124957693
 20
440.32281454931581
 30
0.0
 11
2236.45124957693
 21
389.84375354931763
 31
0.0
  0
LINE
  5
370B
  8
0
 10
2239.70124957693
 20
393.1714795493171
 30
0.0
 11
2233.20124957693
 21
393.1714795493171
 31
0.0
  0
LINE
  5
370C
  8
0
 10
2242.95124957693
 20
393.89637354931619
 30
0.0
 11
2242.95124957693
 21
398.6714795493171
 31
0.0
  0
LINE
  5
370D
  8
0
 10
2229.95124957693
 20
393.89637354931619
 30
0.0
 11
2229.95124957693
 21
398.6714795493171
 31
0.0
  0
LINE
  5
370E
  8
0
 10
2243.45124957693
 20
398.6714795493171
 30
0.0
 11
2243.45124957693
 21
408.6714795493171
 31
0.0
  0
LINE
  5
370F
  8
0
 10
2243.45124957693
 20
424.6714795493171
 30
0.0
 11
2243.45124957693
 21
414.67147954931721
 31
0.0
  0
LINE
  5
3710
  8
AM_0_T3
 10
2231.7490412167931
 20
449.6714795493171
 30
0.0
 11
2241.1534579370668
 21
449.6714795493171
 31
0.0
  0
LINE
  5
3711
  8
AM_0_T3
 10
2229.20124957693
 20
442.6714795493171
 30
0.0
 11
2231.7490412167931
 21
449.6714795493171
 31
0.0
  0
LINE
  5
3712
  8
AM_0_T3
 10
2241.1534579370668
 20
449.6714795493171
 30
0.0
 11
2243.70124957693
 21
442.6714795493171
 31
0.0
  0
LINE
  5
3713
  8
AM_0_T3
 10
2231.7490412167931
 20
373.67147954931892
 30
0.0
 11
2241.1534579370668
 21
373.67147954931892
 31
0.0
  0
LINE
  5
3714
  8
AM_0_T3
 10
2229.20124957693
 20
380.67147954931892
 30
0.0
 11
2231.7490412167931
 21
373.67147954931892
 31
0.0
  0
LINE
  5
3715
  8
AM_0_T3
 10
2241.1534579370668
 20
373.67147954931892
 30
0.0
 11
2243.70124957693
 21
380.67147954931892
 31
0.0
  0
LINE
  5
3716
  8
0
 10
241.70124957692309
 20
25.399999999999629
 30
0.0
 11
1198.791619777541
 21
25.399999999999629
 31
0.0
  0
LINE
  5
3717
  8
0
 10
213.4512495769267
 20
25.35000000000036
 30
0.0
 11
213.4512495769267
 21
-25.349999999998541
 31
0.0
  0
LINE
  5
3718
  8
0
 10
227.20124957692681
 20
25.35000000000036
 30
0.0
 11
213.4512495769267
 21
25.35000000000036
 31
0.0
  0
LINE
  5
3719
  8
0
 10
227.20124957692681
 20
-25.349999999998541
 30
0.0
 11
213.4512495769267
 21
-25.349999999998541
 31
0.0
  0
LINE
  5
371A
  8
0
 10
238.2040257385087
 20
-54.49999600000001
 30
0.0
 11
230.69847153850779
 21
-54.49999600000001
 31
0.0
  0
LINE
  5
371B
  8
0
 10
230.6984723385066
 20
-54.499999000000123
 30
0.0
 11
226.9456951385072
 21
-47.999998000000232
 31
0.0
  0
LINE
  5
371C
  8
0
 10
226.94569453850991
 20
-47.999998000000232
 30
0.0
 11
230.69847163850861
 21
-41.499996999999887
 31
0.0
  0
LINE
  5
371D
  8
0
 10
230.69847153850779
 20
-41.5
 30
0.0
 11
238.2040257385087
 21
-41.5
 31
0.0
  0
LINE
  5
371E
  8
0
 10
241.95680413850641
 20
-47.999998000000232
 30
0.0
 11
238.20402703850769
 21
-41.499996999999887
 31
0.0
  0
LINE
  5
371F
  8
0
 10
238.20402633850969
 20
-54.499999000000123
 30
0.0
 11
241.95680353850909
 21
-47.999998000000232
 31
0.0
  0
LINE
  5
3720
  8
0
 10
230.69847293850759
 20
54.49999600000001
 30
0.0
 11
238.20402713850851
 21
54.49999600000001
 31
0.0
  0
LINE
  5
3721
  8
0
 10
238.20402633850969
 20
54.499999000000123
 30
0.0
 11
241.95680353850909
 21
47.999997999999771
 31
0.0
  0
LINE
  5
3722
  8
0
 10
241.95680413850641
 20
47.999997999999771
 30
0.0
 11
238.20402703850769
 21
41.499996999999887
 31
0.0
  0
LINE
  5
3723
  8
0
 10
226.94569453850991
 20
47.999997999999771
 30
0.0
 11
230.69847163850861
 21
41.499996999999887
 31
0.0
  0
LINE
  5
3724
  8
0
 10
230.6984723385066
 20
54.499999000000123
 30
0.0
 11
226.9456951385072
 21
47.999997999999771
 31
0.0
  0
LINE
  5
3725
  8
0
 10
238.20402713850851
 20
41.5
 30
0.0
 11
230.69847293850759
 21
41.5
 31
0.0
  0
LINE
  5
3726
  8
0
  6
CENTER
 10
244.45124933850821
 20
48.0
 30
0.0
 11
224.45124933850809
 21
48.0
 31
0.0
  0
LINE
  5
3727
  8
0
  6
CENTER
 10
234.4512491000896
 20
58.0
 30
0.0
 11
234.4512491000896
 21
38.0
 31
0.0
  0
LINE
  5
3728
  8
0
  6
CENTER
 10
244.45124933850821
 20
-48.0
 30
0.0
 11
224.45124933850809
 21
-48.0
 31
0.0
  0
LINE
  5
3729
  8
0
  6
CENTER
 10
234.4512495769267
 20
-38.0
 30
0.0
 11
234.4512495769267
 21
-58.0
 31
0.0
  0
LINE
  5
372A
  8
0
 10
241.70124957692681
 20
30.85449724108275
 30
0.0
 11
241.70124957692681
 21
-30.854497241083202
 31
0.0
  0
LINE
  5
372B
  8
0
 10
227.20124957692681
 20
30.854495955648868
 30
0.0
 11
227.20124957692681
 21
-30.854495955648868
 31
0.0
  0
LINE
  5
372C
  8
0
 10
239.15385214921471
 20
-42.814874465865159
 30
0.0
 11
239.14684183466301
 21
42.808525150782309
 31
0.0
  0
LINE
  5
372D
  8
0
 10
229.74864700467509
 20
-42.814874033369499
 30
0.0
 11
229.75565731915771
 21
42.80852471952312
 31
0.0
  0
LINE
  5
372E
  8
0
 10
239.15344822632679
 20
-37.881393849751468
 30
0.0
 11
241.70124957692681
 21
-30.854497241083202
 31
0.0
  0
LINE
  5
372F
  8
0
 10
229.7490509331837
 20
-37.88139362553283
 30
0.0
 11
227.20124957692681
 21
-30.854495955648868
 31
0.0
  0
LINE
  5
3730
  8
0
 10
239.15327021203839
 20
-35.707142142714467
 30
0.0
 11
229.74922894181501
 21
-35.707142142714467
 31
0.0
  0
LINE
  5
3731
  8
0
 10
239.15344822632679
 20
37.881393849751468
 30
0.0
 11
241.70124957692681
 21
30.85449724108275
 31
0.0
  0
LINE
  5
3732
  8
0
 10
229.7490509331837
 20
37.88139362553283
 30
0.0
 11
227.20124957692681
 21
30.854495955648868
 31
0.0
  0
LINE
  5
3733
  8
0
 10
239.15327021203839
 20
35.707142142714019
 30
0.0
 11
229.74922894181501
 21
35.707142142714019
 31
0.0
  0
ARC
  5
3734
  8
0
 10
229.4512495769267
 20
432.1714795493171
 30
0.0
 40
1.0
 50
89.999994991166815
 51
180.0
  0
ARC
  5
3735
  8
0
 10
239.45124957692681
 20
432.1714795493171
 30
0.0
 40
1.0
 50
0.0000039999795585
 51
90.000010000157346
  0
ARC
  5
3736
  8
0
 10
237.7012495769267
 20
423.52348454931769
 30
0.0
 40
7.6479949999999981
 50
64.852628000233466
 51
115.14737999988741
  0
ARC
  5
3737
  8
0
 10
231.20124957692681
 20
423.52348454931769
 30
0.0
 40
7.6479949999999981
 50
64.852628000233466
 51
115.14736999990539
  0
ARC
  5
3738
  8
0
 10
237.7012495769267
 20
432.3194745493164
 30
0.0
 40
7.6479949999999981
 50
244.85263000009451
 51
295.14736999990549
  0
ARC
  5
3739
  8
0
 10
231.20124957692681
 20
432.3194745493164
 30
0.0
 40
7.6479949999999981
 50
244.85263000009451
 51
295.14736999990549
  0
ARC
  5
373A
  8
0
 10
231.20124957692681
 20
400.81947454931651
 30
0.0
 40
7.647994500000002
 50
244.85263000009451
 51
295.14736999990549
  0
ARC
  5
373B
  8
0
 10
237.7012495769267
 20
400.81947454931651
 30
0.0
 40
7.647994500000002
 50
244.85263000009451
 51
295.14736999990549
  0
LINE
  5
373C
  8
0
 10
241.70124957692309
 20
386.27147954931928
 30
0.0
 11
1198.791619777541
 21
386.27147954931928
 31
0.0
  0
LINE
  5
373D
  8
0
 10
241.70124957692309
 20
437.07147954931861
 30
0.0
 11
1198.791619777541
 21
437.07147954931861
 31
0.0
  0
LINE
  5
373E
  8
0
 10
213.4512495769267
 20
386.32147954931861
 30
0.0
 11
213.4512495769267
 21
437.02147954931752
 31
0.0
  0
LINE
  5
373F
  8
0
 10
227.20124957692681
 20
386.32147954931861
 30
0.0
 11
213.4512495769267
 21
386.32147954931861
 31
0.0
  0
LINE
  5
3740
  8
0
 10
227.20124957692681
 20
437.02147954931752
 30
0.0
 11
213.4512495769267
 21
437.02147954931752
 31
0.0
  0
LINE
  5
3741
  8
0
 10
241.70124957692681
 20
380.81698230823622
 30
0.0
 11
241.70124957692681
 21
442.6714795493171
 31
0.0
  0
LINE
  5
3742
  8
0
 10
227.20124957692681
 20
380.81698359366959
 30
0.0
 11
227.20124957692681
 21
442.6714795493171
 31
0.0
  0
LINE
  5
3743
  8
0
 10
239.15345793706359
 20
449.6714795493171
 30
0.0
 11
239.15210701908291
 21
433.1714795493171
 31
0.0
  0
LINE
  5
3744
  8
0
 10
239.1488433853373
 20
393.30972807970278
 30
0.0
 11
239.1472355270125
 21
373.67148005877152
 31
0.0
  0
LINE
  5
3745
  8
0
 10
229.74904121678989
 20
449.6714795493171
 30
0.0
 11
229.75039213477061
 21
433.1714795493171
 31
0.0
  0
LINE
  5
3746
  8
0
 10
229.75365576851621
 20
393.30972807970278
 30
0.0
 11
229.75526362684101
 21
373.67148005877152
 31
0.0
  0
LINE
  5
3747
  8
0
 10
241.45124957692681
 20
408.6714795493171
 30
0.0
 11
227.4512495769267
 21
408.6714795493171
 31
0.0
  0
LINE
  5
3748
  8
0
 10
241.45124957692681
 20
398.6714795493171
 30
0.0
 11
227.4512495769267
 21
398.6714795493171
 31
0.0
  0
LINE
  5
3749
  8
0
 10
241.45124957692681
 20
414.67147954931721
 30
0.0
 11
227.4512495769267
 21
414.67147954931721
 31
0.0
  0
LINE
  5
374A
  8
0
 10
241.45124957692681
 20
424.6714795493171
 30
0.0
 11
227.4512495769267
 21
424.6714795493171
 31
0.0
  0
LINE
  5
374B
  8
0
 10
241.45124957692681
 20
398.6714795493171
 30
0.0
 11
241.45124957692681
 21
408.6714795493171
 31
0.0
  0
LINE
  5
374C
  8
0
 10
241.45124957692681
 20
424.6714795493171
 30
0.0
 11
241.45124957692681
 21
414.67147954931721
 31
0.0
  0
LINE
  5
374D
  8
0
 10
238.4512495769267
 20
414.67147954931721
 30
0.0
 11
238.4512495769267
 21
408.6714795493171
 31
0.0
  0
LINE
  5
374E
  8
0
 10
230.4512495769267
 20
414.67147954931721
 30
0.0
 11
230.4512495769267
 21
408.6714795493171
 31
0.0
  0
LINE
  5
374F
  8
0
 10
230.4512495769267
 20
438.6714795493171
 30
0.0
 11
230.4512495769267
 21
433.1714795493171
 31
0.0
  0
LINE
  5
3750
  8
0
 10
229.4512495769267
 20
433.1714795493171
 30
0.0
 11
239.45124957692681
 21
433.1714795493171
 31
0.0
  0
LINE
  5
3751
  8
0
 10
230.4512495769267
 20
438.6714795493171
 30
0.0
 11
238.4512495769267
 21
438.6714795493171
 31
0.0
  0
LINE
  5
3752
  8
0
 10
228.4512495769267
 20
432.1714795493171
 30
0.0
 11
228.4512495769267
 21
431.17147954931721
 31
0.0
  0
LINE
  5
3753
  8
0
 10
240.4512495769267
 20
432.1714795493171
 30
0.0
 11
240.4512495769267
 21
431.17147954931721
 31
0.0
  0
LINE
  5
3754
  8
0
 10
240.9512495769267
 20
431.17147954931721
 30
0.0
 11
227.9512495769267
 21
431.17147954931721
 31
0.0
  0
LINE
  5
3755
  8
0
 10
240.9512495769267
 20
431.17147954931721
 30
0.0
 11
240.9512495769267
 21
424.6714795493171
 31
0.0
  0
LINE
  5
3756
  8
0
 10
227.9512495769267
 20
431.17147954931721
 30
0.0
 11
227.9512495769267
 21
424.6714795493171
 31
0.0
  0
LINE
  5
3757
  8
0
 10
238.4512495769267
 20
438.6714795493171
 30
0.0
 11
238.4512495769267
 21
433.1714795493171
 31
0.0
  0
LINE
  5
3758
  8
0
  6
CENTER
 10
234.4512495769267
 20
440.32281454931581
 30
0.0
 11
234.4512495769267
 21
389.84375354931763
 31
0.0
  0
LINE
  5
3759
  8
0
 10
231.20124957692681
 20
393.1714795493171
 30
0.0
 11
237.7012495769267
 21
393.1714795493171
 31
0.0
  0
LINE
  5
375A
  8
0
 10
227.9512495769267
 20
393.89637354931619
 30
0.0
 11
227.9512495769267
 21
398.6714795493171
 31
0.0
  0
LINE
  5
375B
  8
0
 10
240.9512495769267
 20
393.89637354931619
 30
0.0
 11
240.9512495769267
 21
398.6714795493171
 31
0.0
  0
LINE
  5
375C
  8
0
 10
227.4512495769267
 20
398.6714795493171
 30
0.0
 11
227.4512495769267
 21
408.6714795493171
 31
0.0
  0
LINE
  5
375D
  8
0
 10
227.4512495769267
 20
424.6714795493171
 30
0.0
 11
227.4512495769267
 21
414.67147954931721
 31
0.0
  0
LINE
  5
375E
  8
AM_0_T3
 10
239.15345793706359
 20
449.6714795493171
 30
0.0
 11
229.74904121678989
 21
449.6714795493171
 31
0.0
  0
LINE
  5
375F
  8
AM_0_T3
 10
241.70124957692681
 20
442.6714795493171
 30
0.0
 11
239.15345793706359
 21
449.6714795493171
 31
0.0
  0
LINE
  5
3760
  8
AM_0_T3
 10
229.74904121678989
 20
449.6714795493171
 30
0.0
 11
227.20124957692681
 21
442.6714795493171
 31
0.0
  0
LINE
  5
3761
  8
AM_0_T3
 10
239.15345793706359
 20
373.67147954931892
 30
0.0
 11
229.74904121678989
 21
373.67147954931892
 31
0.0
  0
LINE
  5
3762
  8
AM_0_T3
 10
241.70124957692681
 20
380.67147954931892
 30
0.0
 11
239.15345793706359
 21
373.67147954931892
 31
0.0
  0
LINE
  5
3763
  8
AM_0_T3
 10
229.74904121678989
 20
373.67147954931892
 30
0.0
 11
227.20124957692681
 21
380.67147954931892
 31
0.0
  0
ARC
  5
3764
  8
0
 10
2236.451249815349
 20
48.000000000000462
 30
0.0
 40
7.0
 50
312.20616791853507
 51
351.78674173943148
  0
ARC
  5
3765
  8
0
 10
2236.451249815349
 20
48.000000000000462
 30
0.0
 40
7.0
 50
8.2132024012274858
 51
51.786795918471
  0
ARC
  5
3766
  8
0
 10
2236.451249815349
 20
48.000000000000462
 30
0.0
 40
7.0
 50
68.213122489380268
 51
111.7868775106197
  0
ARC
  5
3767
  8
0
 10
2236.451249815349
 20
48.000000000000462
 30
0.0
 40
7.0
 50
128.213204081529
 51
171.78679759877241
  0
ARC
  5
3768
  8
0
 10
2236.451249815349
 20
48.000000000000462
 30
0.0
 40
7.0
 50
188.21325826056841
 51
227.79382681199939
  0
ARC
  5
3769
  8
0
 10
2236.451249815349
 20
-47.999999999999538
 30
0.0
 40
7.0
 50
132.12875643080051
 51
171.78674173943159
  0
ARC
  5
376A
  8
0
 10
2236.451249815349
 20
-47.999999999999538
 30
0.0
 40
7.0
 50
188.21320240122751
 51
231.78679591847089
  0
ARC
  5
376B
  8
0
 10
2236.451249815349
 20
-47.999999999999538
 30
0.0
 40
7.0
 50
248.2131224893802
 51
291.78687751061972
  0
ARC
  5
376C
  8
0
 10
2236.451249815349
 20
-47.999999999999538
 30
0.0
 40
7.0
 50
308.21320408152889
 51
351.78679759877252
  0
ARC
  5
376D
  8
0
 10
2236.451249815349
 20
-47.999999999999538
 30
0.0
 40
7.0
 50
8.2132582605683861
 51
47.871248831380029
  0
LINE
  5
376E
  8
0
 10
2229.20124957693
 20
-25.399999999999181
 30
0.0
 11
1272.1108793763119
 21
-25.399999999999181
 31
0.0
  0
LINE
  5
376F
  8
0
 10
241.70124957692309
 20
-25.400000000000091
 30
0.0
 11
302.45124957692673
 21
-25.399999999999629
 31
0.0
  0
LINE
  5
3770
  8
0
 10
336.45124957692673
 20
-25.400000000000539
 30
0.0
 11
1198.791619777541
 21
-25.400000000000091
 31
0.0
  0
LINE
  5
3771
  8
0
 10
2257.4512495769268
 20
-25.349999999999451
 30
0.0
 11
2257.45124957693
 21
25.349999999999
 31
0.0
  0
LINE
  5
3772
  8
0
 10
2243.70124957693
 20
-25.349999999999909
 30
0.0
 11
2257.4512495769268
 21
-25.349999999999451
 31
0.0
  0
LINE
  5
3773
  8
0
 10
2243.7012495769259
 20
25.349999999999
 30
0.0
 11
2257.45124957693
 21
25.349999999999
 31
0.0
  0
LINE
  5
3774
  8
0
 10
2232.698473415348
 20
54.499996000000472
 30
0.0
 11
2240.2040276153489
 21
54.499996000000472
 31
0.0
  0
LINE
  5
3775
  8
0
 10
2240.2040268153501
 20
54.499999000000571
 30
0.0
 11
2243.9568040153499
 21
47.99999800000068
 31
0.0
  0
LINE
  5
3776
  8
0
 10
2243.9568046153472
 20
47.99999800000068
 30
0.0
 11
2240.2040275153481
 21
41.499997000000349
 31
0.0
  0
LINE
  5
3777
  8
0
 10
2240.2040276153489
 20
41.500000000000448
 30
0.0
 11
2232.698473415348
 21
41.500000000000448
 31
0.0
  0
LINE
  5
3778
  8
0
 10
2228.9456950153508
 20
47.99999800000068
 30
0.0
 11
2232.698472115349
 21
41.499997000000349
 31
0.0
  0
LINE
  5
3779
  8
0
 10
2232.698472815347
 20
54.499999000000571
 30
0.0
 11
2228.9456956153481
 21
47.99999800000068
 31
0.0
  0
LINE
  5
377A
  8
0
 10
2240.2040262153491
 20
-54.499995999999548
 30
0.0
 11
2232.6984720153482
 21
-54.499995999999548
 31
0.0
  0
LINE
  5
377B
  8
0
 10
2232.698472815347
 20
-54.499998999999661
 30
0.0
 11
2228.9456956153481
 21
-47.999997999999323
 31
0.0
  0
LINE
  5
377C
  8
0
 10
2228.9456950153508
 20
-47.999997999999323
 30
0.0
 11
2232.698472115349
 21
-41.499996999999439
 31
0.0
  0
LINE
  5
377D
  8
0
 10
2243.9568046153472
 20
-47.999997999999323
 30
0.0
 11
2240.2040275153481
 21
-41.499996999999439
 31
0.0
  0
LINE
  5
377E
  8
0
 10
2240.2040268153501
 20
-54.499998999999661
 30
0.0
 11
2243.9568040153499
 21
-47.999997999999323
 31
0.0
  0
LINE
  5
377F
  8
0
 10
2232.6984720153482
 20
-41.499999999999552
 30
0.0
 11
2240.2040262153491
 21
-41.499999999999552
 31
0.0
  0
LINE
  5
3780
  8
0
  6
CENTER
 10
2226.451249815349
 20
-47.999999999999538
 30
0.0
 11
2246.4512498153481
 21
-47.999999999999538
 31
0.0
  0
LINE
  5
3781
  8
0
  6
CENTER
 10
2236.4512500537671
 20
-57.999999999999538
 30
0.0
 11
2236.4512500537671
 21
-37.999999999999538
 31
0.0
  0
LINE
  5
3782
  8
0
  6
CENTER
 10
2226.451249815349
 20
48.000000000000462
 30
0.0
 11
2246.4512498153481
 21
48.000000000000462
 31
0.0
  0
LINE
  5
3783
  8
0
  6
CENTER
 10
2236.45124957693
 20
38.000000000000448
 30
0.0
 11
2236.45124957693
 21
58.000000000000462
 31
0.0
  0
LINE
  5
3784
  8
0
 10
2229.20124957693
 20
-30.854497241082289
 30
0.0
 11
2229.20124957693
 21
30.85449724108366
 31
0.0
  0
LINE
  5
3785
  8
0
 10
2243.70124957693
 20
-30.85449595564841
 30
0.0
 11
2243.70124957693
 21
30.85449595564933
 31
0.0
  0
LINE
  5
3786
  8
0
 10
2231.748647004642
 20
42.814874465865607
 30
0.0
 11
2231.7556573191941
 21
-42.808525150781861
 31
0.0
  0
LINE
  5
3787
  8
0
 10
2241.1538521491821
 20
42.814874033369961
 30
0.0
 11
2241.146841834699
 21
-42.808524719522659
 31
0.0
  0
LINE
  5
3788
  8
0
 10
2231.7490509275299
 20
37.88139384975193
 30
0.0
 11
2229.20124957693
 21
30.85449724108366
 31
0.0
  0
LINE
  5
3789
  8
0
 10
2241.153448220673
 20
37.881393625533292
 30
0.0
 11
2243.70124957693
 21
30.85449595564933
 31
0.0
  0
LINE
  5
378A
  8
0
 10
2231.7492289418178
 20
35.707142142714929
 30
0.0
 11
2241.1532702120421
 21
35.707142142714929
 31
0.0
  0
LINE
  5
378B
  8
0
 10
2231.7490509275299
 20
-37.881393849751021
 30
0.0
 11
2229.20124957693
 21
-30.854497241082289
 31
0.0
  0
LINE
  5
378C
  8
0
 10
2241.153448220673
 20
-37.881393625532382
 30
0.0
 11
2243.70124957693
 21
-30.85449595564841
 31
0.0
  0
LINE
  5
378D
  8
0
 10
2231.7492289418178
 20
-35.707142142713558
 30
0.0
 11
2241.1532702120421
 21
-35.707142142713558
 31
0.0
  0
LINE
  5
39DE
  8
0
 10
256.95124957692673
 20
-89.999999999999545
 30
0.0
 11
256.95124957692673
 21
-75.999999999999545
 31
0.0
  0
LINE
  5
39DF
  8
0
  6
CENTER
 10
274.45124957692673
 20
-99.000000000000455
 30
0.0
 11
274.45124957692673
 21
-66.000000000000455
 31
0.0
  0
LINE
  5
39E0
  8
0
  6
CENTER
 10
364.45124957692678
 20
-99.000000000000455
 30
0.0
 11
364.45124957692678
 21
-66.000000000000455
 31
0.0
  0
LINE
  5
39E1
  8
0
 10
381.95124957692673
 20
-76.000000000000455
 30
0.0
 11
381.95124957692673
 21
-90.000000000000455
 31
0.0
  0
LINE
  5
39E2
  8
0
 10
381.95124957692673
 20
-90.000000000000455
 30
0.0
 11
256.95124957692673
 21
-89.999999999999545
 31
0.0
  0
LINE
  5
39E3
  8
0
 10
256.95124957692673
 20
-75.999999999999545
 30
0.0
 11
381.95124957692673
 21
-76.000000000000455
 31
0.0
  0
LINE
  5
39E4
  8
0
 10
336.45124957692673
 20
-75.999999999999545
 30
0.0
 11
336.45124957692673
 21
-25.400000000000539
 31
0.0
  0
LINE
  5
39E5
  8
0
 10
302.45124957692673
 20
-75.999999999999545
 30
0.0
 11
302.45124957692673
 21
-25.399999999999629
 31
0.0
  0
LINE
  5
39E9
  8
0
  6
CENTER
 10
2133.4200266566691
 20
429.70270246957489
 30
0.0
 11
2105.842862190395
 21
457.27986693585029
 31
0.0
  0
LINE
  5
39EB
  8
0
  6
CENTER
 10
2133.4200266566691
 20
393.64025662906118
 30
0.0
 11
2105.842862190395
 21
366.06309216278572
 31
0.0
  0
LINE
  5
39EC
  8
0
  6
CENTER
 10
2169.4824724971841
 20
429.70270246957489
 30
0.0
 11
2197.0596369634582
 21
457.27986693585029
 31
0.0
  0
LINE
  5
39EF
  8
0
  6
CENTER
 10
2169.4824724971841
 20
393.64025662906118
 30
0.0
 11
2197.0596369634582
 21
366.06309216278572
 31
0.0
  0
ARC
  5
39F1
  8
AM_0_T3
 10
319.45124957692309
 20
-44.272201779340321
 30
0.0
 40
25.400000000004368
 50
47.987606487091533
 51
132.0123935129084
  0
ARC
  5
39F2
  8
0
 10
319.45124957692673
 20
411.67147954931801
 30
0.0
 40
62.5
 50
23.978888137745649
 51
156.02111186225429
  0
ARC
  5
39F3
  8
0
 10
319.45124957692673
 20
411.67147954931801
 30
0.0
 40
62.5
 50
203.9788881377456
 51
336.02111186225432
  0
ARC
  5
39F4
  8
0
  6
CENTER
 10
319.45124957692673
 20
411.67147954931801
 30
0.0
 40
45.0
 50
34.363721430661343
 51
145.6362785693386
  0
ARC
  5
39F5
  8
0
  6
CENTER
 10
319.45124957692673
 20
411.67147954931801
 30
0.0
 40
45.0
 50
214.36372143066129
 51
325.63627856933857
  0
ARC
  5
39F6
  8
0
 10
351.27105473032128
 20
443.49128470271262
 30
0.0
 40
9.5
 50
317.4861068608048
 51
222.51389313919501
  0
LINE
  5
39F7
  8
0
  6
CENTER
 10
337.48247249718401
 20
429.70270246957489
 30
0.0
 11
365.05963696345862
 21
457.27986693585029
 31
0.0
  0
ARC
  5
39F8
  8
0
 10
351.27105473032128
 20
379.85167439592351
 30
0.0
 40
9.5
 50
137.48610686080491
 51
42.51389313919509
  0
LINE
  5
39F9
  8
0
  6
CENTER
 10
337.48247249718401
 20
393.64025662906118
 30
0.0
 11
365.05963696345862
 21
366.06309216278572
 31
0.0
  0
LINE
  5
39FA
  8
0
  6
CENTER
 10
301.42002665666951
 20
429.70270246957489
 30
0.0
 11
273.8428621903949
 21
457.27986693585029
 31
0.0
  0
ARC
  5
39FB
  8
0
 10
287.63144442353217
 20
443.49128470271262
 30
0.0
 40
9.5
 50
317.4861068608048
 51
222.51389313919501
  0
ARC
  5
39FC
  8
0
 10
287.63144442353217
 20
379.85167439592351
 30
0.0
 40
9.5
 50
137.48610686080491
 51
42.51389313919509
  0
LINE
  5
39FD
  8
0
  6
CENTER
 10
301.42002665666951
 20
393.64025662906118
 30
0.0
 11
273.8428621903949
 21
366.06309216278572
 31
0.0
  0
LINE
  5
39FE
  8
0
 10
2229.20124957693
 20
25.400000000000091
 30
0.0
 11
2168.4512495769259
 21
25.399999999999629
 31
0.0
  0
LINE
  5
39FF
  8
0
 10
2134.4512495769268
 20
25.400000000000539
 30
0.0
 11
1272.1108793763119
 21
25.400000000000091
 31
0.0
  0
LINE
  5
3A00
  8
0
 10
2213.9512495769259
 20
89.999999999999545
 30
0.0
 11
2213.9512495769259
 21
75.999999999999545
 31
0.0
  0
LINE
  5
3A01
  8
0
  6
CENTER
 10
2196.4512495769259
 20
99.000000000000455
 30
0.0
 11
2196.4512495769259
 21
66.000000000000455
 31
0.0
  0
LINE
  5
3A02
  8
0
  6
CENTER
 10
2106.4512495769259
 20
99.000000000000455
 30
0.0
 11
2106.4512495769259
 21
66.000000000000455
 31
0.0
  0
LINE
  5
3A03
  8
0
 10
2088.9512495769259
 20
76.000000000000455
 30
0.0
 11
2088.9512495769259
 21
90.000000000000455
 31
0.0
  0
LINE
  5
3A04
  8
0
 10
2088.9512495769259
 20
90.000000000000455
 30
0.0
 11
2213.9512495769259
 21
89.999999999999545
 31
0.0
  0
LINE
  5
3A05
  8
0
 10
2213.9512495769259
 20
75.999999999999545
 30
0.0
 11
2088.9512495769259
 21
76.000000000000455
 31
0.0
  0
LINE
  5
3A06
  8
0
 10
2134.4512495769268
 20
75.999999999999545
 30
0.0
 11
2134.4512495769268
 21
25.400000000000539
 31
0.0
  0
LINE
  5
3A07
  8
0
 10
2168.4512495769259
 20
75.999999999999545
 30
0.0
 11
2168.4512495769259
 21
25.399999999999629
 31
0.0
  0
ARC
  5
3A08
  8
AM_0_T3
 10
2151.45124957693
 20
44.272201779340321
 30
0.0
 40
25.400000000004368
 50
227.98760648699661
 51
312.0123935129858
  0
LINE
  5
3A62
  8
0
  6
CENTER
 10
2151.45124957693
 20
327.67151673118718
 30
0.0
 11
2151.45124957693
 21
495.67144236744969
 31
0.0
  0
LINE
  5
3A65
  8
0
  6
CENTER
 10
2151.4512495769259
 20
99.000000000000455
 30
0.0
 11
2151.4512495769259
 21
0.0
 31
0.0
  0
LINE
  5
3A68
  8
0
  6
CENTER
 10
319.45124957692673
 20
-98.0
 30
0.0
 11
319.45124957692673
 21
0.0
 31
0.0
  0
LINE
  5
3A6B
  8
0
  6
CENTER
 10
319.45124957692673
 20
478.17147954931801
 30
0.0
 11
319.45124957692673
 21
345.17147954931801
 31
0.0
  0
TEXT
  5
4644
  8
0
 10
853.30839243407331
 20
534.28139750375885
 30
0.0
 40
50.0
  1
2SX2000L-25AX15A
 72
     4
 11
1235.45124957693
 21
559.28139750375885
 31
0.0
  0
LINE
  5
4878
  8
0
  6
CENTER
 10
205.45124957693039
 20
0.0
 30
0.0
 11
2265.45124957693
 21
0.0
 31
0.0
  0
LINE
  5
4879
  8
0
 10
194.45124957693039
 20
5.8499999999999091
 30
0.0
 11
194.45124957693039
 21
-28.150000000000091
 31
0.0
  0
LINE
  5
487A
  8
0
 10
197.30124957692891
 20
5.0707734875381902
 30
0.0
 11
197.30124957692891
 21
-27.37077348753882
 31
0.0
  0
LINE
  5
487B
  8
0
  6
CENTER
 10
191.55668676165439
 20
-11.150000000000089
 30
0.0
 11
214.10914253716319
 21
-11.150000000000089
 31
0.0
  0
LINE
  5
487C
  8
0
 10
196.7410835463597
 20
5.8499999999999091
 30
0.0
 11
194.45124957693039
 21
5.8499999999999091
 31
0.0
  0
LINE
  5
487D
  8
0
 10
200.94008159408619
 20
-0.3000000000001819
 30
0.0
 11
213.45124957693039
 21
-0.3000000000001819
 31
0.0
  0
LINE
  5
487E
  8
0
 10
199.53974443071999
 20
-21.999958681098171
 30
0.0
 11
199.53974443071999
 21
-0.3000413189020037
 31
0.0
  0
LINE
  5
487F
  8
0
 10
197.4928376429888
 20
5.32361611466058
 30
0.0
 11
199.0606963525133
 21
1.0159597133488201
 31
0.0
  0
ARC
  5
4880
  8
0
 10
196.7410835463597
 20
5.050000000000181
 30
0.0
 40
0.8
 50
20.000000000029289
 51
90.0
1001
GENIUS_GENODEF_13
1002
{
1000
HIER
1070
     0
1002
}
1002
{
1000
MANEDIT
1070
     0
1002
}
1002
{
1000
NOSEL
1070
     0
1002
}
1002
{
1000
BEHIND
1070
     0
1002
}
1002
{
1000
OTHER
1070
     0
1002
}
1002
{
1000
REACTOR
1002
}
1001
GENIUS_GENOBJ-N-FIL_13
1002
{
1000
OWNER
1000
GEN
1002
}
  0
ARC
  5
4881
  8
0
 10
200.94008159408619
 20
1.6999999999998181
 30
0.0
 40
2.0
 50
200.00000000002919
 51
270.0
1001
GENIUS_GENODEF_13
1002
{
1000
HIER
1070
     0
1002
}
1002
{
1000
MANEDIT
1070
     0
1002
}
1002
{
1000
NOSEL
1070
     0
1002
}
1002
{
1000
BEHIND
1070
     0
1002
}
1002
{
1000
OTHER
1070
     0
1002
}
1002
{
1000
REACTOR
1002
}
1001
GENIUS_GENOBJ-N-FIL_13
1002
{
1000
OWNER
1000
GEN
1002
}
  0
LINE
  5
4882
  8
0
 10
196.7410835463597
 20
-28.150000000000091
 30
0.0
 11
194.45124957693039
 21
-28.150000000000091
 31
0.0
  0
LINE
  5
4883
  8
0
 10
200.94008159408619
 20
-22.0
 30
0.0
 11
213.45124957693039
 21
-22.000000000000451
 31
0.0
  0
LINE
  5
4884
  8
0
 10
197.4928376429888
 20
-27.623616114660759
 30
0.0
 11
199.0606963525133
 21
-23.315959713348999
 31
0.0
  0
ARC
  5
4885
  8
0
 10
196.7410835463597
 20
-27.35000000000036
 30
0.0
 40
0.8
 50
270.0
 51
339.99999999997073
1001
GENIUS_GENODEF_13
1002
{
1000
HIER
1070
     0
1002
}
1002
{
1000
MANEDIT
1070
     0
1002
}
1002
{
1000
NOSEL
1070
     0
1002
}
1002
{
1000
BEHIND
1070
     0
1002
}
1002
{
1000
OTHER
1070
     0
1002
}
1002
{
1000
REACTOR
1002
}
1001
GENIUS_GENOBJ-N-FIL_13
1002
{
1000
OWNER
1000
GEN
1002
}
  0
ARC
  5
4886
  8
0
 10
200.94008159408619
 20
-24.0
 30
0.0
 40
2.0
 50
90.0
 51
159.99999999997061
1001
GENIUS_GENODEF_13
1002
{
1000
HIER
1070
     0
1002
}
1002
{
1000
MANEDIT
1070
     0
1002
}
1002
{
1000
NOSEL
1070
     0
1002
}
1002
{
1000
BEHIND
1070
     0
1002
}
1002
{
1000
OTHER
1070
     0
1002
}
1002
{
1000
REACTOR
1002
}
1001
GENIUS_GENOBJ-N-FIL_13
1002
{
1000
OWNER
1000
GEN
1002
}
  0
LINE
  5
4887
  8
0
 10
2276.45124957693
 20
394.67147954931852
 30
0.0
 11
2276.45124957693
 21
428.67147954931852
 31
0.0
  0
LINE
  5
4888
  8
0
 10
2273.6012495769319
 20
395.45070606178018
 30
0.0
 11
2273.6012495769319
 21
427.8922530368568
 31
0.0
  0
LINE
  5
4889
  8
0
 10
2274.1614156075011
 20
394.67147954931852
 30
0.0
 11
2276.45124957693
 21
394.67147954931852
 31
0.0
  0
LINE
  5
488A
  8
0
 10
2269.9624175597742
 20
400.82147954931861
 30
0.0
 11
2257.45124957693
 21
400.82147954931912
 31
0.0
  0
LINE
  5
488B
  8
0
 10
2271.3627547231399
 20
422.521438230417
 30
0.0
 11
2271.3627547231399
 21
400.82152086821998
 31
0.0
  0
LINE
  5
488C
  8
0
 10
2273.409661510871
 20
395.1978634346583
 30
0.0
 11
2271.8418028013471
 21
399.50551983597001
 31
0.0
  0
ARC
  5
488D
  8
0
 10
2274.1614156075011
 20
395.47147954931859
 30
0.0
 40
0.8
 50
200.00000000000469
 51
270.0
1001
GENIUS_GENODEF_13
1002
{
1000
HIER
1070
     0
1002
}
1002
{
1000
MANEDIT
1070
     0
1002
}
1002
{
1000
NOSEL
1070
     0
1002
}
1002
{
1000
BEHIND
1070
     0
1002
}
1002
{
1000
OTHER
1070
     0
1002
}
1002
{
1000
REACTOR
1002
}
1001
GENIUS_GENOBJ-N-FIL_13
1002
{
1000
OWNER
1000
GEN
1002
}
  0
ARC
  5
488E
  8
0
 10
2269.9624175597742
 20
398.82147954931861
 30
0.0
 40
2.0
 50
20.00000000000481
 51
90.0
1001
GENIUS_GENODEF_13
1002
{
1000
HIER
1070
     0
1002
}
1002
{
1000
MANEDIT
1070
     0
1002
}
1002
{
1000
NOSEL
1070
     0
1002
}
1002
{
1000
BEHIND
1070
     0
1002
}
1002
{
1000
OTHER
1070
     0
1002
}
1002
{
1000
REACTOR
1002
}
1001
GENIUS_GENOBJ-N-FIL_13
1002
{
1000
OWNER
1000
GEN
1002
}
  0
LINE
  5
488F
  8
0
 10
2274.1614156075011
 20
428.67147954931852
 30
0.0
 11
2276.45124957693
 21
428.67147954931852
 31
0.0
  0
LINE
  5
4890
  8
0
 10
2269.9624175597742
 20
422.52147954931883
 30
0.0
 11
2257.45124957693
 21
422.52147954931883
 31
0.0
  0
LINE
  5
4891
  8
0
 10
2273.409661510871
 20
428.14509566397908
 30
0.0
 11
2271.8418028013471
 21
423.83743926266698
 31
0.0
  0
ARC
  5
4892
  8
0
 10
2274.1614156075011
 20
427.87147954931828
 30
0.0
 40
0.8
 50
90.0
 51
159.99999999999511
1001
GENIUS_GENODEF_13
1002
{
1000
HIER
1070
     0
1002
}
1002
{
1000
MANEDIT
1070
     0
1002
}
1002
{
1000
NOSEL
1070
     0
1002
}
1002
{
1000
BEHIND
1070
     0
1002
}
1002
{
1000
OTHER
1070
     0
1002
}
1002
{
1000
REACTOR
1002
}
1001
GENIUS_GENOBJ-N-FIL_13
1002
{
1000
OWNER
1000
GEN
1002
}
  0
ARC
  5
4893
  8
0
 10
2269.9624175597742
 20
424.52147954931883
 30
0.0
 40
2.0
 50
270.0
 51
339.99999999999511
1001
GENIUS_GENODEF_13
1002
{
1000
HIER
1070
     0
1002
}
1002
{
1000
MANEDIT
1070
     0
1002
}
1002
{
1000
NOSEL
1070
     0
1002
}
1002
{
1000
BEHIND
1070
     0
1002
}
1002
{
1000
OTHER
1070
     0
1002
}
1002
{
1000
REACTOR
1002
}
1001
GENIUS_GENOBJ-N-FIL_13
1002
{
1000
OWNER
1000
GEN
1002
}
  0
LINE
  5
4894
  8
0
 10
194.45124957693039
 20
394.67147954931852
 30
0.0
 11
194.45124957693039
 21
428.67147954931852
 31
0.0
  0
LINE
  5
4895
  8
0
 10
197.30124957692891
 20
395.45070606178018
 30
0.0
 11
197.30124957692891
 21
427.8922530368568
 31
0.0
  0
LINE
  5
4896
  8
0
  6
CENTER
 10
191.55668676165439
 20
411.67147954931852
 30
0.0
 11
2279.345812392206
 21
411.67147954931852
 31
0.0
  0
LINE
  5
4897
  8
0
 10
196.7410835463597
 20
394.67147954931852
 30
0.0
 11
194.45124957693039
 21
394.67147954931852
 31
0.0
  0
LINE
  5
4898
  8
0
 10
200.94008159408619
 20
400.82147954931861
 30
0.0
 11
213.45124957693039
 21
400.82147954931912
 31
0.0
  0
LINE
  5
4899
  8
0
 10
199.53974443071999
 20
422.521438230417
 30
0.0
 11
199.53974443071999
 21
400.82152086821998
 31
0.0
  0
LINE
  5
489A
  8
0
 10
197.4928376429888
 20
395.1978634346583
 30
0.0
 11
199.0606963525133
 21
399.50551983597001
 31
0.0
  0
ARC
  5
489B
  8
0
 10
196.7410835463597
 20
395.47147954931859
 30
0.0
 40
0.8
 50
270.0
 51
339.99999999997073
1001
GENIUS_GENODEF_13
1002
{
1000
HIER
1070
     0
1002
}
1002
{
1000
MANEDIT
1070
     0
1002
}
1002
{
1000
NOSEL
1070
     0
1002
}
1002
{
1000
BEHIND
1070
     0
1002
}
1002
{
1000
OTHER
1070
     0
1002
}
1002
{
1000
REACTOR
1002
}
1001
GENIUS_GENOBJ-N-FIL_13
1002
{
1000
OWNER
1000
GEN
1002
}
  0
ARC
  5
489C
  8
0
 10
200.94008159408619
 20
398.82147954931861
 30
0.0
 40
2.0
 50
90.0
 51
159.99999999997061
1001
GENIUS_GENODEF_13
1002
{
1000
HIER
1070
     0
1002
}
1002
{
1000
MANEDIT
1070
     0
1002
}
1002
{
1000
NOSEL
1070
     0
1002
}
1002
{
1000
BEHIND
1070
     0
1002
}
1002
{
1000
OTHER
1070
     0
1002
}
1002
{
1000
REACTOR
1002
}
1001
GENIUS_GENOBJ-N-FIL_13
1002
{
1000
OWNER
1000
GEN
1002
}
  0
LINE
  5
489D
  8
0
 10
196.7410835463597
 20
428.67147954931852
 30
0.0
 11
194.45124957693039
 21
428.67147954931852
 31
0.0
  0
LINE
  5
489E
  8
0
 10
200.94008159408619
 20
422.52147954931883
 30
0.0
 11
213.45124957693039
 21
422.52147954931883
 31
0.0
  0
LINE
  5
489F
  8
0
 10
197.4928376429888
 20
428.14509566397908
 30
0.0
 11
199.0606963525133
 21
423.83743926266698
 31
0.0
  0
ARC
  5
48A0
  8
0
 10
196.7410835463597
 20
427.87147954931828
 30
0.0
 40
0.8
 50
20.000000000029289
 51
90.0
1001
GENIUS_GENODEF_13
1002
{
1000
HIER
1070
     0
1002
}
1002
{
1000
MANEDIT
1070
     0
1002
}
1002
{
1000
NOSEL
1070
     0
1002
}
1002
{
1000
BEHIND
1070
     0
1002
}
1002
{
1000
OTHER
1070
     0
1002
}
1002
{
1000
REACTOR
1002
}
1001
GENIUS_GENOBJ-N-FIL_13
1002
{
1000
OWNER
1000
GEN
1002
}
  0
ARC
  5
48A1
  8
0
 10
200.94008159408619
 20
424.52147954931883
 30
0.0
 40
2.0
 50
200.00000000002919
 51
270.0
1001
GENIUS_GENODEF_13
1002
{
1000
HIER
1070
     0
1002
}
1002
{
1000
MANEDIT
1070
     0
1002
}
1002
{
1000
NOSEL
1070
     0
1002
}
1002
{
1000
BEHIND
1070
     0
1002
}
1002
{
1000
OTHER
1070
     0
1002
}
1002
{
1000
REACTOR
1002
}
1001
GENIUS_GENOBJ-N-FIL_13
1002
{
1000
OWNER
1000
GEN
1002
}
  0
LINE
  5
48A2
  8
0
 10
2276.45124957693
 20
-5.8499999999994543
 30
0.0
 11
2276.45124957693
 21
28.150000000000539
 31
0.0
  0
LINE
  5
48A3
  8
0
 10
2273.6012495769319
 20
-5.0707734875377346
 30
0.0
 11
2273.6012495769319
 21
27.37077348753882
 31
0.0
  0
LINE
  5
48A4
  8
0
  6
CENTER
 10
2279.345812392206
 20
11.15000000000054
 30
0.0
 11
2256.7933566166971
 21
11.15000000000054
 31
0.0
  0
LINE
  5
48A5
  8
0
 10
2274.1614156075011
 20
-5.8499999999994543
 30
0.0
 11
2276.45124957693
 21
-5.8499999999994543
 31
0.0
  0
LINE
  5
48A6
  8
0
 10
2271.3627547231399
 20
21.999958681099081
 30
0.0
 11
2271.3627547231399
 21
0.3000413189020037
 31
0.0
  0
LINE
  5
48A7
  8
0
 10
2273.409661510871
 20
-5.3236161146596714
 30
0.0
 11
2271.8418028013471
 21
-1.015959713347911
 31
0.0
  0
ARC
  5
48A8
  8
0
 10
2274.1614156075011
 20
-5.0499999999992724
 30
0.0
 40
0.8
 50
200.00000000000469
 51
270.0
1001
GENIUS_GENODEF_13
1002
{
1000
HIER
1070
     0
1002
}
1002
{
1000
MANEDIT
1070
     0
1002
}
1002
{
1000
NOSEL
1070
     0
1002
}
1002
{
1000
BEHIND
1070
     0
1002
}
1002
{
1000
OTHER
1070
     0
1002
}
1002
{
1000
REACTOR
1002
}
1001
GENIUS_GENOBJ-N-FIL_13
1002
{
1000
OWNER
1000
GEN
1002
}
  0
ARC
  5
48A9
  8
0
 10
2269.9624175597742
 20
-1.6999999999993629
 30
0.0
 40
2.0
 50
20.00000000000481
 51
90.0
1001
GENIUS_GENODEF_13
1002
{
1000
HIER
1070
     0
1002
}
1002
{
1000
MANEDIT
1070
     0
1002
}
1002
{
1000
NOSEL
1070
     0
1002
}
1002
{
1000
BEHIND
1070
     0
1002
}
1002
{
1000
OTHER
1070
     0
1002
}
1002
{
1000
REACTOR
1002
}
1001
GENIUS_GENOBJ-N-FIL_13
1002
{
1000
OWNER
1000
GEN
1002
}
  0
LINE
  5
48AA
  8
0
 10
2274.1614156075011
 20
28.150000000000539
 30
0.0
 11
2276.45124957693
 21
28.150000000000539
 31
0.0
  0
LINE
  5
48AB
  8
0
 10
2273.409661510871
 20
27.623616114661221
 30
0.0
 11
2271.8418028013471
 21
23.315959713348999
 31
0.0
  0
ARC
  5
48AC
  8
0
 10
2274.1614156075011
 20
27.35000000000036
 30
0.0
 40
0.8
 50
90.0
 51
159.99999999999511
1001
GENIUS_GENODEF_13
1002
{
1000
HIER
1070
     0
1002
}
1002
{
1000
MANEDIT
1070
     0
1002
}
1002
{
1000
NOSEL
1070
     0
1002
}
1002
{
1000
BEHIND
1070
     0
1002
}
1002
{
1000
OTHER
1070
     0
1002
}
1002
{
1000
REACTOR
1002
}
1001
GENIUS_GENOBJ-N-FIL_13
1002
{
1000
OWNER
1000
GEN
1002
}
  0
ARC
  5
48AD
  8
0
 10
2269.9624175597742
 20
24.000000000000899
 30
0.0
 40
2.0
 50
270.0
 51
339.99999999999511
1001
GENIUS_GENODEF_13
1002
{
1000
HIER
1070
     0
1002
}
1002
{
1000
MANEDIT
1070
     0
1002
}
1002
{
1000
NOSEL
1070
     0
1002
}
1002
{
1000
BEHIND
1070
     0
1002
}
1002
{
1000
OTHER
1070
     0
1002
}
1002
{
1000
REACTOR
1002
}
1001
GENIUS_GENOBJ-N-FIL_13
1002
{
1000
OWNER
1000
GEN
1002
}
  0
LINE
  5
48AE
  8
0
 10
2269.9624175597742
 20
0.3000000000006366
 30
0.0
 11
2257.45124957693
 21
0.3000000000010914
 31
0.0
  0
LINE
  5
48AF
  8
0
 10
2269.9624175597742
 20
22.000000000000909
 30
0.0
 11
2257.45124957693
 21
22.000000000000909
 31
0.0
  0
CIRCLE
  5
62BA
  8
0
 10
2151.4512495769259
 20
411.67147954931801
 30
0.0
 40
62.5
  0
CIRCLE
  5
62BB
  8
0
  6
CENTER
 10
2151.4512495769259
 20
411.67147954931801
 30
0.0
 40
45.0
  0
CIRCLE
  5
62BC
  8
0
 10
2119.6314444235318
 20
443.49128470271262
 30
0.0
 40
9.5
  0
CIRCLE
  5
62BD
  8
0
 10
2119.6314444235318
 20
379.85167439592351
 30
0.0
 40
9.5
  0
CIRCLE
  5
62BE
  8
0
 10
2183.2710547303209
 20
443.49128470271262
 30
0.0
 40
9.5
  0
CIRCLE
  5
62BF
  8
0
 10
2183.2710547303209
 20
379.85167439592351
 30
0.0
 40
9.5
  0
CIRCLE
  5
62C0
  8
AM_0_T3
 10
2151.4512495769259
 20
411.67147954931801
 30
0.0
 40
17.0
  0
LINE
  5
6833
  8
0
 10
3.0
 20
-55.0
 30
0.0
 11
3.0
 21
-28.844409999999701
 31
0.0
  0
LINE
  5
6834
  8
0
 10
13.0
 20
-55.0
 30
0.0
 11
13.0
 21
-35.707142000000204
 31
0.0
  0
LINE
  5
6835
  8
0
 10
-3.0
 20
-55.0
 30
0.0
 11
-3.0
 21
-28.844409999999701
 31
0.0
  0
LINE
  5
6836
  8
0
 10
-13.0
 20
-55.0
 30
0.0
 11
-13.0
 21
-35.707142000000204
 31
0.0
  0
LINE
  5
6837
  8
0
 10
13.0
 20
55.0
 30
0.0
 11
13.0
 21
35.707142000000204
 31
0.0
  0
LINE
  5
6838
  8
0
 10
3.0
 20
55.0
 30
0.0
 11
3.0
 21
28.844409999999701
 31
0.0
  0
LINE
  5
6839
  8
0
 10
-3.0
 20
55.0
 30
0.0
 11
-3.0
 21
28.844409999999701
 31
0.0
  0
LINE
  5
683A
  8
0
 10
-13.0
 20
55.0
 30
0.0
 11
-13.0
 21
35.707142000000204
 31
0.0
  0
LINE
  5
683B
  8
0
 10
13.0
 20
-55.0
 30
0.0
 11
3.0
 21
-55.0
 31
0.0
  0
LINE
  5
683C
  8
0
 10
-13.0
 20
-55.0
 30
0.0
 11
-3.0
 21
-55.0
 31
0.0
  0
LINE
  5
683D
  8
0
 10
13.0
 20
55.0
 30
0.0
 11
3.0
 21
55.0
 31
0.0
  0
LINE
  5
683E
  8
0
 10
-13.0
 20
55.0
 30
0.0
 11
-3.0
 21
55.0
 31
0.0
  0
LINE
  5
683F
  8
0
 10
-3.0
 20
52.0
 30
0.0
 11
3.0
 21
52.0
 31
0.0
  0
LINE
  5
6840
  8
0
 10
-3.0
 20
44.0
 30
0.0
 11
3.0
 21
44.0
 31
0.0
  0
LINE
  5
6841
  8
0
 10
-3.0
 20
-52.0
 30
0.0
 11
3.0
 21
-52.0
 31
0.0
  0
LINE
  5
6842
  8
0
 10
-3.0
 20
-44.0
 30
0.0
 11
3.0
 21
-44.0
 31
0.0
  0
LINE
  5
6843
  8
0
 10
-27.0
 20
44.0
 30
0.0
 11
-21.499999999999989
 21
44.0
 31
0.0
  0
LINE
  5
6844
  8
0
 10
-21.499999999999989
 20
43.0
 30
0.0
 11
-21.499999999999989
 21
53.0
 31
0.0
  0
LINE
  5
6845
  8
0
 10
-27.0
 20
44.0
 30
0.0
 11
-27.0
 21
52.0
 31
0.0
  0
LINE
  5
6846
  8
0
 10
-20.5
 20
42.0
 30
0.0
 11
-19.5
 21
42.0
 31
0.0
  0
LINE
  5
6847
  8
0
 10
-20.5
 20
54.0
 30
0.0
 11
-19.5
 21
54.0
 31
0.0
  0
LINE
  5
6848
  8
0
 10
-19.5
 20
54.5
 30
0.0
 11
-19.5
 21
41.5
 31
0.0
  0
LINE
  5
6849
  8
0
 10
-19.5
 20
54.5
 30
0.0
 11
-13.0
 21
54.5
 31
0.0
  0
LINE
  5
684A
  8
0
 10
-19.5
 20
41.5
 30
0.0
 11
-13.0
 21
41.5
 31
0.0
  0
LINE
  5
684B
  8
0
 10
-27.0
 20
52.0
 30
0.0
 11
-21.499999999999989
 21
52.0
 31
0.0
  0
LINE
  5
684C
  8
0
  6
CENTER
 10
-28.65133499999865
 20
48.0
 30
0.0
 11
22.389211999998221
 21
48.0
 31
0.0
  0
LINE
  5
684D
  8
0
 10
-27.0
 20
-44.0
 30
0.0
 11
-21.499999999999989
 21
-44.0
 31
0.0
  0
LINE
  5
684E
  8
0
 10
-21.499999999999989
 20
-43.0
 30
0.0
 11
-21.499999999999989
 21
-53.0
 31
0.0
  0
LINE
  5
684F
  8
0
 10
-27.0
 20
-44.0
 30
0.0
 11
-27.0
 21
-52.0
 31
0.0
  0
LINE
  5
6850
  8
0
 10
-20.5
 20
-42.0
 30
0.0
 11
-19.5
 21
-42.0
 31
0.0
  0
LINE
  5
6851
  8
0
 10
-20.5
 20
-54.0
 30
0.0
 11
-19.5
 21
-54.0
 31
0.0
  0
LINE
  5
6852
  8
0
 10
-19.5
 20
-54.5
 30
0.0
 11
-19.5
 21
-41.5
 31
0.0
  0
LINE
  5
6853
  8
0
 10
-19.5
 20
-54.5
 30
0.0
 11
-13.0
 21
-54.5
 31
0.0
  0
LINE
  5
6854
  8
0
 10
-19.5
 20
-41.5
 30
0.0
 11
-13.0
 21
-41.5
 31
0.0
  0
LINE
  5
6855
  8
0
 10
-27.0
 20
-52.0
 30
0.0
 11
-21.499999999999989
 21
-52.0
 31
0.0
  0
LINE
  5
6856
  8
0
  6
CENTER
 10
-28.65133499999865
 20
-48.0
 30
0.0
 11
21.827725999999529
 21
-48.0
 31
0.0
  0
LINE
  5
6857
  8
0
 10
18.5
 20
-44.75
 30
0.0
 11
18.5
 21
-51.25
 31
0.0
  0
LINE
  5
6858
  8
0
 10
17.77510600000096
 20
-41.5
 30
0.0
 11
13.0
 21
-41.5
 31
0.0
  0
LINE
  5
6859
  8
0
 10
17.77510600000096
 20
-54.5
 30
0.0
 11
13.0
 21
-54.5
 31
0.0
  0
LINE
  5
685A
  8
0
 10
18.5
 20
44.75
 30
0.0
 11
18.5
 21
51.25
 31
0.0
  0
LINE
  5
685B
  8
0
 10
17.77510600000096
 20
41.5
 30
0.0
 11
13.0
 21
41.5
 31
0.0
  0
LINE
  5
685C
  8
0
 10
17.77510600000096
 20
54.5
 30
0.0
 11
13.0
 21
54.5
 31
0.0
  0
ARC
  5
685D
  8
0
 10
0.0
 20
0.0
 30
0.0
 40
38.0
 50
94.528059999868844
 51
265.47193499986992
  0
ARC
  5
685E
  8
0
 10
0.0
 20
0.0
 30
0.0
 40
29.0
 50
95.937769999707484
 51
264.06222500006641
  0
ARC
  5
685F
  8
0
 10
0.0
 20
0.0
 30
0.0
 40
31.0
 50
95.937769999707484
 51
264.06222500006641
  0
ARC
  5
6860
  8
0
 10
0.0
 20
0.0
 30
0.0
 40
38.0
 50
274.5280629999433
 51
85.471936986258257
  0
ARC
  5
6861
  8
0
 10
0.0
 20
0.0
 30
0.0
 40
29.0
 50
275.93777299984362
 51
84.062220000260481
  0
ARC
  5
6862
  8
0
 10
0.0
 20
0.0
 30
0.0
 40
31.0
 50
275.93777299984362
 51
84.446555804085847
  0
ARC
  5
6863
  8
0
 10
-20.5
 20
43.0
 30
0.0
 40
1.0
 50
179.99998999999889
 51
269.99999600002042
  0
ARC
  5
6864
  8
0
 10
-20.5
 20
53.0
 30
0.0
 40
1.0
 50
90.0
 51
180.00000500893739
  0
ARC
  5
6865
  8
0
 10
-11.85200500000064
 20
51.25
 30
0.0
 40
7.6479949999999981
 50
154.85263000008339
 51
205.1473750000074
  0
ARC
  5
6866
  8
0
 10
-11.85200500000064
 20
44.75
 30
0.0
 40
7.6479949999999981
 50
154.85263000008339
 51
205.14736800011369
  0
ARC
  5
6867
  8
0
 10
-20.647994999999352
 20
51.25
 30
0.0
 40
7.6479949999999981
 50
334.85263000008342
 51
25.147369999916581
  0
ARC
  5
6868
  8
0
 10
-20.647994999999352
 20
44.75
 30
0.0
 40
7.6479949999999981
 50
334.85263000008342
 51
25.147369999916581
  0
ARC
  5
6869
  8
0
 10
-20.5
 20
-43.0
 30
0.0
 40
1.0
 50
90.0
 51
180.00000500893739
  0
ARC
  5
686A
  8
0
 10
-20.5
 20
-53.0
 30
0.0
 40
1.0
 50
179.99998999999889
 51
269.99999600002042
  0
ARC
  5
686B
  8
0
 10
-11.85200500000064
 20
-51.25
 30
0.0
 40
7.6479949999999981
 50
154.85261999999599
 51
205.14737199986081
  0
ARC
  5
686C
  8
0
 10
-11.85200500000064
 20
-44.75
 30
0.0
 40
7.6479949999999981
 50
154.85263000008339
 51
205.14737199986081
  0
ARC
  5
686D
  8
0
 10
-20.647994999999352
 20
-51.25
 30
0.0
 40
7.6479949999999981
 50
334.85263000008342
 51
25.147369999916581
  0
ARC
  5
686E
  8
0
 10
-20.647994999999352
 20
-44.75
 30
0.0
 40
7.6479949999999981
 50
334.85263000008342
 51
25.147369999916581
  0
ARC
  5
686F
  8
0
 10
10.85200500000064
 20
-44.75
 30
0.0
 40
7.647994500000002
 50
334.85263000008342
 51
25.147369999916581
  0
ARC
  5
6870
  8
0
 10
10.85200500000064
 20
-51.25
 30
0.0
 40
7.647994500000002
 50
334.85263000008342
 51
25.147369999916581
  0
ARC
  5
6871
  8
0
 10
10.85200500000064
 20
44.75
 30
0.0
 40
7.647994500000002
 50
334.85263000008342
 51
25.147369999916581
  0
ARC
  5
6872
  8
0
 10
10.85200500000064
 20
51.25
 30
0.0
 40
7.647994500000002
 50
334.85263000008342
 51
25.147369999916581
  0
LINE
  5
6873
  8
0
  6
CENTER
 10
-55.759478892276093
 20
0.0
 30
0.0
 11
55.759478892276093
 21
0.0
 31
0.0
  0
LINE
  5
692E
  8
0
 10
-62.5
 20
-89.999999999999545
 30
0.0
 11
-62.5
 21
-75.999999999999545
 31
0.0
  0
LINE
  5
692F
  8
0
  6
CENTER
 10
-45.0
 20
-99.000000000000455
 30
0.0
 11
-45.0
 21
-66.000000000000455
 31
0.0
  0
LINE
  5
6930
  8
0
  6
CENTER
 10
45.0
 20
-99.000000000000455
 30
0.0
 11
45.0
 21
-66.000000000000455
 31
0.0
  0
LINE
  5
6931
  8
0
 10
62.5
 20
-76.000000000000455
 30
0.0
 11
62.5
 21
-90.000000000000455
 31
0.0
  0
LINE
  5
6932
  8
0
 10
62.5
 20
-90.000000000000455
 30
0.0
 11
-62.5
 21
-89.999999999999545
 31
0.0
  0
LINE
  5
6933
  8
0
 10
-62.5
 20
-75.999999999999545
 30
0.0
 11
62.5
 21
-76.000000000000455
 31
0.0
  0
LINE
  5
6934
  8
0
 10
17.0
 20
-75.999999999999545
 30
0.0
 11
17.0
 21
-54.499999999999538
 31
0.0
  0
LINE
  5
6935
  8
0
 10
17.0
 20
-41.5
 30
0.0
 11
17.0
 21
-33.985290935933328
 31
0.0
  0
LINE
  5
6936
  8
0
 10
-17.0
 20
-75.999999999999545
 30
0.0
 11
-17.0
 21
-54.5
 31
0.0
  0
LINE
  5
6937
  8
0
 10
-17.0
 20
-41.5
 30
0.0
 11
-17.0
 21
-33.985290935933328
 31
0.0
  0
LINE
  5
6938
  8
0
 10
-62.5
 20
89.999999999999545
 30
0.0
 11
-62.5
 21
75.999999999999545
 31
0.0
  0
LINE
  5
6939
  8
0
  6
CENTER
 10
-45.0
 20
99.000000000000455
 30
0.0
 11
-45.0
 21
66.000000000000455
 31
0.0
  0
LINE
  5
693A
  8
0
  6
CENTER
 10
45.0
 20
99.000000000000455
 30
0.0
 11
45.0
 21
66.000000000000455
 31
0.0
  0
LINE
  5
693B
  8
0
 10
62.5
 20
76.000000000000455
 30
0.0
 11
62.5
 21
90.000000000000455
 31
0.0
  0
LINE
  5
693C
  8
0
 10
62.5
 20
90.000000000000455
 30
0.0
 11
-62.5
 21
89.999999999999545
 31
0.0
  0
LINE
  5
693D
  8
0
 10
-62.5
 20
75.999999999999545
 30
0.0
 11
62.5
 21
76.000000000000455
 31
0.0
  0
LINE
  5
693E
  8
0
 10
17.0
 20
75.999999999999545
 30
0.0
 11
17.0
 21
54.5
 31
0.0
  0
LINE
  5
693F
  8
0
 10
17.0
 20
41.500000000000448
 30
0.0
 11
17.0
 21
33.985290935933328
 31
0.0
  0
LINE
  5
6940
  8
0
 10
-17.0
 20
75.999999999999545
 30
0.0
 11
-17.0
 21
54.499999999999538
 31
0.0
  0
LINE
  5
6941
  8
0
 10
-17.0
 20
41.5
 30
0.0
 11
-17.0
 21
33.985290935933328
 31
0.0
  0
LINE
  5
6942
  8
0
  6
CENTER
 10
0.0
 20
99.000000000000455
 30
0.0
 11
0.0
 21
-99.000000000000455
 31
0.0
  0
LINE
  5
6943
  8
0
  6
CENTER
 10
-21.809530600177819
 20
-11.15000000000054
 30
0.0
 11
21.809530600177819
 21
-11.15000000000054
 31
0.0
  0
CIRCLE
  5
6948
  8
AM_0_T3
 10
0.0
 20
-11.15000000000054
 30
0.0
 40
17.0
  0
CIRCLE
  5
6949
  8
AM_0_T3
 10
0.0
 20
-11.15000000000054
 30
0.0
 40
10.85000000000036
  0
ENDSEC
  0
EOF
