  0
SECTION
  2
HEADER
  9
$ACADVER
  1
AC1009
  9
$INSBASE
 10
0.0
 20
0.0
 30
0.0
  9
$EXTMIN
 10
-62.5
 20
-99.000000000000455
 30
0.0
  9
$EXTMAX
 10
2278.657219603766
 20
584.28139750375885
 30
0.0
  9
$LIMMIN
 10
0.0
 20
0.0
  9
$LIMMAX
 10
420.0
 20
297.0
  9
$ORTHOMODE
 70
     0
  9
$REGENMODE
 70
     1
  9
$FILLMODE
 70
     1
  9
$QTEXTMODE
 70
     0
  9
$MIRRTEXT
 70
     1
  9
$DRAGMODE
 70
     2
  9
$LTSCALE
 40
1.0
  9
$OSMODE
 70
    37
  9
$ATTMODE
 70
     1
  9
$TEXTSIZE
 40
73.985717453579113
  9
$TRACEWID
 40
1.0
  9
$TEXTSTYLE
  7
STANDARD
  9
$CLAYER
  8
0
  9
$CELTYPE
  6
BYLAYER
  9
$CECOLOR
 62
   256
  9
$DIMSCALE
 40
1.0
  9
$DIMASZ
 40
3.0
  9
$DIMEXO
 40
1.0
  9
$DIMDLI
 40
10.0
  9
$DIMRND
 40
0.0
  9
$DIMDLE
 40
0.0
  9
$DIMEXE
 40
1.0
  9
$DIMTP
 40
0.1
  9
$DIMTM
 40
0.1
  9
$DIMTXT
 40
30.0
  9
$DIMCEN
 40
0.0
  9
$DIMTSZ
 40
0.0
  9
$DIMTOL
 70
     0
  9
$DIMLIM
 70
     0
  9
$DIMTIH
 70
     0
  9
$DIMTOH
 70
     0
  9
$DIMSE1
 70
     0
  9
$DIMSE2
 70
     0
  9
$DIMTAD
 70
     3
  9
$DIMZIN
 70
     8
  9
$DIMBLK
  1
OPEN
  9
$DIMASO
 70
     1
  9
$DIMSHO
 70
     1
  9
$DIMPOST
  1

  9
$DIMAPOST
  1
"
  9
$DIMALT
 70
     0
  9
$DIMALTD
 70
     2
  9
$DIMALTF
 40
0.0393701
  9
$DIMLFAC
 40
1.0
  9
$DIMTOFL
 70
     1
  9
$DIMTVP
 40
0.0
  9
$DIMTIX
 70
     0
  9
$DIMSOXD
 70
     0
  9
$DIMSAH
 70
     0
  9
$DIMBLK1
  1

  9
$DIMBLK2
  1

  9
$DIMSTYLE
  2
TSK
  9
$DIMCLRD
 70
   256
  9
$DIMCLRE
 70
   256
  9
$DIMCLRT
 70
     2
  9
$DIMTFAC
 40
0.71
  9
$DIMGAP
 40
1.5
  9
$LUNITS
 70
     2
  9
$LUPREC
 70
     8
  9
$SKETCHINC
 40
1.0
  9
$FILLETRAD
 40
0.0
  9
$AUNITS
 70
     0
  9
$AUPREC
 70
     8
  9
$MENU
  1
.
  9
$ELEVATION
 40
0.0
  9
$PELEVATION
 40
0.0
  9
$THICKNESS
 40
0.0
  9
$LIMCHECK
 70
     0
  9
$BLIPMODE
 70
     0
  9
$CHAMFERA
 40
2.5
  9
$CHAMFERB
 40
2.5
  9
$SKPOLY
 70
     0
  9
$TDCREATE
 40
2454739.7204081588
  9
$TDUPDATE
 40
2454748.562084178
  9
$TDINDWG
 40
0.2788156597
  9
$TDUSRTIMER
 40
0.2788156597
  9
$USRTIMER
 70
     1
  9
$ANGBASE
 50
0.0
  9
$ANGDIR
 70
     1
  9
$PDMODE
 70
     0
  9
$PDSIZE
 40
0.0
  9
$PLINEWID
 40
0.0
  9
$COORDS
 70
     1
  9
$SPLFRAME
 70
     0
  9
$SPLINETYPE
 70
     6
  9
$SPLINESEGS
 70
     8
  9
$ATTDIA
 70
     0
  9
$ATTREQ
 70
     1
  9
$HANDLING
 70
 22529
  9
$HANDSEED
  5
6BC1
  9
$SURFTAB1
 70
     6
  9
$SURFTAB2
 70
     6
  9
$SURFTYPE
 70
     6
  9
$SURFU
 70
     6
  9
$SURFV
 70
     6
  9
$UCSNAME
  2

  9
$UCSORG
 10
0.0
 20
0.0
 30
0.0
  9
$UCSXDIR
 10
1.0
 20
0.0
 30
0.0
  9
$UCSYDIR
 10
0.0
 20
1.0
 30
0.0
  9
$PUCSNAME
  2

  9
$PUCSORG
 10
0.0
 20
0.0
 30
0.0
  9
$PUCSXDIR
 10
1.0
 20
0.0
 30
0.0
  9
$PUCSYDIR
 10
0.0
 20
1.0
 30
0.0
  9
$USERI1
 70
     0
  9
$USERI2
 70
     0
  9
$USERI3
 70
     0
  9
$USERI4
 70
     0
  9
$USERI5
 70
     0
  9
$USERR1
 40
0.0
  9
$USERR2
 40
0.0
  9
$USERR3
 40
0.0
  9
$USERR4
 40
0.0
  9
$USERR5
 40
0.0
  9
$WORLDVIEW
 70
     1
  9
$SHADEDGE
 70
     3
  9
$SHADEDIF
 70
    70
  9
$TILEMODE
 70
     1
  9
$MAXACTVP
 70
    48
  9
$PLIMCHECK
 70
     0
  9
$PEXTMIN
 10
1.0000000000000000E+020
 20
1.0000000000000000E+020
 30
1.0000000000000000E+020
  9
$PEXTMAX
 10
-1.0000000000000000E+020
 20
-1.0000000000000000E+020
 30
-1.0000000000000000E+020
  9
$PLIMMIN
 10
0.0
 20
0.0
  9
$PLIMMAX
 10
420.0
 20
297.0
  9
$UNITMODE
 70
     0
  9
$VISRETAIN
 70
     1
  9
$PLINEGEN
 70
     0
  9
$PSLTSCALE
 70
     1
  0
ENDSEC
  0
SECTION
  2
TABLES
  0
TABLE
  2
VPORT
 70
     2
  0
VPORT
  2
*ACTIVE
 70
     0
 10
0.0
 20
0.0
 11
1.0
 21
1.0
 12
1446.714788283753
 22
242.62843382204241
 13
0.0
 23
0.0
 14
2.5
 24
2.5
 15
10.0
 25
10.0
 16
0.0
 26
0.0
 36
1.0
 17
0.0
 27
0.0
 37
0.0
 40
1536.1176428574661
 41
1.9727626459143961
 42
50.0
 43
0.0
 44
0.0
 50
0.0
 51
0.0
 71
     0
 72
   100
 73
     1
 74
     3
 75
     0
 76
     0
 77
     0
 78
     0
  0
ENDTAB
  0
TABLE
  2
LTYPE
 70
     2
  0
LTYPE
  2
CONTINUOUS
 70
     0
  3
Solid line
 72
    65
 73
     0
 40
0.0
  0
LTYPE
  2
CENTER
 70
     0
  3
__ . __
 72
    65
 73
     4
 40
7.0
 49
4.0
 49
-1.0
 49
1.0
 49
-1.0
  0
ENDTAB
  0
TABLE
  2
LAYER
 70
     2
  0
LAYER
  2
0
 70
     0
 62
     7
  6
CONTINUOUS
  0
LAYER
  2
AM_0_T3
 70
     0
 62
     7
  6
CONTINUOUS
  0
ENDTAB
  0
TABLE
  2
STYLE
 70
     2
  0
STYLE
  2
STANDARD
 70
     0
 40
0.0
 41
0.7
 50
0.0
 71
     0
 42
73.985717453579113
  3
romans.shx
  4
bigfont.shx
  0
STYLE
  2
TSKDIM
 70
     0
 40
0.0
 41
0.75
 50
0.0
 71
     0
 42
4.0
  3
romans.shx
  4
EXTFONT.SHX
  0
ENDTAB
  0
TABLE
  2
VIEW
 70
     0
  0
ENDTAB
  0
TABLE
  2
UCS
 70
     0
  0
ENDTAB
  0
TABLE
  2
APPID
 70
    41
  0
APPID
  2
ACAD
 70
     0
  0
APPID
  2
MCAD_NO_VIS
 70
     0
  0
APPID
  2
ACAD_TEMP_GRAPHIC
 70
     0
  0
APPID
  2
ACATTRIBSERVICES
 70
     0
  0
APPID
  2
AD_DRAW
 70
     0
  0
APPID
  2
DESIGNERASSEMBLIES
 70
     0
  0
APPID
  2
ASURF_PCURVE_APPNAME
 70
     0
  0
APPID
  2
ACADM_DIM_EDIT
 70
     0
  0
APPID
  2
GENIUS_GENDIM_13
 70
     0
  0
APPID
  2
GENIUS_GENDTOL_13
 70
     0
  0
APPID
  2
GENIUS_GE3DTOL_13
 70
     0
  0
APPID
  2
AMG_3D2D_5_0
 70
     0
  0
APPID
  2
AMDT_DM_ADJ
 70
     0
  0
APPID
  2
CK_MATE-SERIES
 70
     0
  0
APPID
  2
GEVID1042077799
 70
     0
  0
APPID
  2
GEVMK
 70
     0
  0
APPID
  2
GEVDC
 70
     0
  0
APPID
  2
GENIUS_GENBH_13
 70
     0
  0
APPID
  2
GENIUS_GENOLIS_13
 70
     0
  0
APPID
  2
GENIUS_GENOENT_13
 70
     0
  0
APPID
  2
GENIUS_GENODEF_13
 70
     0
  0
APPID
  2
GENIUS_GENOBJ-NBEHI-BHF_13
 70
     0
  0
APPID
  2
GENIUS_GENOREF_13
 70
     0
  0
APPID
  2
GENIUS_GENOBJ-NBEHI-BHB_13
 70
     0
  0
APPID
  2
GEVID1042183772
 70
     0
  0
APPID
  2
GEVID1042183773
 70
     0
  0
APPID
  2
GEVID1042183774
 70
     0
  0
APPID
  2
DCO15
 70
     0
  0
APPID
  2
ACAD_DSTYLE_DIMARC_LENGTH_
 70
     0
  0
APPID
  2
ACAD_DSTYLE_DIMJOGGED_JOGA
 70
     0
  0
APPID
  2
ACAD_MLEADERVER
 70
     0
  0
APPID
  2
ACAD_DSTYLE_DIMJAG
 70
     0
  0
APPID
  2
ACAD_DSTYLE_DIMTALN
 70
     0
  0
APPID
  2
ACAD_PSEXT
 70
     0
  0
APPID
  2
ACAD_EXEMPT_FROM_CAD_STANDARDS
 70
     0
  0
APPID
  2
ACAD_DSTYLE_DIMINSPECT
 70
     0
  0
APPID
  2
ACAD_DSTYLE_DIMANGULAR_EXT
 70
     0
  0
APPID
  2
GENIUS_GENOBJ-N-FIL_13
 70
     0
  0
APPID
  2
ACAD_DSTYLE_DIM_LINETYPE
 70
     0
  0
APPID
  2
ACAD_DSTYLE_DIM_EXT1_LINETYPE
 70
     0
  0
APPID
  2
ACAD_DSTYLE_DIM_EXT2_LINETYPE
 70
     0
  0
ENDTAB
  0
TABLE
  2
DIMSTYLE
 70
     1
  0
DIMSTYLE
  2
TSK
 70
     0
  3

  4
"
  5
OPEN
  6

  7

 40
1.0
 41
3.0
 42
1.0
 43
10.0
 44
1.0
 45
0.0
 46
0.0
 47
0.1
 48
0.1
140
3.0
141
0.0
142
0.0
143
0.0393701
144
1.0
145
0.0
146
0.71
147
1.5
 71
     0
 72
     0
 73
     0
 74
     0
 75
     0
 76
     0
 77
     3
 78
     8
170
     0
171
     2
172
     1
173
     0
174
     0
175
     0
176
   256
177
   256
178
     2
  0
ENDTAB
  0
ENDSEC
  0
SECTION
  2
BLOCKS
  0
BLOCK
  8
0
  2
$MODEL_SPACE
 70
     0
 10
0.0
 20
0.0
 30
0.0
  3
$MODEL_SPACE
  1

  0
ENDBLK
  5
21
  8
0
  0
BLOCK
 67
     1
  8
0
  2
$PAPER_SPACE
 70
     0
 10
0.0
 20
0.0
 30
0.0
  3
$PAPER_SPACE
  1

  0
ENDBLK
  5
1D
 67
     1
  8
0
  0
BLOCK
  8
0
  2
_OPEN
 70
     0
 10
0.0
 20
0.0
 30
0.0
  3
_OPEN
  1

  0
LINE
  5
15A
  8
0
  6
BYBLOCK
 62
     0
 10
-1.0
 20
0.1666666666666666
 30
0.0
 11
0.0
 21
0.0
 31
0.0
  0
LINE
  5
15B
  8
0
  6
BYBLOCK
 62
     0
 10
-1.0
 20
-0.1666666666666666
 30
0.0
 11
0.0
 21
0.0
 31
0.0
  0
LINE
  5
15C
  8
0
  6
BYBLOCK
 62
     0
 10
0.0
 20
0.0
 30
0.0
 11
-1.0
 21
0.0
 31
0.0
  0
ENDBLK
  5
15E
  8
0
  0
ENDSEC
  0
SECTION
  2
ENTITIES
  0
LINE
  5
3BC7
  8
0
 10
1219.70124957693
 20
-37.499999999997272
 30
0.0
 11
1219.7012495769261
 21
37.500000000002728
 31
0.0
  0
LINE
  5
3BC8
  8
0
 10
1215.20124957693
 20
-37.499999999997272
 30
0.0
 11
1215.2012495769261
 21
37.500000000002728
 31
0.0
  0
LINE
  5
3BC9
  8
0
 10
1210.70124957693
 20
-37.499999999997272
 30
0.0
 11
1210.7012495769261
 21
37.500000000002728
 31
0.0
  0
LINE
  5
3BCA
  8
0
 10
1224.2012495769261
 20
-37.499999999997272
 30
0.0
 11
1224.2012495769261
 21
37.500000000002728
 31
0.0
  0
LINE
  5
3BCB
  8
0
 10
1228.70124957693
 20
-37.499999999997272
 30
0.0
 11
1228.70124957693
 21
37.500000000002728
 31
0.0
  0
LINE
  5
3BCC
  8
0
 10
1233.2012495769261
 20
-37.499999999997272
 30
0.0
 11
1233.2012495769261
 21
37.500000000002728
 31
0.0
  0
LINE
  5
3BCD
  8
0
 10
1198.7512495769261
 20
-31.04091814876028
 30
0.0
 11
1202.4804022224589
 21
-37.499999999997272
 31
0.0
  0
LINE
  5
3BCE
  8
0
 10
1202.4804022224589
 20
-37.499999999997272
 30
0.0
 11
1268.4220969313969
 21
-37.499999999997272
 31
0.0
  0
LINE
  5
3BCF
  8
0
 10
1198.7512495769261
 20
-31.04091814876028
 30
0.0
 11
1198.7512495769261
 21
31.040918148762099
 31
0.0
  0
LINE
  5
3BD0
  8
0
 10
1205.7512495769261
 20
-37.499999999997272
 30
0.0
 11
1205.7512495769261
 21
37.500000000002728
 31
0.0
  0
LINE
  5
3BD1
  8
0
 10
1198.7512495769261
 20
31.040918148762099
 30
0.0
 11
1202.4804022224589
 21
37.500000000002728
 31
0.0
  0
LINE
  5
3BD2
  8
0
 10
1202.4804022224589
 20
37.500000000002728
 30
0.0
 11
1268.4220969313969
 21
37.500000000002728
 31
0.0
  0
LINE
  5
3BD4
  8
0
 10
1202.4804022224589
 20
-37.499999999993634
 30
0.0
 11
1202.4804022224589
 21
37.500000000002728
 31
0.0
  0
LINE
  5
3BD5
  8
0
 10
1272.1512495769271
 20
-31.04091814876028
 30
0.0
 11
1268.4220969313969
 21
-37.499999999997272
 31
0.0
  0
LINE
  5
3BD6
  8
0
 10
1272.1512495769271
 20
-31.04091814876028
 30
0.0
 11
1272.1512495769271
 21
31.040918148762099
 31
0.0
  0
LINE
  5
3BD7
  8
0
 10
1272.1512495769271
 20
31.040918148762099
 30
0.0
 11
1268.4220969313969
 21
37.500000000002728
 31
0.0
  0
LINE
  5
3BD8
  8
0
 10
1268.4220969313969
 20
-37.499999999993634
 30
0.0
 11
1268.4220969313969
 21
37.500000000002728
 31
0.0
  0
LINE
  5
3BD9
  8
0
 10
1251.2012495769261
 20
-37.499999999997272
 30
0.0
 11
1251.2012495769261
 21
37.500000000002728
 31
0.0
  0
LINE
  5
3BDA
  8
0
 10
1255.7012495769261
 20
-37.499999999997272
 30
0.0
 11
1255.7012495769261
 21
37.500000000002728
 31
0.0
  0
LINE
  5
3BDB
  8
0
 10
1260.2012495769261
 20
-37.499999999997272
 30
0.0
 11
1260.2012495769261
 21
37.500000000002728
 31
0.0
  0
LINE
  5
3BDC
  8
0
 10
1246.7012495769261
 20
-37.499999999997272
 30
0.0
 11
1246.70124957693
 21
37.500000000002728
 31
0.0
  0
LINE
  5
3BDD
  8
0
 10
1242.2012495769229
 20
-37.499999999997272
 30
0.0
 11
1242.2012495769229
 21
37.500000000002728
 31
0.0
  0
LINE
  5
3BDE
  8
0
 10
1237.7012495769261
 20
-37.499999999997272
 30
0.0
 11
1237.70124957693
 21
37.500000000002728
 31
0.0
  0
LINE
  5
3BDF
  8
0
 10
1265.1512495769271
 20
-37.499999999997272
 30
0.0
 11
1265.1512495769271
 21
37.500000000002728
 31
0.0
  0
ARC
  5
3C27
  8
0
 10
234.45124933850821
 20
-48.0
 30
0.0
 40
7.0
 50
132.20616791855261
 51
171.78674173947229
  0
ARC
  5
3C28
  8
0
 10
234.45124933850821
 20
-48.0
 30
0.0
 40
7.0
 50
188.21320240124231
 51
231.7867959184548
  0
ARC
  5
3C29
  8
0
 10
234.45124933850821
 20
-48.0
 30
0.0
 40
7.0
 50
248.2131224893802
 51
291.78687751061972
  0
ARC
  5
3C2A
  8
0
 10
234.45124933850821
 20
-48.0
 30
0.0
 40
7.0
 50
308.21320408154509
 51
351.78679759875757
  0
ARC
  5
3C2B
  8
0
 10
234.45124933850821
 20
-48.0
 30
0.0
 40
7.0
 50
8.2132582605277094
 51
47.793826811981923
  0
ARC
  5
3C2C
  8
0
 10
234.45124933850821
 20
48.0
 30
0.0
 40
7.0
 50
312.12875643080048
 51
351.78674173947229
  0
ARC
  5
3C2D
  8
0
 10
234.45124933850821
 20
48.0
 30
0.0
 40
7.0
 50
8.2132024012423752
 51
51.786795918454878
  0
ARC
  5
3C2E
  8
0
 10
234.45124933850821
 20
48.0
 30
0.0
 40
7.0
 50
68.213122489380268
 51
111.7868775106197
  0
ARC
  5
3C2F
  8
0
 10
234.45124933850821
 20
48.0
 30
0.0
 40
7.0
 50
128.21320408154509
 51
171.7867975987576
  0
LINE
  5
3C30
  8
0
 10
1219.70124957693
 20
374.17147954932079
 30
0.0
 11
1219.7012495769261
 21
449.17147954932079
 31
0.0
  0
LINE
  5
3C31
  8
0
 10
1215.20124957693
 20
374.17147954932079
 30
0.0
 11
1215.2012495769261
 21
449.17147954932079
 31
0.0
  0
LINE
  5
3C32
  8
0
 10
1210.70124957693
 20
374.17147954932079
 30
0.0
 11
1210.7012495769261
 21
449.17147954932079
 31
0.0
  0
LINE
  5
3C33
  8
0
 10
1224.2012495769261
 20
374.17147954932079
 30
0.0
 11
1224.2012495769261
 21
449.17147954932079
 31
0.0
  0
LINE
  5
3C34
  8
0
 10
1228.70124957693
 20
374.17147954932079
 30
0.0
 11
1228.70124957693
 21
449.17147954932079
 31
0.0
  0
LINE
  5
3C35
  8
0
 10
1233.2012495769261
 20
374.17147954932079
 30
0.0
 11
1233.2012495769261
 21
449.17147954932079
 31
0.0
  0
LINE
  5
3C36
  8
0
 10
1198.7512495769261
 20
380.63056140055772
 30
0.0
 11
1202.4804022224589
 21
374.17147954932079
 31
0.0
  0
LINE
  5
3C37
  8
0
 10
1202.4804022224589
 20
374.17147954932079
 30
0.0
 11
1268.4220969313969
 21
374.17147954932079
 31
0.0
  0
LINE
  5
3C38
  8
0
 10
1198.7512495769261
 20
380.63056140055772
 30
0.0
 11
1198.7512495769261
 21
442.71239769808011
 31
0.0
  0
LINE
  5
3C39
  8
0
 10
1205.7512495769261
 20
374.17147954932079
 30
0.0
 11
1205.7512495769261
 21
449.17147954932079
 31
0.0
  0
LINE
  5
3C3A
  8
0
 10
1198.7512495769261
 20
442.71239769808011
 30
0.0
 11
1202.4804022224589
 21
449.17147954932079
 31
0.0
  0
LINE
  5
3C3B
  8
0
 10
1202.4804022224589
 20
449.17147954932079
 30
0.0
 11
1268.4220969313969
 21
449.17147954932079
 31
0.0
  0
LINE
  5
3C3D
  8
0
 10
1202.4804022224589
 20
374.17147954932437
 30
0.0
 11
1202.4804022224589
 21
449.17147954932079
 31
0.0
  0
LINE
  5
3C3E
  8
0
 10
1272.1512495769271
 20
380.63056140055772
 30
0.0
 11
1268.4220969313969
 21
374.17147954932079
 31
0.0
  0
LINE
  5
3C3F
  8
0
 10
1272.1512495769271
 20
380.63056140055772
 30
0.0
 11
1272.1512495769271
 21
442.71239769808011
 31
0.0
  0
LINE
  5
3C40
  8
0
 10
1272.1512495769271
 20
442.71239769808011
 30
0.0
 11
1268.4220969313969
 21
449.17147954932079
 31
0.0
  0
LINE
  5
3C41
  8
0
 10
1268.4220969313969
 20
374.17147954932437
 30
0.0
 11
1268.4220969313969
 21
449.17147954932079
 31
0.0
  0
LINE
  5
3C42
  8
0
 10
1251.2012495769261
 20
374.17147954932079
 30
0.0
 11
1251.2012495769261
 21
449.17147954932079
 31
0.0
  0
LINE
  5
3C43
  8
0
 10
1255.7012495769261
 20
374.17147954932079
 30
0.0
 11
1255.7012495769261
 21
449.17147954932079
 31
0.0
  0
LINE
  5
3C44
  8
0
 10
1260.2012495769261
 20
374.17147954932079
 30
0.0
 11
1260.2012495769261
 21
449.17147954932079
 31
0.0
  0
LINE
  5
3C45
  8
0
 10
1246.7012495769261
 20
374.17147954932079
 30
0.0
 11
1246.70124957693
 21
449.17147954932079
 31
0.0
  0
LINE
  5
3C46
  8
0
 10
1242.2012495769229
 20
374.17147954932079
 30
0.0
 11
1242.2012495769229
 21
449.17147954932079
 31
0.0
  0
LINE
  5
3C47
  8
0
 10
1237.7012495769261
 20
374.17147954932079
 30
0.0
 11
1237.70124957693
 21
449.17147954932079
 31
0.0
  0
LINE
  5
3C48
  8
0
 10
1265.1512495769271
 20
374.17147954932079
 30
0.0
 11
1265.1512495769271
 21
449.17147954932079
 31
0.0
  0
ARC
  5
3C49
  8
0
 10
2241.45124957693
 20
432.1714795493171
 30
0.0
 40
1.0
 50
0.0
 51
90.000005008833185
  0
ARC
  5
3C4A
  8
0
 10
2231.45124957693
 20
432.1714795493171
 30
0.0
 40
1.0
 50
89.999989999842668
 51
179.99999600002039
  0
ARC
  5
3C4B
  8
0
 10
2233.20124957693
 20
423.52348454931769
 30
0.0
 40
7.6479949999999981
 50
64.852620000101439
 51
115.14737199976651
  0
ARC
  5
3C4C
  8
0
 10
2239.70124957693
 20
423.52348454931769
 30
0.0
 40
7.6479949999999981
 50
64.852630000094493
 51
115.14737199976651
  0
ARC
  5
3C4D
  8
0
 10
2233.20124957693
 20
432.3194745493164
 30
0.0
 40
7.6479949999999981
 50
244.85263000009451
 51
295.14736999990549
  0
ARC
  5
3C4E
  8
0
 10
2239.70124957693
 20
432.3194745493164
 30
0.0
 40
7.6479949999999981
 50
244.85263000009451
 51
295.14736999990549
  0
ARC
  5
3C4F
  8
0
 10
2239.70124957693
 20
400.81947454931651
 30
0.0
 40
7.647994500000002
 50
244.85263000009451
 51
295.14736999990549
  0
ARC
  5
3C50
  8
0
 10
2233.20124957693
 20
400.81947454931651
 30
0.0
 40
7.647994500000002
 50
244.85263000009451
 51
295.14736999990549
  0
ARC
  5
3C51
  8
0
 10
234.45124933850821
 20
48.0
 30
0.0
 40
7.0
 50
188.21325826052771
 51
227.87124883138
  0
LINE
  5
3C52
  8
0
 10
2229.20124957693
 20
386.27147954931928
 30
0.0
 11
2208.5572037323391
 21
386.27147954931843
 31
0.0
  0
LINE
  5
3C53
  8
0
 10
2094.3452954215172
 20
386.27147954931928
 30
0.0
 11
1272.1108793763119
 21
386.27147954931928
 31
0.0
  0
LINE
  5
3C54
  8
0
 10
2229.20124957693
 20
437.07147954931861
 30
0.0
 11
2208.5572037323391
 21
437.07147954931861
 31
0.0
  0
LINE
  5
3C55
  8
0
 10
2094.3452954215172
 20
437.07147954931861
 30
0.0
 11
1272.1108793763119
 21
437.07147954931861
 31
0.0
  0
LINE
  5
3C56
  8
0
 10
2257.4512495769268
 20
386.32147954931861
 30
0.0
 11
2257.45124957693
 21
437.02147954931752
 31
0.0
  0
LINE
  5
3C57
  8
0
 10
2243.70124957693
 20
386.32147954931861
 30
0.0
 11
2257.4512495769268
 21
386.32147954931861
 31
0.0
  0
LINE
  5
3C58
  8
0
 10
2243.7012495769259
 20
437.02147954931752
 30
0.0
 11
2257.45124957693
 21
437.02147954931752
 31
0.0
  0
LINE
  5
3C59
  8
0
 10
2229.20124957693
 20
380.81698230823622
 30
0.0
 11
2229.20124957693
 21
442.6714795493171
 31
0.0
  0
LINE
  5
3C5A
  8
0
 10
2243.70124957693
 20
380.81698359366959
 30
0.0
 11
2243.70124957693
 21
442.6714795493171
 31
0.0
  0
LINE
  5
3C5B
  8
0
 10
2231.7490412167931
 20
449.6714795493171
 30
0.0
 11
2231.7503921347702
 21
433.1714795493171
 31
0.0
  0
LINE
  5
3C5C
  8
0
 10
2231.7536557685162
 20
393.30972807970278
 30
0.0
 11
2231.7552636268442
 21
373.67148005877152
 31
0.0
  0
LINE
  5
3C5D
  8
0
 10
2241.1534579370668
 20
449.6714795493171
 30
0.0
 11
2241.1521070190861
 21
433.1714795493171
 31
0.0
  0
LINE
  5
3C5E
  8
0
 10
2241.148843385341
 20
393.30972807970278
 30
0.0
 11
2241.1472355270121
 21
373.67148005877152
 31
0.0
  0
LINE
  5
3C5F
  8
0
 10
2229.45124957693
 20
408.6714795493171
 30
0.0
 11
2243.45124957693
 21
408.6714795493171
 31
0.0
  0
LINE
  5
3C60
  8
0
 10
2229.45124957693
 20
398.6714795493171
 30
0.0
 11
2243.45124957693
 21
398.6714795493171
 31
0.0
  0
LINE
  5
3C61
  8
0
 10
2229.45124957693
 20
414.67147954931721
 30
0.0
 11
2243.45124957693
 21
414.67147954931721
 31
0.0
  0
LINE
  5
3C62
  8
0
 10
2229.45124957693
 20
424.6714795493171
 30
0.0
 11
2243.45124957693
 21
424.6714795493171
 31
0.0
  0
LINE
  5
3C63
  8
0
 10
2229.45124957693
 20
398.6714795493171
 30
0.0
 11
2229.45124957693
 21
408.6714795493171
 31
0.0
  0
LINE
  5
3C64
  8
0
 10
2229.45124957693
 20
424.6714795493171
 30
0.0
 11
2229.45124957693
 21
414.67147954931721
 31
0.0
  0
LINE
  5
3C65
  8
0
 10
2232.45124957693
 20
414.67147954931721
 30
0.0
 11
2232.45124957693
 21
408.6714795493171
 31
0.0
  0
LINE
  5
3C66
  8
0
 10
2240.45124957693
 20
414.67147954931721
 30
0.0
 11
2240.45124957693
 21
408.6714795493171
 31
0.0
  0
LINE
  5
3C67
  8
0
 10
2240.45124957693
 20
438.6714795493171
 30
0.0
 11
2240.45124957693
 21
433.1714795493171
 31
0.0
  0
LINE
  5
3C68
  8
0
 10
2241.45124957693
 20
433.1714795493171
 30
0.0
 11
2231.45124957693
 21
433.1714795493171
 31
0.0
  0
LINE
  5
3C69
  8
0
 10
2240.45124957693
 20
438.6714795493171
 30
0.0
 11
2232.45124957693
 21
438.6714795493171
 31
0.0
  0
LINE
  5
3C6A
  8
0
 10
2242.45124957693
 20
432.1714795493171
 30
0.0
 11
2242.45124957693
 21
431.17147954931721
 31
0.0
  0
LINE
  5
3C6B
  8
0
 10
2230.45124957693
 20
432.1714795493171
 30
0.0
 11
2230.45124957693
 21
431.17147954931721
 31
0.0
  0
LINE
  5
3C6C
  8
0
 10
2229.95124957693
 20
431.17147954931721
 30
0.0
 11
2242.95124957693
 21
431.17147954931721
 31
0.0
  0
LINE
  5
3C6D
  8
0
 10
2229.95124957693
 20
431.17147954931721
 30
0.0
 11
2229.95124957693
 21
424.6714795493171
 31
0.0
  0
LINE
  5
3C6E
  8
0
 10
2242.95124957693
 20
431.17147954931721
 30
0.0
 11
2242.95124957693
 21
424.6714795493171
 31
0.0
  0
LINE
  5
3C6F
  8
0
 10
2232.45124957693
 20
438.6714795493171
 30
0.0
 11
2232.45124957693
 21
433.1714795493171
 31
0.0
  0
LINE
  5
3C70
  8
0
  6
CENTER
 10
2236.45124957693
 20
440.32281454931581
 30
0.0
 11
2236.45124957693
 21
389.84375354931763
 31
0.0
  0
LINE
  5
3C71
  8
0
 10
2239.70124957693
 20
393.1714795493171
 30
0.0
 11
2233.20124957693
 21
393.1714795493171
 31
0.0
  0
LINE
  5
3C72
  8
0
 10
2242.95124957693
 20
393.89637354931619
 30
0.0
 11
2242.95124957693
 21
398.6714795493171
 31
0.0
  0
LINE
  5
3C73
  8
0
 10
2229.95124957693
 20
393.89637354931619
 30
0.0
 11
2229.95124957693
 21
398.6714795493171
 31
0.0
  0
LINE
  5
3C74
  8
0
 10
2243.45124957693
 20
398.6714795493171
 30
0.0
 11
2243.45124957693
 21
408.6714795493171
 31
0.0
  0
LINE
  5
3C75
  8
0
 10
2243.45124957693
 20
424.6714795493171
 30
0.0
 11
2243.45124957693
 21
414.67147954931721
 31
0.0
  0
LINE
  5
3C76
  8
AM_0_T3
 10
2231.7490412167931
 20
449.6714795493171
 30
0.0
 11
2241.1534579370668
 21
449.6714795493171
 31
0.0
  0
LINE
  5
3C77
  8
AM_0_T3
 10
2229.20124957693
 20
442.6714795493171
 30
0.0
 11
2231.7490412167931
 21
449.6714795493171
 31
0.0
  0
LINE
  5
3C78
  8
AM_0_T3
 10
2241.1534579370668
 20
449.6714795493171
 30
0.0
 11
2243.70124957693
 21
442.6714795493171
 31
0.0
  0
LINE
  5
3C79
  8
AM_0_T3
 10
2231.7490412167931
 20
373.67147954931892
 30
0.0
 11
2241.1534579370668
 21
373.67147954931892
 31
0.0
  0
LINE
  5
3C7A
  8
AM_0_T3
 10
2229.20124957693
 20
380.67147954931892
 30
0.0
 11
2231.7490412167931
 21
373.67147954931892
 31
0.0
  0
LINE
  5
3C7B
  8
AM_0_T3
 10
2241.1534579370668
 20
373.67147954931892
 30
0.0
 11
2243.70124957693
 21
380.67147954931892
 31
0.0
  0
LINE
  5
3C7C
  8
0
 10
241.70124957692309
 20
25.399999999999629
 30
0.0
 11
1198.791619777541
 21
25.399999999999629
 31
0.0
  0
LINE
  5
3C7D
  8
0
 10
213.4512495769267
 20
25.35000000000036
 30
0.0
 11
213.4512495769267
 21
-25.349999999998541
 31
0.0
  0
LINE
  5
3C7E
  8
0
 10
227.20124957692681
 20
25.35000000000036
 30
0.0
 11
213.4512495769267
 21
25.35000000000036
 31
0.0
  0
LINE
  5
3C7F
  8
0
 10
227.20124957692681
 20
-25.349999999998541
 30
0.0
 11
213.4512495769267
 21
-25.349999999998541
 31
0.0
  0
LINE
  5
3C80
  8
0
 10
238.2040257385087
 20
-54.499995999999548
 30
0.0
 11
230.69847153850779
 21
-54.499995999999548
 31
0.0
  0
LINE
  5
3C81
  8
0
 10
230.6984723385066
 20
-54.499998999999661
 30
0.0
 11
226.9456951385072
 21
-47.999998000000232
 31
0.0
  0
LINE
  5
3C82
  8
0
 10
226.94569453850991
 20
-47.999998000000232
 30
0.0
 11
230.69847163850861
 21
-41.499996999999887
 31
0.0
  0
LINE
  5
3C83
  8
0
 10
230.69847153850779
 20
-41.5
 30
0.0
 11
238.2040257385087
 21
-41.5
 31
0.0
  0
LINE
  5
3C84
  8
0
 10
241.95680413850641
 20
-47.999998000000232
 30
0.0
 11
238.20402703850769
 21
-41.499996999999887
 31
0.0
  0
LINE
  5
3C85
  8
0
 10
238.20402633850969
 20
-54.499998999999661
 30
0.0
 11
241.95680353850909
 21
-47.999998000000232
 31
0.0
  0
LINE
  5
3C86
  8
0
 10
230.69847293850759
 20
54.499996000000472
 30
0.0
 11
238.20402713850851
 21
54.499996000000472
 31
0.0
  0
LINE
  5
3C87
  8
0
 10
238.20402633850969
 20
54.499999000000571
 30
0.0
 11
241.95680353850909
 21
47.999998000000232
 31
0.0
  0
LINE
  5
3C88
  8
0
 10
241.95680413850641
 20
47.999998000000232
 30
0.0
 11
238.20402703850769
 21
41.499996999999887
 31
0.0
  0
LINE
  5
3C89
  8
0
 10
226.94569453850991
 20
47.999998000000232
 30
0.0
 11
230.69847163850861
 21
41.499996999999887
 31
0.0
  0
LINE
  5
3C8A
  8
0
 10
230.6984723385066
 20
54.499999000000571
 30
0.0
 11
226.9456951385072
 21
47.999998000000232
 31
0.0
  0
LINE
  5
3C8B
  8
0
 10
238.20402713850851
 20
41.5
 30
0.0
 11
230.69847293850759
 21
41.5
 31
0.0
  0
LINE
  5
3C8C
  8
0
  6
CENTER
 10
244.45124933850821
 20
48.0
 30
0.0
 11
224.45124933850809
 21
48.0
 31
0.0
  0
LINE
  5
3C8D
  8
0
  6
CENTER
 10
234.4512491000896
 20
58.0
 30
0.0
 11
234.4512491000896
 21
38.0
 31
0.0
  0
LINE
  5
3C8E
  8
0
  6
CENTER
 10
244.45124933850821
 20
-48.0
 30
0.0
 11
224.45124933850809
 21
-48.0
 31
0.0
  0
LINE
  5
3C8F
  8
0
  6
CENTER
 10
234.4512495769267
 20
-38.0
 30
0.0
 11
234.4512495769267
 21
-58.0
 31
0.0
  0
LINE
  5
3C90
  8
0
 10
241.70124957692681
 20
30.85449724108275
 30
0.0
 11
241.70124957692681
 21
-30.85449724108275
 31
0.0
  0
LINE
  5
3C91
  8
0
 10
227.20124957692681
 20
30.85449595564933
 30
0.0
 11
227.20124957692681
 21
-30.85449595564841
 31
0.0
  0
LINE
  5
3C92
  8
0
 10
239.15385214921471
 20
-42.814874465864698
 30
0.0
 11
239.14684183466301
 21
42.808525150782771
 31
0.0
  0
LINE
  5
3C93
  8
0
 10
229.74864700467509
 20
-42.814874033369051
 30
0.0
 11
229.75565731915771
 21
42.80852471952312
 31
0.0
  0
LINE
  5
3C94
  8
0
 10
239.15344822632679
 20
-37.881393849751468
 30
0.0
 11
241.70124957692681
 21
-30.85449724108275
 31
0.0
  0
LINE
  5
3C95
  8
0
 10
229.7490509331837
 20
-37.88139362553283
 30
0.0
 11
227.20124957692681
 21
-30.85449595564841
 31
0.0
  0
LINE
  5
3C96
  8
0
 10
239.15327021203839
 20
-35.707142142714467
 30
0.0
 11
229.74922894181501
 21
-35.707142142714467
 31
0.0
  0
LINE
  5
3C97
  8
0
 10
239.15344822632679
 20
37.881393849751468
 30
0.0
 11
241.70124957692681
 21
30.85449724108275
 31
0.0
  0
LINE
  5
3C98
  8
0
 10
229.7490509331837
 20
37.88139362553283
 30
0.0
 11
227.20124957692681
 21
30.85449595564933
 31
0.0
  0
LINE
  5
3C99
  8
0
 10
239.15327021203839
 20
35.707142142714467
 30
0.0
 11
229.74922894181501
 21
35.707142142714467
 31
0.0
  0
ARC
  5
3C9A
  8
0
 10
229.4512495769267
 20
432.1714795493171
 30
0.0
 40
1.0
 50
89.999994991166815
 51
180.0
  0
ARC
  5
3C9B
  8
0
 10
239.45124957692681
 20
432.1714795493171
 30
0.0
 40
1.0
 50
0.0000039999795585
 51
90.000010000157346
  0
ARC
  5
3C9C
  8
0
 10
237.7012495769267
 20
423.52348454931769
 30
0.0
 40
7.6479949999999981
 50
64.852628000233466
 51
115.14737999988741
  0
ARC
  5
3C9D
  8
0
 10
231.20124957692681
 20
423.52348454931769
 30
0.0
 40
7.6479949999999981
 50
64.852628000233466
 51
115.14736999990539
  0
ARC
  5
3C9E
  8
0
 10
237.7012495769267
 20
432.3194745493164
 30
0.0
 40
7.6479949999999981
 50
244.85263000009451
 51
295.14736999990549
  0
ARC
  5
3C9F
  8
0
 10
231.20124957692681
 20
432.3194745493164
 30
0.0
 40
7.6479949999999981
 50
244.85263000009451
 51
295.14736999990549
  0
ARC
  5
3CA0
  8
0
 10
231.20124957692681
 20
400.81947454931651
 30
0.0
 40
7.647994500000002
 50
244.85263000009451
 51
295.14736999990549
  0
ARC
  5
3CA1
  8
0
 10
237.7012495769267
 20
400.81947454931651
 30
0.0
 40
7.647994500000002
 50
244.85263000009451
 51
295.14736999990549
  0
LINE
  5
3CA2
  8
0
 10
241.70124957692309
 20
386.27147954931928
 30
0.0
 11
1198.791619777541
 21
386.27147954931928
 31
0.0
  0
LINE
  5
3CA3
  8
0
 10
241.70124957692309
 20
437.07147954931861
 30
0.0
 11
1198.791619777541
 21
437.07147954931861
 31
0.0
  0
LINE
  5
3CA4
  8
0
 10
213.4512495769267
 20
386.32147954931861
 30
0.0
 11
213.4512495769267
 21
437.02147954931752
 31
0.0
  0
LINE
  5
3CA5
  8
0
 10
227.20124957692681
 20
386.32147954931861
 30
0.0
 11
213.4512495769267
 21
386.32147954931861
 31
0.0
  0
LINE
  5
3CA6
  8
0
 10
227.20124957692681
 20
437.02147954931752
 30
0.0
 11
213.4512495769267
 21
437.02147954931752
 31
0.0
  0
LINE
  5
3CA7
  8
0
 10
241.70124957692681
 20
380.81698230823622
 30
0.0
 11
241.70124957692681
 21
442.6714795493171
 31
0.0
  0
LINE
  5
3CA8
  8
0
 10
227.20124957692681
 20
380.81698359366959
 30
0.0
 11
227.20124957692681
 21
442.6714795493171
 31
0.0
  0
LINE
  5
3CA9
  8
0
 10
239.15345793706359
 20
449.6714795493171
 30
0.0
 11
239.15210701908291
 21
433.1714795493171
 31
0.0
  0
LINE
  5
3CAA
  8
0
 10
239.1488433853373
 20
393.30972807970278
 30
0.0
 11
239.1472355270125
 21
373.67148005877152
 31
0.0
  0
LINE
  5
3CAB
  8
0
 10
229.74904121678989
 20
449.6714795493171
 30
0.0
 11
229.75039213477061
 21
433.1714795493171
 31
0.0
  0
LINE
  5
3CAC
  8
0
 10
229.75365576851621
 20
393.30972807970278
 30
0.0
 11
229.75526362684101
 21
373.67148005877152
 31
0.0
  0
LINE
  5
3CAD
  8
0
 10
241.45124957692681
 20
408.6714795493171
 30
0.0
 11
227.4512495769267
 21
408.6714795493171
 31
0.0
  0
LINE
  5
3CAE
  8
0
 10
241.45124957692681
 20
398.6714795493171
 30
0.0
 11
227.4512495769267
 21
398.6714795493171
 31
0.0
  0
LINE
  5
3CAF
  8
0
 10
241.45124957692681
 20
414.67147954931721
 30
0.0
 11
227.4512495769267
 21
414.67147954931721
 31
0.0
  0
LINE
  5
3CB0
  8
0
 10
241.45124957692681
 20
424.6714795493171
 30
0.0
 11
227.4512495769267
 21
424.6714795493171
 31
0.0
  0
LINE
  5
3CB1
  8
0
 10
241.45124957692681
 20
398.6714795493171
 30
0.0
 11
241.45124957692681
 21
408.6714795493171
 31
0.0
  0
LINE
  5
3CB2
  8
0
 10
241.45124957692681
 20
424.6714795493171
 30
0.0
 11
241.45124957692681
 21
414.67147954931721
 31
0.0
  0
LINE
  5
3CB3
  8
0
 10
238.4512495769267
 20
414.67147954931721
 30
0.0
 11
238.4512495769267
 21
408.6714795493171
 31
0.0
  0
LINE
  5
3CB4
  8
0
 10
230.4512495769267
 20
414.67147954931721
 30
0.0
 11
230.4512495769267
 21
408.6714795493171
 31
0.0
  0
LINE
  5
3CB5
  8
0
 10
230.4512495769267
 20
438.6714795493171
 30
0.0
 11
230.4512495769267
 21
433.1714795493171
 31
0.0
  0
LINE
  5
3CB6
  8
0
 10
229.4512495769267
 20
433.1714795493171
 30
0.0
 11
239.45124957692681
 21
433.1714795493171
 31
0.0
  0
LINE
  5
3CB7
  8
0
 10
230.4512495769267
 20
438.6714795493171
 30
0.0
 11
238.4512495769267
 21
438.6714795493171
 31
0.0
  0
LINE
  5
3CB8
  8
0
 10
228.4512495769267
 20
432.1714795493171
 30
0.0
 11
228.4512495769267
 21
431.17147954931721
 31
0.0
  0
LINE
  5
3CB9
  8
0
 10
240.4512495769267
 20
432.1714795493171
 30
0.0
 11
240.4512495769267
 21
431.17147954931721
 31
0.0
  0
LINE
  5
3CBA
  8
0
 10
240.9512495769267
 20
431.17147954931721
 30
0.0
 11
227.9512495769267
 21
431.17147954931721
 31
0.0
  0
LINE
  5
3CBB
  8
0
 10
240.9512495769267
 20
431.17147954931721
 30
0.0
 11
240.9512495769267
 21
424.6714795493171
 31
0.0
  0
LINE
  5
3CBC
  8
0
 10
227.9512495769267
 20
431.17147954931721
 30
0.0
 11
227.9512495769267
 21
424.6714795493171
 31
0.0
  0
LINE
  5
3CBD
  8
0
 10
238.4512495769267
 20
438.6714795493171
 30
0.0
 11
238.4512495769267
 21
433.1714795493171
 31
0.0
  0
LINE
  5
3CBE
  8
0
  6
CENTER
 10
234.4512495769267
 20
440.32281454931581
 30
0.0
 11
234.4512495769267
 21
389.84375354931763
 31
0.0
  0
LINE
  5
3CBF
  8
0
 10
231.20124957692681
 20
393.1714795493171
 30
0.0
 11
237.7012495769267
 21
393.1714795493171
 31
0.0
  0
LINE
  5
3CC0
  8
0
 10
227.9512495769267
 20
393.89637354931619
 30
0.0
 11
227.9512495769267
 21
398.6714795493171
 31
0.0
  0
LINE
  5
3CC1
  8
0
 10
240.9512495769267
 20
393.89637354931619
 30
0.0
 11
240.9512495769267
 21
398.6714795493171
 31
0.0
  0
LINE
  5
3CC2
  8
0
 10
227.4512495769267
 20
398.6714795493171
 30
0.0
 11
227.4512495769267
 21
408.6714795493171
 31
0.0
  0
LINE
  5
3CC3
  8
0
 10
227.4512495769267
 20
424.6714795493171
 30
0.0
 11
227.4512495769267
 21
414.67147954931721
 31
0.0
  0
LINE
  5
3CC4
  8
AM_0_T3
 10
239.15345793706359
 20
449.6714795493171
 30
0.0
 11
229.74904121678989
 21
449.6714795493171
 31
0.0
  0
LINE
  5
3CC5
  8
AM_0_T3
 10
241.70124957692681
 20
442.6714795493171
 30
0.0
 11
239.15345793706359
 21
449.6714795493171
 31
0.0
  0
LINE
  5
3CC6
  8
AM_0_T3
 10
229.74904121678989
 20
449.6714795493171
 30
0.0
 11
227.20124957692681
 21
442.6714795493171
 31
0.0
  0
LINE
  5
3CC7
  8
AM_0_T3
 10
239.15345793706359
 20
373.67147954931892
 30
0.0
 11
229.74904121678989
 21
373.67147954931892
 31
0.0
  0
LINE
  5
3CC8
  8
AM_0_T3
 10
241.70124957692681
 20
380.67147954931892
 30
0.0
 11
239.15345793706359
 21
373.67147954931892
 31
0.0
  0
LINE
  5
3CC9
  8
AM_0_T3
 10
229.74904121678989
 20
373.67147954931892
 30
0.0
 11
227.20124957692681
 21
380.67147954931892
 31
0.0
  0
ARC
  5
3CCA
  8
0
 10
2236.451249815349
 20
48.000000000000909
 30
0.0
 40
7.0
 50
312.20616791853507
 51
351.78674173944648
  0
ARC
  5
3CCB
  8
0
 10
2236.451249815349
 20
48.000000000000909
 30
0.0
 40
7.0
 50
8.2132024012423752
 51
51.786795918471
  0
ARC
  5
3CCC
  8
0
 10
2236.451249815349
 20
48.000000000000909
 30
0.0
 40
7.0
 50
68.213122489380268
 51
111.7868775106197
  0
ARC
  5
3CCD
  8
0
 10
2236.451249815349
 20
48.000000000000909
 30
0.0
 40
7.0
 50
128.213204081529
 51
171.7867975987576
  0
ARC
  5
3CCE
  8
0
 10
2236.451249815349
 20
48.000000000000909
 30
0.0
 40
7.0
 50
188.2132582605534
 51
227.79382681199939
  0
ARC
  5
3CCF
  8
0
 10
2236.451249815349
 20
-47.999999999999091
 30
0.0
 40
7.0
 50
132.12875643080051
 51
171.78674173944651
  0
ARC
  5
3CD0
  8
0
 10
2236.451249815349
 20
-47.999999999999091
 30
0.0
 40
7.0
 50
188.21320240124231
 51
231.78679591847089
  0
ARC
  5
3CD1
  8
0
 10
2236.451249815349
 20
-47.999999999999091
 30
0.0
 40
7.0
 50
248.2131224893802
 51
291.78687751061972
  0
ARC
  5
3CD2
  8
0
 10
2236.451249815349
 20
-47.999999999999091
 30
0.0
 40
7.0
 50
308.21320408152889
 51
351.78679759875757
  0
ARC
  5
3CD3
  8
0
 10
2236.451249815349
 20
-47.999999999999091
 30
0.0
 40
7.0
 50
8.2132582605534985
 51
47.871248831380029
  0
LINE
  5
3CD4
  8
0
 10
2229.20124957693
 20
-25.39999999999873
 30
0.0
 11
1272.1108793763119
 21
-25.39999999999873
 31
0.0
  0
LINE
  5
3CD5
  8
0
 10
241.70124957692309
 20
-25.399999999999629
 30
0.0
 11
302.45124957692673
 21
-25.399999999999629
 31
0.0
  0
LINE
  5
3CD6
  8
0
 10
336.45124957692673
 20
-25.400000000000539
 30
0.0
 11
1198.791619777541
 21
-25.399999999999629
 31
0.0
  0
LINE
  5
3CD7
  8
0
 10
2257.4512495769268
 20
-25.349999999999451
 30
0.0
 11
2257.45124957693
 21
25.349999999999451
 31
0.0
  0
LINE
  5
3CD8
  8
0
 10
2243.70124957693
 20
-25.349999999999451
 30
0.0
 11
2257.4512495769268
 21
-25.349999999999451
 31
0.0
  0
LINE
  5
3CD9
  8
0
 10
2243.7012495769259
 20
25.349999999999451
 30
0.0
 11
2257.45124957693
 21
25.349999999999451
 31
0.0
  0
LINE
  5
3CDA
  8
0
 10
2232.698473415348
 20
54.499996000000472
 30
0.0
 11
2240.2040276153489
 21
54.499996000000472
 31
0.0
  0
LINE
  5
3CDB
  8
0
 10
2240.2040268153501
 20
54.499999000000571
 30
0.0
 11
2243.9568040153499
 21
47.999998000001142
 31
0.0
  0
LINE
  5
3CDC
  8
0
 10
2243.9568046153472
 20
47.999998000001142
 30
0.0
 11
2240.2040275153481
 21
41.499997000000803
 31
0.0
  0
LINE
  5
3CDD
  8
0
 10
2240.2040276153489
 20
41.500000000000902
 30
0.0
 11
2232.698473415348
 21
41.500000000000902
 31
0.0
  0
LINE
  5
3CDE
  8
0
 10
2228.9456950153508
 20
47.999998000001142
 30
0.0
 11
2232.698472115349
 21
41.499997000000803
 31
0.0
  0
LINE
  5
3CDF
  8
0
 10
2232.698472815347
 20
54.499999000000571
 30
0.0
 11
2228.9456956153481
 21
47.999998000001142
 31
0.0
  0
LINE
  5
3CE0
  8
0
 10
2240.2040262153491
 20
-54.499995999999548
 30
0.0
 11
2232.6984720153482
 21
-54.499995999999548
 31
0.0
  0
LINE
  5
3CE1
  8
0
 10
2232.698472815347
 20
-54.499998999999661
 30
0.0
 11
2228.9456956153481
 21
-47.999997999999323
 31
0.0
  0
LINE
  5
3CE2
  8
0
 10
2228.9456950153508
 20
-47.999997999999323
 30
0.0
 11
2232.698472115349
 21
-41.499996999998977
 31
0.0
  0
LINE
  5
3CE3
  8
0
 10
2243.9568046153472
 20
-47.999997999999323
 30
0.0
 11
2240.2040275153481
 21
-41.499996999998977
 31
0.0
  0
LINE
  5
3CE4
  8
0
 10
2240.2040268153501
 20
-54.499998999999661
 30
0.0
 11
2243.9568040153499
 21
-47.999997999999323
 31
0.0
  0
LINE
  5
3CE5
  8
0
 10
2232.6984720153482
 20
-41.499999999999083
 30
0.0
 11
2240.2040262153491
 21
-41.499999999999083
 31
0.0
  0
LINE
  5
3CE6
  8
0
  6
CENTER
 10
2226.451249815349
 20
-47.999999999999091
 30
0.0
 11
2246.4512498153481
 21
-47.999999999999091
 31
0.0
  0
LINE
  5
3CE7
  8
0
  6
CENTER
 10
2236.4512500537671
 20
-57.999999999999091
 30
0.0
 11
2236.4512500537671
 21
-37.999999999999091
 31
0.0
  0
LINE
  5
3CE8
  8
0
  6
CENTER
 10
2226.451249815349
 20
48.000000000000909
 30
0.0
 11
2246.4512498153481
 21
48.000000000000909
 31
0.0
  0
LINE
  5
3CE9
  8
0
  6
CENTER
 10
2236.45124957693
 20
38.000000000000909
 30
0.0
 11
2236.45124957693
 21
58.000000000000909
 31
0.0
  0
LINE
  5
3CEA
  8
0
 10
2229.20124957693
 20
-30.854497241081841
 30
0.0
 11
2229.20124957693
 21
30.85449724108366
 31
0.0
  0
LINE
  5
3CEB
  8
0
 10
2243.70124957693
 20
-30.85449595564841
 30
0.0
 11
2243.70124957693
 21
30.85449595564933
 31
0.0
  0
LINE
  5
3CEC
  8
0
 10
2231.748647004642
 20
42.814874465865607
 30
0.0
 11
2231.7556573191941
 21
-42.808525150781861
 31
0.0
  0
LINE
  5
3CED
  8
0
 10
2241.1538521491821
 20
42.814874033369961
 30
0.0
 11
2241.146841834699
 21
-42.808524719522211
 31
0.0
  0
LINE
  5
3CEE
  8
0
 10
2231.7490509275299
 20
37.881393849752378
 30
0.0
 11
2229.20124957693
 21
30.85449724108366
 31
0.0
  0
LINE
  5
3CEF
  8
0
 10
2241.153448220673
 20
37.881393625533747
 30
0.0
 11
2243.70124957693
 21
30.85449595564933
 31
0.0
  0
LINE
  5
3CF0
  8
0
 10
2231.7492289418178
 20
35.707142142715377
 30
0.0
 11
2241.1532702120421
 21
35.707142142715377
 31
0.0
  0
LINE
  5
3CF1
  8
0
 10
2231.7490509275299
 20
-37.881393849750559
 30
0.0
 11
2229.20124957693
 21
-30.854497241081841
 31
0.0
  0
LINE
  5
3CF2
  8
0
 10
2241.153448220673
 20
-37.881393625531921
 30
0.0
 11
2243.70124957693
 21
-30.85449595564841
 31
0.0
  0
LINE
  5
3CF3
  8
0
 10
2231.7492289418178
 20
-35.707142142713558
 30
0.0
 11
2241.1532702120421
 21
-35.707142142713558
 31
0.0
  0
LINE
  5
3F44
  8
0
 10
256.95124957692673
 20
-89.999999999999091
 30
0.0
 11
256.95124957692673
 21
-75.999999999999091
 31
0.0
  0
LINE
  5
3F45
  8
0
  6
CENTER
 10
274.45124957692673
 20
-99.0
 30
0.0
 11
274.45124957692673
 21
-66.0
 31
0.0
  0
LINE
  5
3F46
  8
0
  6
CENTER
 10
364.45124957692678
 20
-99.0
 30
0.0
 11
364.45124957692678
 21
-66.0
 31
0.0
  0
LINE
  5
3F47
  8
0
 10
381.95124957692673
 20
-76.0
 30
0.0
 11
381.95124957692673
 21
-90.0
 31
0.0
  0
LINE
  5
3F48
  8
0
 10
381.95124957692673
 20
-90.0
 30
0.0
 11
256.95124957692673
 21
-89.999999999999091
 31
0.0
  0
LINE
  5
3F49
  8
0
 10
256.95124957692673
 20
-75.999999999999091
 30
0.0
 11
381.95124957692673
 21
-76.0
 31
0.0
  0
LINE
  5
3F4A
  8
0
 10
336.45124957692673
 20
-75.999999999999091
 30
0.0
 11
336.45124957692673
 21
-25.400000000000539
 31
0.0
  0
LINE
  5
3F4B
  8
0
 10
302.45124957692673
 20
-75.999999999999091
 30
0.0
 11
302.45124957692673
 21
-25.399999999999629
 31
0.0
  0
LINE
  5
3F4F
  8
0
  6
CENTER
 10
2133.4200266566691
 20
429.70270246957529
 30
0.0
 11
2105.842862190395
 21
457.27986693585069
 31
0.0
  0
LINE
  5
3F51
  8
0
  6
CENTER
 10
2133.4200266566691
 20
393.6402566290617
 30
0.0
 11
2105.842862190395
 21
366.06309216278618
 31
0.0
  0
LINE
  5
3F52
  8
0
  6
CENTER
 10
2169.4824724971841
 20
429.70270246957529
 30
0.0
 11
2197.0596369634582
 21
457.27986693585069
 31
0.0
  0
LINE
  5
3F55
  8
0
  6
CENTER
 10
2169.4824724971841
 20
393.6402566290617
 30
0.0
 11
2197.0596369634582
 21
366.06309216278618
 31
0.0
  0
ARC
  5
3F57
  8
AM_0_T3
 10
319.45124957692309
 20
-44.272201779340321
 30
0.0
 40
25.400000000004368
 50
47.987606487091533
 51
132.0123935129084
  0
ARC
  5
3F58
  8
0
 10
319.45124957692673
 20
411.67147954931801
 30
0.0
 40
62.5
 50
23.978888137788019
 51
156.02111186221191
  0
ARC
  5
3F59
  8
0
 10
319.45124957692673
 20
411.67147954931801
 30
0.0
 40
62.5
 50
203.978888137788
 51
336.02111186221191
  0
ARC
  5
3F5A
  8
0
  6
CENTER
 10
319.45124957692673
 20
411.67147954931801
 30
0.0
 40
45.0
 50
34.363721430720162
 51
145.6362785692798
  0
ARC
  5
3F5B
  8
0
  6
CENTER
 10
319.45124957692673
 20
411.67147954931801
 30
0.0
 40
45.0
 50
214.36372143072009
 51
325.6362785692798
  0
ARC
  5
3F5C
  8
0
 10
351.27105473032128
 20
443.49128470271262
 30
0.0
 40
9.5
 50
317.4861068608048
 51
222.51389313919501
  0
LINE
  5
3F5D
  8
0
  6
CENTER
 10
337.48247249718401
 20
429.70270246957529
 30
0.0
 11
365.05963696345862
 21
457.27986693585069
 31
0.0
  0
ARC
  5
3F5E
  8
0
 10
351.27105473032128
 20
379.85167439592351
 30
0.0
 40
9.5
 50
137.48610686080491
 51
42.51389313919509
  0
LINE
  5
3F5F
  8
0
  6
CENTER
 10
337.48247249718401
 20
393.6402566290617
 30
0.0
 11
365.05963696345862
 21
366.06309216278618
 31
0.0
  0
LINE
  5
3F60
  8
0
  6
CENTER
 10
301.42002665666951
 20
429.70270246957529
 30
0.0
 11
273.8428621903949
 21
457.27986693585069
 31
0.0
  0
ARC
  5
3F61
  8
0
 10
287.63144442353217
 20
443.49128470271262
 30
0.0
 40
9.5
 50
317.4861068608048
 51
222.51389313919501
  0
ARC
  5
3F62
  8
0
 10
287.63144442353217
 20
379.85167439592351
 30
0.0
 40
9.5
 50
137.48610686080491
 51
42.51389313919509
  0
LINE
  5
3F63
  8
0
  6
CENTER
 10
301.42002665666951
 20
393.6402566290617
 30
0.0
 11
273.8428621903949
 21
366.06309216278618
 31
0.0
  0
LINE
  5
3F64
  8
0
 10
2229.20124957693
 20
25.400000000000539
 30
0.0
 11
2168.4512495769259
 21
25.399999999999629
 31
0.0
  0
LINE
  5
3F65
  8
0
 10
2134.4512495769268
 20
25.400000000000539
 30
0.0
 11
1272.1108793763119
 21
25.400000000000539
 31
0.0
  0
LINE
  5
3F66
  8
0
 10
2213.9512495769259
 20
90.0
 30
0.0
 11
2213.9512495769259
 21
76.0
 31
0.0
  0
LINE
  5
3F67
  8
0
  6
CENTER
 10
2196.4512495769259
 20
99.000000000000895
 30
0.0
 11
2196.4512495769259
 21
66.000000000000909
 31
0.0
  0
LINE
  5
3F68
  8
0
  6
CENTER
 10
2106.4512495769259
 20
99.000000000000895
 30
0.0
 11
2106.4512495769259
 21
66.000000000000909
 31
0.0
  0
LINE
  5
3F69
  8
0
 10
2088.9512495769259
 20
76.000000000000909
 30
0.0
 11
2088.9512495769259
 21
90.000000000000895
 31
0.0
  0
LINE
  5
3F6A
  8
0
 10
2088.9512495769259
 20
90.000000000000895
 30
0.0
 11
2213.9512495769259
 21
90.0
 31
0.0
  0
LINE
  5
3F6B
  8
0
 10
2213.9512495769259
 20
76.0
 30
0.0
 11
2088.9512495769259
 21
76.000000000000909
 31
0.0
  0
LINE
  5
3F6C
  8
0
 10
2134.4512495769268
 20
76.0
 30
0.0
 11
2134.4512495769268
 21
25.400000000000539
 31
0.0
  0
LINE
  5
3F6D
  8
0
 10
2168.4512495769259
 20
76.0
 30
0.0
 11
2168.4512495769259
 21
25.399999999999629
 31
0.0
  0
ARC
  5
3F6E
  8
AM_0_T3
 10
2151.45124957693
 20
44.272201779340321
 30
0.0
 40
25.400000000004368
 50
227.98760648707409
 51
312.01239351290837
  0
LINE
  5
3FC8
  8
0
  6
CENTER
 10
2151.45124957693
 20
327.67151673118769
 30
0.0
 11
2151.45124957693
 21
495.6714423674502
 31
0.0
  0
LINE
  5
3FCB
  8
0
  6
CENTER
 10
2151.4512495769259
 20
99.000000000000895
 30
0.0
 11
2151.4512495769259
 21
0.0
 31
0.0
  0
LINE
  5
3FCE
  8
0
  6
CENTER
 10
319.45124957692673
 20
-98.0
 30
0.0
 11
319.45124957692673
 21
0.0
 31
0.0
  0
LINE
  5
3FD1
  8
0
  6
CENTER
 10
319.45124957692673
 20
478.17147954931801
 30
0.0
 11
319.45124957692673
 21
345.17147954931801
 31
0.0
  0
TEXT
  5
46B3
  8
0
 10
853.30839243407331
 20
534.28139750375885
 30
0.0
 40
50.0
  1
2SX2000L-25AX10A
 72
     4
 11
1235.45124957693
 21
559.28139750375885
 31
0.0
  0
ARC
  5
47CF
  8
0
 10
201.74081610947169
 20
-2.6999999999998181
 30
0.0
 40
2.0
 50
200.00000000008939
 51
270.0
1001
GENIUS_GENODEF_13
1002
{
1000
HIER
1070
     0
1002
}
1002
{
1000
MANEDIT
1070
     0
1002
}
1002
{
1000
NOSEL
1070
     0
1002
}
1002
{
1000
BEHIND
1070
     0
1002
}
1002
{
1000
OTHER
1070
     0
1002
}
1002
{
1000
REACTOR
1002
}
1001
GENIUS_GENOBJ-N-FIL_13
1002
{
1000
OWNER
1000
GEN
1002
}
  0
ARC
  5
47D0
  8
0
 10
196.74108354636331
 20
2.8500000000003629
 30
0.0
 40
0.8
 50
20.000000000089418
 51
90.0
1001
GENIUS_GENODEF_13
1002
{
1000
HIER
1070
     0
1002
}
1002
{
1000
MANEDIT
1070
     0
1002
}
1002
{
1000
NOSEL
1070
     0
1002
}
1002
{
1000
BEHIND
1070
     0
1002
}
1002
{
1000
OTHER
1070
     0
1002
}
1002
{
1000
REACTOR
1002
}
1001
GENIUS_GENOBJ-N-FIL_13
1002
{
1000
OWNER
1000
GEN
1002
}
  0
ARC
  5
47D1
  8
0
 10
201.74081610947169
 20
-24.0
 30
0.0
 40
2.0
 50
90.0
 51
159.9999999999105
1001
GENIUS_GENODEF_13
1002
{
1000
HIER
1070
     0
1002
}
1002
{
1000
MANEDIT
1070
     0
1002
}
1002
{
1000
NOSEL
1070
     0
1002
}
1002
{
1000
BEHIND
1070
     0
1002
}
1002
{
1000
OTHER
1070
     0
1002
}
1002
{
1000
REACTOR
1002
}
1001
GENIUS_GENOBJ-N-FIL_13
1002
{
1000
OWNER
1000
GEN
1002
}
  0
ARC
  5
47D2
  8
0
 10
196.74108354636331
 20
-29.549999999999731
 30
0.0
 40
0.8
 50
270.0
 51
339.99999999991047
1001
GENIUS_GENODEF_13
1002
{
1000
HIER
1070
     0
1002
}
1002
{
1000
MANEDIT
1070
     0
1002
}
1002
{
1000
NOSEL
1070
     0
1002
}
1002
{
1000
BEHIND
1070
     0
1002
}
1002
{
1000
OTHER
1070
     0
1002
}
1002
{
1000
REACTOR
1002
}
1001
GENIUS_GENOBJ-N-FIL_13
1002
{
1000
OWNER
1000
GEN
1002
}
  0
LINE
  5
47D3
  8
0
 10
2276.45124957693
 20
428.67147954931801
 30
0.0
 11
2276.45124957693
 21
394.67147954931801
 31
0.0
  0
LINE
  5
47D4
  8
0
 10
2273.6012495769319
 20
427.92051118870222
 30
0.0
 11
2273.6012495769319
 21
395.42244790993391
 31
0.0
  0
LINE
  5
47D5
  8
0
  6
CENTER
 10
2278.657219603766
 20
411.67147954931801
 30
0.0
 11
192.2452795500939
 21
411.67147954931801
 31
0.0
  0
LINE
  5
47D6
  8
0
 10
2274.161415607497
 20
394.67147954931801
 30
0.0
 11
2276.45124957693
 21
394.67147954931801
 31
0.0
  0
LINE
  5
47D7
  8
0
 10
2269.1616830443891
 20
403.02147954931792
 30
0.0
 11
2257.45124957693
 21
403.02147954931792
 31
0.0
  0
ARC
  5
47D8
  8
0
 10
2269.1616830443891
 20
401.02147954931797
 30
0.0
 40
2.0
 50
20.000000000064929
 51
90.0
1001
GENIUS_GENODEF_13
1002
{
1000
HIER
1070
     0
1002
}
1002
{
1000
MANEDIT
1070
     0
1002
}
1002
{
1000
NOSEL
1070
     0
1002
}
1002
{
1000
BEHIND
1070
     0
1002
}
1002
{
1000
OTHER
1070
     0
1002
}
1002
{
1000
REACTOR
1002
}
1001
GENIUS_GENOBJ-N-FIL_13
1002
{
1000
OWNER
1000
GEN
1002
}
  0
LINE
  5
47D9
  8
0
 10
2270.5621822178719
 20
403.0214704462673
 30
0.0
 11
2270.562097825346
 21
420.3214886523682
 31
0.0
  0
LINE
  5
47DA
  8
0
 10
2273.4096615108679
 20
395.19786343465728
 30
0.0
 11
2271.0410682859579
 21
401.70551983596943
 31
0.0
  0
ARC
  5
47DB
  8
0
 10
2274.161415607497
 20
395.47147954931779
 30
0.0
 40
0.8
 50
200.00000000006489
 51
270.0
1001
GENIUS_GENODEF_13
1002
{
1000
HIER
1070
     0
1002
}
1002
{
1000
MANEDIT
1070
     0
1002
}
1002
{
1000
NOSEL
1070
     0
1002
}
1002
{
1000
BEHIND
1070
     0
1002
}
1002
{
1000
OTHER
1070
     0
1002
}
1002
{
1000
REACTOR
1002
}
1001
GENIUS_GENOBJ-N-FIL_13
1002
{
1000
OWNER
1000
GEN
1002
}
  0
LINE
  5
47DC
  8
0
 10
2274.161415607497
 20
428.67147954931801
 30
0.0
 11
2276.45124957693
 21
428.67147954931801
 31
0.0
  0
LINE
  5
47DD
  8
0
 10
2269.1616830443891
 20
420.3214795493181
 30
0.0
 11
2257.45124957693
 21
420.3214795493181
 31
0.0
  0
ARC
  5
47DE
  8
0
 10
2269.1616830443891
 20
422.32147954931821
 30
0.0
 40
2.0
 50
270.0
 51
339.99999999993503
1001
GENIUS_GENODEF_13
1002
{
1000
HIER
1070
     0
1002
}
1002
{
1000
MANEDIT
1070
     0
1002
}
1002
{
1000
NOSEL
1070
     0
1002
}
1002
{
1000
BEHIND
1070
     0
1002
}
1002
{
1000
OTHER
1070
     0
1002
}
1002
{
1000
REACTOR
1002
}
1001
GENIUS_GENOBJ-N-FIL_13
1002
{
1000
OWNER
1000
GEN
1002
}
  0
LINE
  5
47DF
  8
0
 10
2273.4096615108679
 20
428.14509566397822
 30
0.0
 11
2271.0410682859579
 21
421.6374392626667
 31
0.0
  0
ARC
  5
47E0
  8
0
 10
2274.161415607497
 20
427.87147954931783
 30
0.0
 40
0.8
 50
90.0
 51
159.999999999935
1001
GENIUS_GENODEF_13
1002
{
1000
HIER
1070
     0
1002
}
1002
{
1000
MANEDIT
1070
     0
1002
}
1002
{
1000
NOSEL
1070
     0
1002
}
1002
{
1000
BEHIND
1070
     0
1002
}
1002
{
1000
OTHER
1070
     0
1002
}
1002
{
1000
REACTOR
1002
}
1001
GENIUS_GENOBJ-N-FIL_13
1002
{
1000
OWNER
1000
GEN
1002
}
  0
LINE
  5
47E1
  8
0
  6
CENTER
 10
205.45124957693039
 20
0.0
 30
0.0
 11
2265.45124957693
 21
0.0
 31
0.0
  0
LINE
  5
47E2
  8
0
 10
197.30124957692891
 20
-29.599031639384059
 30
0.0
 11
197.30124957692891
 21
2.8990316393842468
 31
0.0
  0
LINE
  5
47E3
  8
0
  6
CENTER
 10
214.04256055544101
 20
-13.349999999999911
 30
0.0
 11
192.2452795500939
 21
-13.349999999999911
 31
0.0
  0
LINE
  5
47E4
  8
0
 10
196.74108354636331
 20
3.6500000000000901
 30
0.0
 11
194.45124957693039
 21
3.6500000000000901
 31
0.0
  0
LINE
  5
47E5
  8
0
 10
201.74081610947169
 20
-4.6999999999998181
 30
0.0
 11
213.45124957693039
 21
-4.6999999999998181
 31
0.0
  0
LINE
  5
47E6
  8
0
 10
200.340316935988
 20
-4.6999908969492017
 30
0.0
 11
200.34040132851439
 21
-22.00000910305015
 31
0.0
  0
LINE
  5
47E7
  8
0
 10
197.4928376429925
 20
3.1236161146607619
 30
0.0
 11
199.8614308679025
 21
-3.38404028665127
 31
0.0
  0
LINE
  5
47E8
  8
0
 10
196.74108354636331
 20
-30.349999999999909
 30
0.0
 11
194.45124957693039
 21
-30.349999999999909
 31
0.0
  0
LINE
  5
47E9
  8
0
 10
201.74081610947169
 20
-22.0
 30
0.0
 11
213.45124957693039
 21
-22.0
 31
0.0
  0
LINE
  5
47EA
  8
0
 10
197.4928376429925
 20
-29.823616114660119
 30
0.0
 11
199.8614308679025
 21
-23.315959713348541
 31
0.0
  0
ARC
  5
47EB
  8
0
 10
2269.1616830443891
 20
2.6999999999998181
 30
0.0
 40
2.0
 50
20.000000000064929
 51
90.0
1001
GENIUS_GENODEF_13
1002
{
1000
HIER
1070
     0
1002
}
1002
{
1000
MANEDIT
1070
     0
1002
}
1002
{
1000
NOSEL
1070
     0
1002
}
1002
{
1000
BEHIND
1070
     0
1002
}
1002
{
1000
OTHER
1070
     0
1002
}
1002
{
1000
REACTOR
1002
}
1001
GENIUS_GENOBJ-N-FIL_13
1002
{
1000
OWNER
1000
GEN
1002
}
  0
ARC
  5
47EC
  8
0
 10
2274.161415607497
 20
-2.8500000000003629
 30
0.0
 40
0.8
 50
200.00000000006489
 51
270.0
1001
GENIUS_GENODEF_13
1002
{
1000
HIER
1070
     0
1002
}
1002
{
1000
MANEDIT
1070
     0
1002
}
1002
{
1000
NOSEL
1070
     0
1002
}
1002
{
1000
BEHIND
1070
     0
1002
}
1002
{
1000
OTHER
1070
     0
1002
}
1002
{
1000
REACTOR
1002
}
1001
GENIUS_GENOBJ-N-FIL_13
1002
{
1000
OWNER
1000
GEN
1002
}
  0
ARC
  5
47ED
  8
0
 10
2269.1616830443891
 20
24.0
 30
0.0
 40
2.0
 50
270.0
 51
339.99999999993503
1001
GENIUS_GENODEF_13
1002
{
1000
HIER
1070
     0
1002
}
1002
{
1000
MANEDIT
1070
     0
1002
}
1002
{
1000
NOSEL
1070
     0
1002
}
1002
{
1000
BEHIND
1070
     0
1002
}
1002
{
1000
OTHER
1070
     0
1002
}
1002
{
1000
REACTOR
1002
}
1001
GENIUS_GENOBJ-N-FIL_13
1002
{
1000
OWNER
1000
GEN
1002
}
  0
ARC
  5
47EE
  8
0
 10
2274.161415607497
 20
29.549999999999731
 30
0.0
 40
0.8
 50
90.0
 51
159.999999999935
1001
GENIUS_GENODEF_13
1002
{
1000
HIER
1070
     0
1002
}
1002
{
1000
MANEDIT
1070
     0
1002
}
1002
{
1000
NOSEL
1070
     0
1002
}
1002
{
1000
BEHIND
1070
     0
1002
}
1002
{
1000
OTHER
1070
     0
1002
}
1002
{
1000
REACTOR
1002
}
1001
GENIUS_GENOBJ-N-FIL_13
1002
{
1000
OWNER
1000
GEN
1002
}
  0
LINE
  5
47EF
  8
0
 10
2276.45124957693
 20
30.349999999999909
 30
0.0
 11
2276.45124957693
 21
-3.6500000000000901
 31
0.0
  0
LINE
  5
47F0
  8
0
 10
2273.6012495769319
 20
29.599031639384059
 30
0.0
 11
2273.6012495769319
 21
-2.8990316393842468
 31
0.0
  0
LINE
  5
47F1
  8
0
  6
CENTER
 10
2256.8599385984198
 20
13.349999999999911
 30
0.0
 11
2278.657219603766
 21
13.349999999999911
 31
0.0
  0
LINE
  5
47F2
  8
0
 10
2274.161415607497
 20
-3.6500000000000901
 30
0.0
 11
2276.45124957693
 21
-3.6500000000000901
 31
0.0
  0
LINE
  5
47F3
  8
0
 10
2269.1616830443891
 20
4.6999999999998181
 30
0.0
 11
2257.45124957693
 21
4.6999999999998181
 31
0.0
  0
LINE
  5
47F4
  8
0
 10
2270.5621822178719
 20
4.6999908969492017
 30
0.0
 11
2270.562097825346
 21
22.00000910305015
 31
0.0
  0
LINE
  5
47F5
  8
0
 10
2273.4096615108679
 20
-3.1236161146607619
 30
0.0
 11
2271.0410682859579
 21
3.38404028665127
 31
0.0
  0
LINE
  5
47F6
  8
0
 10
2274.161415607497
 20
30.349999999999909
 30
0.0
 11
2276.45124957693
 21
30.349999999999909
 31
0.0
  0
LINE
  5
47F7
  8
0
 10
2269.1616830443891
 20
22.0
 30
0.0
 11
2257.45124957693
 21
22.0
 31
0.0
  0
LINE
  5
47F8
  8
0
 10
2273.4096615108679
 20
29.823616114660119
 30
0.0
 11
2271.0410682859579
 21
23.315959713348541
 31
0.0
  0
LINE
  5
47F9
  8
0
 10
194.45124957693039
 20
428.67147954931801
 30
0.0
 11
194.45124957693039
 21
394.67147954931801
 31
0.0
  0
LINE
  5
47FA
  8
0
 10
197.30124957692891
 20
427.92051118870222
 30
0.0
 11
197.30124957692891
 21
395.42244790993391
 31
0.0
  0
LINE
  5
47FB
  8
0
 10
196.74108354636331
 20
394.67147954931801
 30
0.0
 11
194.45124957693039
 21
394.67147954931801
 31
0.0
  0
LINE
  5
47FC
  8
0
 10
201.74081610947169
 20
403.02147954931792
 30
0.0
 11
213.45124957693039
 21
403.02147954931792
 31
0.0
  0
ARC
  5
47FD
  8
0
 10
201.74081610947169
 20
401.02147954931797
 30
0.0
 40
2.0
 50
90.0
 51
159.9999999999105
1001
GENIUS_GENODEF_13
1002
{
1000
HIER
1070
     0
1002
}
1002
{
1000
MANEDIT
1070
     0
1002
}
1002
{
1000
NOSEL
1070
     0
1002
}
1002
{
1000
BEHIND
1070
     0
1002
}
1002
{
1000
OTHER
1070
     0
1002
}
1002
{
1000
REACTOR
1002
}
1001
GENIUS_GENOBJ-N-FIL_13
1002
{
1000
OWNER
1000
GEN
1002
}
  0
LINE
  5
47FE
  8
0
 10
200.340316935988
 20
403.0214704462673
 30
0.0
 11
200.34040132851439
 21
420.3214886523682
 31
0.0
  0
LINE
  5
47FF
  8
0
 10
197.4928376429925
 20
395.19786343465728
 30
0.0
 11
199.8614308679025
 21
401.70551983596943
 31
0.0
  0
ARC
  5
4800
  8
0
 10
196.74108354636331
 20
395.47147954931779
 30
0.0
 40
0.8
 50
270.0
 51
339.99999999991047
1001
GENIUS_GENODEF_13
1002
{
1000
HIER
1070
     0
1002
}
1002
{
1000
MANEDIT
1070
     0
1002
}
1002
{
1000
NOSEL
1070
     0
1002
}
1002
{
1000
BEHIND
1070
     0
1002
}
1002
{
1000
OTHER
1070
     0
1002
}
1002
{
1000
REACTOR
1002
}
1001
GENIUS_GENOBJ-N-FIL_13
1002
{
1000
OWNER
1000
GEN
1002
}
  0
LINE
  5
4801
  8
0
 10
196.74108354636331
 20
428.67147954931801
 30
0.0
 11
194.45124957693039
 21
428.67147954931801
 31
0.0
  0
LINE
  5
4802
  8
0
 10
201.74081610947169
 20
420.3214795493181
 30
0.0
 11
213.45124957693039
 21
420.3214795493181
 31
0.0
  0
ARC
  5
4803
  8
0
 10
201.74081610947169
 20
422.32147954931821
 30
0.0
 40
2.0
 50
200.00000000008939
 51
270.0
1001
GENIUS_GENODEF_13
1002
{
1000
HIER
1070
     0
1002
}
1002
{
1000
MANEDIT
1070
     0
1002
}
1002
{
1000
NOSEL
1070
     0
1002
}
1002
{
1000
BEHIND
1070
     0
1002
}
1002
{
1000
OTHER
1070
     0
1002
}
1002
{
1000
REACTOR
1002
}
1001
GENIUS_GENOBJ-N-FIL_13
1002
{
1000
OWNER
1000
GEN
1002
}
  0
LINE
  5
4804
  8
0
 10
197.4928376429925
 20
428.14509566397822
 30
0.0
 11
199.8614308679025
 21
421.6374392626667
 31
0.0
  0
ARC
  5
4805
  8
0
 10
196.74108354636331
 20
427.87147954931783
 30
0.0
 40
0.8
 50
20.000000000089418
 51
90.0
1001
GENIUS_GENODEF_13
1002
{
1000
HIER
1070
     0
1002
}
1002
{
1000
MANEDIT
1070
     0
1002
}
1002
{
1000
NOSEL
1070
     0
1002
}
1002
{
1000
BEHIND
1070
     0
1002
}
1002
{
1000
OTHER
1070
     0
1002
}
1002
{
1000
REACTOR
1002
}
1001
GENIUS_GENOBJ-N-FIL_13
1002
{
1000
OWNER
1000
GEN
1002
}
  0
LINE
  5
492A
  8
AM_0_T3
 10
194.45124957693039
 20
3.6500000000000901
 30
0.0
 11
194.45124957693039
 21
-30.349999999999909
 31
0.0
  0
CIRCLE
  5
62DA
  8
0
 10
2151.4512495769259
 20
411.67147954931801
 30
0.0
 40
62.5
  0
CIRCLE
  5
62DB
  8
0
  6
CENTER
 10
2151.4512495769259
 20
411.67147954931801
 30
0.0
 40
45.0
  0
CIRCLE
  5
62DC
  8
0
 10
2119.6314444235318
 20
443.49128470271262
 30
0.0
 40
9.5
  0
CIRCLE
  5
62DD
  8
0
 10
2119.6314444235318
 20
379.85167439592351
 30
0.0
 40
9.5
  0
CIRCLE
  5
62DE
  8
0
 10
2183.2710547303209
 20
443.49128470271262
 30
0.0
 40
9.5
  0
CIRCLE
  5
62DF
  8
0
 10
2183.2710547303209
 20
379.85167439592351
 30
0.0
 40
9.5
  0
CIRCLE
  5
62E0
  8
AM_0_T3
 10
2151.4512495769259
 20
411.67147954931801
 30
0.0
 40
17.0
  0
LINE
  5
6990
  8
0
 10
3.0
 20
-55.0
 30
0.0
 11
3.0000000000036371
 21
-30.08320053068109
 31
0.0
  0
LINE
  5
6991
  8
0
 10
13.0
 20
-55.0
 30
0.0
 11
13.0
 21
-35.707142000000204
 31
0.0
  0
LINE
  5
6992
  8
0
 10
-3.0
 20
-55.0
 30
0.0
 11
-2.999999999996362
 21
-30.083200530681999
 31
0.0
  0
LINE
  5
6993
  8
0
 10
-13.0
 20
-55.0
 30
0.0
 11
-13.0
 21
-35.707142000000204
 31
0.0
  0
LINE
  5
6994
  8
0
 10
13.0
 20
55.0
 30
0.0
 11
13.0
 21
35.707142000000204
 31
0.0
  0
LINE
  5
6995
  8
0
 10
3.0
 20
55.0
 30
0.0
 11
3.0
 21
28.844409999999701
 31
0.0
  0
LINE
  5
6996
  8
0
 10
-3.0
 20
55.0
 30
0.0
 11
-3.0
 21
28.844409999999701
 31
0.0
  0
LINE
  5
6997
  8
0
 10
-13.0
 20
55.0
 30
0.0
 11
-13.0
 21
35.707142000000204
 31
0.0
  0
LINE
  5
6998
  8
0
 10
13.0
 20
-55.0
 30
0.0
 11
3.0
 21
-55.0
 31
0.0
  0
LINE
  5
6999
  8
0
 10
-13.0
 20
-55.0
 30
0.0
 11
-3.0
 21
-55.0
 31
0.0
  0
LINE
  5
699A
  8
0
 10
13.0
 20
55.0
 30
0.0
 11
3.0
 21
55.0
 31
0.0
  0
LINE
  5
699B
  8
0
 10
-13.0
 20
55.0
 30
0.0
 11
-3.0
 21
55.0
 31
0.0
  0
LINE
  5
699C
  8
0
 10
-3.0
 20
52.0
 30
0.0
 11
3.0
 21
52.0
 31
0.0
  0
LINE
  5
699D
  8
0
 10
-3.0
 20
44.0
 30
0.0
 11
3.0
 21
44.0
 31
0.0
  0
LINE
  5
699E
  8
0
 10
-3.0
 20
-52.0
 30
0.0
 11
3.0
 21
-52.0
 31
0.0
  0
LINE
  5
699F
  8
0
 10
-3.0
 20
-44.0
 30
0.0
 11
3.0
 21
-44.0
 31
0.0
  0
LINE
  5
69A0
  8
0
 10
-27.0
 20
44.0
 30
0.0
 11
-21.499999999999989
 21
44.0
 31
0.0
  0
LINE
  5
69A1
  8
0
 10
-21.499999999999989
 20
43.0
 30
0.0
 11
-21.499999999999989
 21
53.0
 31
0.0
  0
LINE
  5
69A2
  8
0
 10
-27.0
 20
44.0
 30
0.0
 11
-27.0
 21
52.0
 31
0.0
  0
LINE
  5
69A3
  8
0
 10
-20.5
 20
42.0
 30
0.0
 11
-19.5
 21
42.0
 31
0.0
  0
LINE
  5
69A4
  8
0
 10
-20.5
 20
54.0
 30
0.0
 11
-19.5
 21
54.0
 31
0.0
  0
LINE
  5
69A5
  8
0
 10
-19.5
 20
54.5
 30
0.0
 11
-19.5
 21
41.5
 31
0.0
  0
LINE
  5
69A6
  8
0
 10
-19.5
 20
54.5
 30
0.0
 11
-13.0
 21
54.5
 31
0.0
  0
LINE
  5
69A7
  8
0
 10
-19.5
 20
41.5
 30
0.0
 11
-13.0
 21
41.5
 31
0.0
  0
LINE
  5
69A8
  8
0
 10
-27.0
 20
52.0
 30
0.0
 11
-21.499999999999989
 21
52.0
 31
0.0
  0
LINE
  5
69A9
  8
0
  6
CENTER
 10
-28.65133499999865
 20
48.0
 30
0.0
 11
22.389211999998221
 21
48.0
 31
0.0
  0
LINE
  5
69AA
  8
0
 10
-27.0
 20
-44.0
 30
0.0
 11
-21.499999999999989
 21
-44.0
 31
0.0
  0
LINE
  5
69AB
  8
0
 10
-21.499999999999989
 20
-43.0
 30
0.0
 11
-21.499999999999989
 21
-53.0
 31
0.0
  0
LINE
  5
69AC
  8
0
 10
-27.0
 20
-44.0
 30
0.0
 11
-27.0
 21
-52.0
 31
0.0
  0
LINE
  5
69AD
  8
0
 10
-20.5
 20
-42.0
 30
0.0
 11
-19.5
 21
-42.0
 31
0.0
  0
LINE
  5
69AE
  8
0
 10
-20.5
 20
-54.0
 30
0.0
 11
-19.5
 21
-54.0
 31
0.0
  0
LINE
  5
69AF
  8
0
 10
-19.5
 20
-54.5
 30
0.0
 11
-19.5
 21
-41.5
 31
0.0
  0
LINE
  5
69B0
  8
0
 10
-19.5
 20
-54.5
 30
0.0
 11
-13.0
 21
-54.5
 31
0.0
  0
LINE
  5
69B1
  8
0
 10
-19.5
 20
-41.5
 30
0.0
 11
-13.0
 21
-41.5
 31
0.0
  0
LINE
  5
69B2
  8
0
 10
-27.0
 20
-52.0
 30
0.0
 11
-21.499999999999989
 21
-52.0
 31
0.0
  0
LINE
  5
69B3
  8
0
  6
CENTER
 10
-28.65133499999865
 20
-48.0
 30
0.0
 11
21.827725999999529
 21
-48.0
 31
0.0
  0
LINE
  5
69B4
  8
0
 10
18.5
 20
-44.75
 30
0.0
 11
18.5
 21
-51.25
 31
0.0
  0
LINE
  5
69B5
  8
0
 10
17.77510600000096
 20
-41.5
 30
0.0
 11
13.0
 21
-41.5
 31
0.0
  0
LINE
  5
69B6
  8
0
 10
17.77510600000096
 20
-54.5
 30
0.0
 11
13.0
 21
-54.5
 31
0.0
  0
LINE
  5
69B7
  8
0
 10
18.5
 20
44.75
 30
0.0
 11
18.5
 21
51.25
 31
0.0
  0
LINE
  5
69B8
  8
0
 10
17.77510600000096
 20
41.5
 30
0.0
 11
13.0
 21
41.5
 31
0.0
  0
LINE
  5
69B9
  8
0
 10
17.77510600000096
 20
54.5
 30
0.0
 11
13.0
 21
54.5
 31
0.0
  0
ARC
  5
69BA
  8
0
 10
0.0
 20
0.0
 30
0.0
 40
38.0
 50
94.528059999868844
 51
265.47193499986992
  0
ARC
  5
69BB
  8
0
 10
0.0
 20
0.0
 30
0.0
 40
29.0
 50
95.937769999707484
 51
250.5744408270443
  0
ARC
  5
69BC
  8
0
 10
0.0
 20
0.0
 30
0.0
 40
31.0
 50
95.937769999707484
 51
264.06222500006641
  0
ARC
  5
69BD
  8
0
 10
0.0
 20
0.0
 30
0.0
 40
38.0
 50
274.5280629999433
 51
85.471936986258257
  0
ARC
  5
69BE
  8
0
 10
0.0
 20
0.0
 30
0.0
 40
29.0
 50
289.42555917295562
 51
84.062220000260481
  0
ARC
  5
69BF
  8
0
 10
0.0
 20
0.0
 30
0.0
 40
31.0
 50
275.93777299984362
 51
84.446555804085847
  0
ARC
  5
69C0
  8
0
 10
-20.5
 20
43.0
 30
0.0
 40
1.0
 50
179.99998999999889
 51
269.99999600002042
  0
ARC
  5
69C1
  8
0
 10
-20.5
 20
53.0
 30
0.0
 40
1.0
 50
90.0
 51
180.00000500893739
  0
ARC
  5
69C2
  8
0
 10
-11.85200500000064
 20
51.25
 30
0.0
 40
7.6479949999999981
 50
154.85263000008339
 51
205.14737500005171
  0
ARC
  5
69C3
  8
0
 10
-11.85200500000064
 20
44.75
 30
0.0
 40
7.6479949999999981
 50
154.85263000008339
 51
205.14736800011369
  0
ARC
  5
69C4
  8
0
 10
-20.647994999999352
 20
51.25
 30
0.0
 40
7.6479949999999981
 50
334.85263000008342
 51
25.147369999916581
  0
ARC
  5
69C5
  8
0
 10
-20.647994999999352
 20
44.75
 30
0.0
 40
7.6479949999999981
 50
334.85263000008342
 51
25.147369999916581
  0
ARC
  5
69C6
  8
0
 10
-20.5
 20
-43.0
 30
0.0
 40
1.0
 50
90.0
 51
180.00000500893739
  0
ARC
  5
69C7
  8
0
 10
-20.5
 20
-53.0
 30
0.0
 40
1.0
 50
179.99998999999889
 51
269.99999600002042
  0
ARC
  5
69C8
  8
0
 10
-11.85200500000064
 20
-51.25
 30
0.0
 40
7.6479949999999981
 50
154.85261999999599
 51
205.14737199986081
  0
ARC
  5
69C9
  8
0
 10
-11.85200500000064
 20
-44.75
 30
0.0
 40
7.6479949999999981
 50
154.85263000008339
 51
205.14737199986081
  0
ARC
  5
69CA
  8
0
 10
-20.647994999999352
 20
-51.25
 30
0.0
 40
7.6479949999999981
 50
334.85263000008342
 51
25.147369999916581
  0
ARC
  5
69CB
  8
0
 10
-20.647994999999352
 20
-44.75
 30
0.0
 40
7.6479949999999981
 50
334.85263000008342
 51
25.147369999916581
  0
ARC
  5
69CC
  8
0
 10
10.85200500000064
 20
-44.75
 30
0.0
 40
7.647994500000002
 50
334.85263000008342
 51
25.147369999916581
  0
ARC
  5
69CD
  8
0
 10
10.85200500000064
 20
-51.25
 30
0.0
 40
7.647994500000002
 50
334.85263000008342
 51
25.147369999916581
  0
ARC
  5
69CE
  8
0
 10
10.85200500000064
 20
44.75
 30
0.0
 40
7.647994500000002
 50
334.85263000008342
 51
25.147369999916581
  0
ARC
  5
69CF
  8
0
 10
10.85200500000064
 20
51.25
 30
0.0
 40
7.647994500000002
 50
334.85263000008342
 51
25.147369999916581
  0
LINE
  5
69D0
  8
0
  6
CENTER
 10
-55.759478892276093
 20
0.0
 30
0.0
 11
55.759478892276093
 21
0.0
 31
0.0
  0
LINE
  5
6A8C
  8
0
 10
-62.5
 20
-89.999999999999545
 30
0.0
 11
-62.5
 21
-75.999999999999545
 31
0.0
  0
LINE
  5
6A8D
  8
0
  6
CENTER
 10
-45.0
 20
-99.000000000000455
 30
0.0
 11
-45.0
 21
-66.000000000000455
 31
0.0
  0
LINE
  5
6A8E
  8
0
  6
CENTER
 10
45.0
 20
-99.000000000000455
 30
0.0
 11
45.0
 21
-66.000000000000455
 31
0.0
  0
LINE
  5
6A8F
  8
0
 10
62.5
 20
-76.000000000000455
 30
0.0
 11
62.5
 21
-90.000000000000455
 31
0.0
  0
LINE
  5
6A90
  8
0
 10
62.5
 20
-90.000000000000455
 30
0.0
 11
-62.5
 21
-89.999999999999545
 31
0.0
  0
LINE
  5
6A91
  8
0
 10
-62.5
 20
-75.999999999999545
 30
0.0
 11
62.5
 21
-76.000000000000455
 31
0.0
  0
LINE
  5
6A92
  8
0
 10
17.0
 20
-75.999999999999545
 30
0.0
 11
17.0
 21
-54.499999999999538
 31
0.0
  0
LINE
  5
6A93
  8
0
 10
17.0
 20
-41.5
 30
0.0
 11
17.0
 21
-33.985290935933328
 31
0.0
  0
LINE
  5
6A94
  8
0
 10
-17.0
 20
-75.999999999999545
 30
0.0
 11
-17.0
 21
-54.5
 31
0.0
  0
LINE
  5
6A95
  8
0
 10
-17.0
 20
-41.5
 30
0.0
 11
-17.0
 21
-33.985290935933328
 31
0.0
  0
LINE
  5
6A96
  8
0
 10
-62.5
 20
89.999999999999545
 30
0.0
 11
-62.5
 21
75.999999999999545
 31
0.0
  0
LINE
  5
6A97
  8
0
  6
CENTER
 10
-45.0
 20
99.000000000000455
 30
0.0
 11
-45.0
 21
66.000000000000455
 31
0.0
  0
LINE
  5
6A98
  8
0
  6
CENTER
 10
45.0
 20
99.000000000000455
 30
0.0
 11
45.0
 21
66.000000000000455
 31
0.0
  0
LINE
  5
6A99
  8
0
 10
62.5
 20
76.000000000000455
 30
0.0
 11
62.5
 21
90.000000000000455
 31
0.0
  0
LINE
  5
6A9A
  8
0
 10
62.5
 20
90.000000000000455
 30
0.0
 11
-62.5
 21
89.999999999999545
 31
0.0
  0
LINE
  5
6A9B
  8
0
 10
-62.5
 20
75.999999999999545
 30
0.0
 11
62.5
 21
76.000000000000455
 31
0.0
  0
LINE
  5
6A9C
  8
0
 10
17.0
 20
75.999999999999545
 30
0.0
 11
17.0
 21
54.5
 31
0.0
  0
LINE
  5
6A9D
  8
0
 10
17.0
 20
41.500000000000448
 30
0.0
 11
17.0
 21
33.985290935933328
 31
0.0
  0
LINE
  5
6A9E
  8
0
 10
-17.0
 20
75.999999999999545
 30
0.0
 11
-17.0
 21
54.499999999999538
 31
0.0
  0
LINE
  5
6A9F
  8
0
 10
-17.0
 20
41.5
 30
0.0
 11
-17.0
 21
33.985290935933328
 31
0.0
  0
LINE
  5
6AA0
  8
0
  6
CENTER
 10
0.0
 20
99.000000000000455
 30
0.0
 11
0.0
 21
-99.000000000000455
 31
0.0
  0
LINE
  5
6AA1
  8
0
  6
CENTER
 10
-22.104679705953451
 20
-13.349999999999911
 30
0.0
 11
22.104679705953451
 21
-13.349999999999911
 31
0.0
  0
CIRCLE
  5
6AA6
  8
AM_0_T3
 10
0.0
 20
-13.349999999999911
 30
0.0
 40
17.0
  0
CIRCLE
  5
6AA7
  8
AM_0_T3
 10
0.0
 20
-13.349999999999911
 30
0.0
 40
8.6500000000000892
  0
ENDSEC
  0
EOF
