  0
SECTION
  2
HEADER
  9
$ACADVER
  1
AC1009
  9
$INSBASE
 10
0.0
 20
0.0
 30
0.0
  9
$EXTMIN
 10
-55.759478892276093
 20
-98.999999999999091
 30
0.0
  9
$EXTMAX
 10
2282.59999229799
 20
584.28139750375885
 30
0.0
  9
$LIMMIN
 10
0.0
 20
0.0
  9
$LIMMAX
 10
420.0
 20
297.0
  9
$ORTHOMODE
 70
     0
  9
$REGENMODE
 70
     1
  9
$FILLMODE
 70
     1
  9
$QTEXTMODE
 70
     0
  9
$MIRRTEXT
 70
     1
  9
$DRAGMODE
 70
     2
  9
$LTSCALE
 40
1.0
  9
$OSMODE
 70
    37
  9
$ATTMODE
 70
     1
  9
$TEXTSIZE
 40
73.985717453579113
  9
$TRACEWID
 40
1.0
  9
$TEXTSTYLE
  7
STANDARD
  9
$CLAYER
  8
0
  9
$CELTYPE
  6
BYLAYER
  9
$CECOLOR
 62
   256
  9
$DIMSCALE
 40
1.0
  9
$DIMASZ
 40
3.0
  9
$DIMEXO
 40
1.0
  9
$DIMDLI
 40
10.0
  9
$DIMRND
 40
0.0
  9
$DIMDLE
 40
0.0
  9
$DIMEXE
 40
1.0
  9
$DIMTP
 40
0.1
  9
$DIMTM
 40
0.1
  9
$DIMTXT
 40
30.0
  9
$DIMCEN
 40
0.0
  9
$DIMTSZ
 40
0.0
  9
$DIMTOL
 70
     0
  9
$DIMLIM
 70
     0
  9
$DIMTIH
 70
     0
  9
$DIMTOH
 70
     0
  9
$DIMSE1
 70
     0
  9
$DIMSE2
 70
     0
  9
$DIMTAD
 70
     3
  9
$DIMZIN
 70
     8
  9
$DIMBLK
  1
OPEN
  9
$DIMASO
 70
     1
  9
$DIMSHO
 70
     1
  9
$DIMPOST
  1

  9
$DIMAPOST
  1
"
  9
$DIMALT
 70
     0
  9
$DIMALTD
 70
     2
  9
$DIMALTF
 40
0.0393701
  9
$DIMLFAC
 40
1.0
  9
$DIMTOFL
 70
     1
  9
$DIMTVP
 40
0.0
  9
$DIMTIX
 70
     0
  9
$DIMSOXD
 70
     0
  9
$DIMSAH
 70
     0
  9
$DIMBLK1
  1

  9
$DIMBLK2
  1

  9
$DIMSTYLE
  2
TSK
  9
$DIMCLRD
 70
   256
  9
$DIMCLRE
 70
   256
  9
$DIMCLRT
 70
     2
  9
$DIMTFAC
 40
0.71
  9
$DIMGAP
 40
1.5
  9
$LUNITS
 70
     2
  9
$LUPREC
 70
     8
  9
$SKETCHINC
 40
1.0
  9
$FILLETRAD
 40
0.0
  9
$AUNITS
 70
     0
  9
$AUPREC
 70
     8
  9
$MENU
  1
.
  9
$ELEVATION
 40
0.0
  9
$PELEVATION
 40
0.0
  9
$THICKNESS
 40
0.0
  9
$LIMCHECK
 70
     0
  9
$BLIPMODE
 70
     0
  9
$CHAMFERA
 40
2.5
  9
$CHAMFERB
 40
2.5
  9
$SKPOLY
 70
     0
  9
$TDCREATE
 40
2454739.7204081588
  9
$TDUPDATE
 40
2454749.6552924188
  9
$TDINDWG
 40
0.2791941667
  9
$TDUSRTIMER
 40
0.2791941667
  9
$USRTIMER
 70
     1
  9
$ANGBASE
 50
0.0
  9
$ANGDIR
 70
     1
  9
$PDMODE
 70
     0
  9
$PDSIZE
 40
0.0
  9
$PLINEWID
 40
0.0
  9
$COORDS
 70
     1
  9
$SPLFRAME
 70
     0
  9
$SPLINETYPE
 70
     6
  9
$SPLINESEGS
 70
     8
  9
$ATTDIA
 70
     0
  9
$ATTREQ
 70
     1
  9
$HANDLING
 70
 22529
  9
$HANDSEED
  5
6BC6
  9
$SURFTAB1
 70
     6
  9
$SURFTAB2
 70
     6
  9
$SURFTYPE
 70
     6
  9
$SURFU
 70
     6
  9
$SURFV
 70
     6
  9
$UCSNAME
  2

  9
$UCSORG
 10
0.0
 20
0.0
 30
0.0
  9
$UCSXDIR
 10
1.0
 20
0.0
 30
0.0
  9
$UCSYDIR
 10
0.0
 20
1.0
 30
0.0
  9
$PUCSNAME
  2

  9
$PUCSORG
 10
0.0
 20
0.0
 30
0.0
  9
$PUCSXDIR
 10
1.0
 20
0.0
 30
0.0
  9
$PUCSYDIR
 10
0.0
 20
1.0
 30
0.0
  9
$USERI1
 70
     0
  9
$USERI2
 70
     0
  9
$USERI3
 70
     0
  9
$USERI4
 70
     0
  9
$USERI5
 70
     0
  9
$USERR1
 40
0.0
  9
$USERR2
 40
0.0
  9
$USERR3
 40
0.0
  9
$USERR4
 40
0.0
  9
$USERR5
 40
0.0
  9
$WORLDVIEW
 70
     1
  9
$SHADEDGE
 70
     3
  9
$SHADEDIF
 70
    70
  9
$TILEMODE
 70
     1
  9
$MAXACTVP
 70
    48
  9
$PLIMCHECK
 70
     0
  9
$PEXTMIN
 10
1.0000000000000000E+020
 20
1.0000000000000000E+020
 30
1.0000000000000000E+020
  9
$PEXTMAX
 10
-1.0000000000000000E+020
 20
-1.0000000000000000E+020
 30
-1.0000000000000000E+020
  9
$PLIMMIN
 10
0.0
 20
0.0
  9
$PLIMMAX
 10
420.0
 20
297.0
  9
$UNITMODE
 70
     0
  9
$VISRETAIN
 70
     1
  9
$PLINEGEN
 70
     0
  9
$PSLTSCALE
 70
     1
  0
ENDSEC
  0
SECTION
  2
TABLES
  0
TABLE
  2
VPORT
 70
     3
  0
VPORT
  2
*ACTIVE
 70
     0
 10
0.0
 20
0.0
 11
1.0
 21
1.0
 12
1167.3371744369349
 22
242.62843382204241
 13
0.0
 23
0.0
 14
2.5
 24
2.5
 15
10.0
 25
10.0
 16
0.0
 26
0.0
 36
1.0
 17
0.0
 27
0.0
 37
0.0
 40
1642.923692371952
 41
1.531806615776081
 42
50.0
 43
0.0
 44
0.0
 50
0.0
 51
0.0
 71
     0
 72
   100
 73
     1
 74
     3
 75
     0
 76
     0
 77
     0
 78
     0
  0
ENDTAB
  0
TABLE
  2
LTYPE
 70
     2
  0
LTYPE
  2
CONTINUOUS
 70
     0
  3
Solid line
 72
    65
 73
     0
 40
0.0
  0
LTYPE
  2
CENTER
 70
     0
  3
__ . __
 72
    65
 73
     4
 40
7.0
 49
4.0
 49
-1.0
 49
1.0
 49
-1.0
  0
ENDTAB
  0
TABLE
  2
LAYER
 70
     2
  0
LAYER
  2
0
 70
     0
 62
     7
  6
CONTINUOUS
  0
LAYER
  2
AM_0_T3
 70
     0
 62
     7
  6
CONTINUOUS
  0
ENDTAB
  0
TABLE
  2
STYLE
 70
     2
  0
STYLE
  2
STANDARD
 70
     0
 40
0.0
 41
0.7
 50
0.0
 71
     0
 42
73.985717453579113
  3
romans.shx
  4
bigfont.shx
  0
STYLE
  2
TSKDIM
 70
     0
 40
0.0
 41
0.75
 50
0.0
 71
     0
 42
4.0
  3
romans.shx
  4
EXTFONT.SHX
  0
ENDTAB
  0
TABLE
  2
VIEW
 70
     0
  0
ENDTAB
  0
TABLE
  2
UCS
 70
     0
  0
ENDTAB
  0
TABLE
  2
APPID
 70
    41
  0
APPID
  2
ACAD
 70
     0
  0
APPID
  2
MCAD_NO_VIS
 70
     0
  0
APPID
  2
ACAD_TEMP_GRAPHIC
 70
     0
  0
APPID
  2
ACATTRIBSERVICES
 70
     0
  0
APPID
  2
AD_DRAW
 70
     0
  0
APPID
  2
DESIGNERASSEMBLIES
 70
     0
  0
APPID
  2
ASURF_PCURVE_APPNAME
 70
     0
  0
APPID
  2
ACADM_DIM_EDIT
 70
     0
  0
APPID
  2
GENIUS_GENDIM_13
 70
     0
  0
APPID
  2
GENIUS_GENDTOL_13
 70
     0
  0
APPID
  2
GENIUS_GE3DTOL_13
 70
     0
  0
APPID
  2
AMG_3D2D_5_0
 70
     0
  0
APPID
  2
AMDT_DM_ADJ
 70
     0
  0
APPID
  2
CK_MATE-SERIES
 70
     0
  0
APPID
  2
GEVID1042077799
 70
     0
  0
APPID
  2
GEVMK
 70
     0
  0
APPID
  2
GEVDC
 70
     0
  0
APPID
  2
GENIUS_GENBH_13
 70
     0
  0
APPID
  2
GENIUS_GENOLIS_13
 70
     0
  0
APPID
  2
GENIUS_GENOENT_13
 70
     0
  0
APPID
  2
GENIUS_GENODEF_13
 70
     0
  0
APPID
  2
GENIUS_GENOBJ-NBEHI-BHF_13
 70
     0
  0
APPID
  2
GENIUS_GENOREF_13
 70
     0
  0
APPID
  2
GENIUS_GENOBJ-NBEHI-BHB_13
 70
     0
  0
APPID
  2
GEVID1042183772
 70
     0
  0
APPID
  2
GEVID1042183773
 70
     0
  0
APPID
  2
GEVID1042183774
 70
     0
  0
APPID
  2
DCO15
 70
     0
  0
APPID
  2
ACAD_DSTYLE_DIMARC_LENGTH_
 70
     0
  0
APPID
  2
ACAD_DSTYLE_DIMJOGGED_JOGA
 70
     0
  0
APPID
  2
ACAD_MLEADERVER
 70
     0
  0
APPID
  2
ACAD_DSTYLE_DIMJAG
 70
     0
  0
APPID
  2
ACAD_DSTYLE_DIMTALN
 70
     0
  0
APPID
  2
ACAD_PSEXT
 70
     0
  0
APPID
  2
ACAD_EXEMPT_FROM_CAD_STANDARDS
 70
     0
  0
APPID
  2
ACAD_DSTYLE_DIMINSPECT
 70
     0
  0
APPID
  2
ACAD_DSTYLE_DIMANGULAR_EXT
 70
     0
  0
APPID
  2
GENIUS_GENOBJ-N-FIL_13
 70
     0
  0
APPID
  2
ACAD_DSTYLE_DIM_LINETYPE
 70
     0
  0
APPID
  2
ACAD_DSTYLE_DIM_EXT1_LINETYPE
 70
     0
  0
APPID
  2
ACAD_DSTYLE_DIM_EXT2_LINETYPE
 70
     0
  0
ENDTAB
  0
TABLE
  2
DIMSTYLE
 70
     1
  0
DIMSTYLE
  2
TSK
 70
     0
  3

  4
"
  5
OPEN
  6

  7

 40
1.0
 41
3.0
 42
1.0
 43
10.0
 44
1.0
 45
0.0
 46
0.0
 47
0.1
 48
0.1
140
3.0
141
0.0
142
0.0
143
0.0393701
144
1.0
145
0.0
146
0.71
147
1.5
 71
     0
 72
     0
 73
     0
 74
     0
 75
     0
 76
     0
 77
     3
 78
     8
170
     0
171
     2
172
     1
173
     0
174
     0
175
     0
176
   256
177
   256
178
     2
  0
ENDTAB
  0
ENDSEC
  0
SECTION
  2
BLOCKS
  0
BLOCK
  8
0
  2
$MODEL_SPACE
 70
     0
 10
0.0
 20
0.0
 30
0.0
  3
$MODEL_SPACE
  1

  0
ENDBLK
  5
21
  8
0
  0
BLOCK
 67
     1
  8
0
  2
$PAPER_SPACE
 70
     0
 10
0.0
 20
0.0
 30
0.0
  3
$PAPER_SPACE
  1

  0
ENDBLK
  5
1D
 67
     1
  8
0
  0
BLOCK
  8
0
  2
_OPEN
 70
     0
 10
0.0
 20
0.0
 30
0.0
  3
_OPEN
  1

  0
LINE
  5
15A
  8
0
  6
BYBLOCK
 62
     0
 10
-1.0
 20
0.1666666666666666
 30
0.0
 11
0.0
 21
0.0
 31
0.0
  0
LINE
  5
15B
  8
0
  6
BYBLOCK
 62
     0
 10
-1.0
 20
-0.1666666666666666
 30
0.0
 11
0.0
 21
0.0
 31
0.0
  0
LINE
  5
15C
  8
0
  6
BYBLOCK
 62
     0
 10
0.0
 20
0.0
 30
0.0
 11
-1.0
 21
0.0
 31
0.0
  0
ENDBLK
  5
15E
  8
0
  0
ENDSEC
  0
SECTION
  2
ENTITIES
  0
LINE
  5
31A7
  8
0
 10
1219.701249576935
 20
-37.499999999997272
 30
0.0
 11
1219.7012495769341
 21
37.500000000002728
 31
0.0
  0
LINE
  5
31A8
  8
0
 10
1215.201249576935
 20
-37.499999999997272
 30
0.0
 11
1215.2012495769341
 21
37.500000000002728
 31
0.0
  0
LINE
  5
31A9
  8
0
 10
1210.7012495769361
 20
-37.499999999997272
 30
0.0
 11
1210.7012495769341
 21
37.500000000002728
 31
0.0
  0
LINE
  5
31AA
  8
0
 10
1224.2012495769341
 20
-37.499999999997272
 30
0.0
 11
1224.201249576932
 21
37.500000000002728
 31
0.0
  0
LINE
  5
31AB
  8
0
 10
1228.701249576937
 20
-37.499999999997272
 30
0.0
 11
1228.701249576937
 21
37.500000000002728
 31
0.0
  0
LINE
  5
31AC
  8
0
 10
1233.2012495769341
 20
-37.499999999997272
 30
0.0
 11
1233.201249576932
 21
37.500000000002728
 31
0.0
  0
LINE
  5
31AD
  8
0
 10
1198.7512495769331
 20
-31.04091814876028
 30
0.0
 11
1202.480402222465
 21
-37.499999999997272
 31
0.0
  0
LINE
  5
31AE
  8
0
 10
1202.480402222465
 20
-37.499999999997272
 30
0.0
 11
1268.422096931404
 21
-37.499999999997272
 31
0.0
  0
LINE
  5
31AF
  8
0
 10
1198.7512495769331
 20
-31.04091814876028
 30
0.0
 11
1198.7512495769331
 21
31.040918148762099
 31
0.0
  0
LINE
  5
31B0
  8
0
 10
1205.7512495769331
 20
-37.499999999997272
 30
0.0
 11
1205.7512495769331
 21
37.500000000002728
 31
0.0
  0
LINE
  5
31B1
  8
0
 10
1198.7512495769331
 20
31.040918148762099
 30
0.0
 11
1202.480402222465
 21
37.500000000002728
 31
0.0
  0
LINE
  5
31B2
  8
0
 10
1202.480402222465
 20
37.500000000002728
 30
0.0
 11
1268.4220969314019
 21
37.500000000002728
 31
0.0
  0
LINE
  5
31B4
  8
0
 10
1202.480402222465
 20
-37.499999999993634
 30
0.0
 11
1202.480402222465
 21
37.500000000002728
 31
0.0
  0
LINE
  5
31B5
  8
0
 10
1272.1512495769341
 20
-31.04091814876028
 30
0.0
 11
1268.422096931404
 21
-37.499999999997272
 31
0.0
  0
LINE
  5
31B6
  8
0
 10
1272.1512495769341
 20
-31.04091814876028
 30
0.0
 11
1272.1512495769341
 21
31.040918148762099
 31
0.0
  0
LINE
  5
31B7
  8
0
 10
1272.1512495769341
 20
31.040918148762099
 30
0.0
 11
1268.4220969314019
 21
37.500000000002728
 31
0.0
  0
LINE
  5
31B8
  8
0
 10
1268.4220969314019
 20
-37.499999999993634
 30
0.0
 11
1268.4220969314019
 21
37.500000000002728
 31
0.0
  0
LINE
  5
31B9
  8
0
 10
1251.201249576932
 20
-37.499999999997272
 30
0.0
 11
1251.2012495769341
 21
37.500000000002728
 31
0.0
  0
LINE
  5
31BA
  8
0
 10
1255.701249576932
 20
-37.499999999997272
 30
0.0
 11
1255.7012495769341
 21
37.500000000002728
 31
0.0
  0
LINE
  5
31BB
  8
0
 10
1260.201249576932
 20
-37.499999999997272
 30
0.0
 11
1260.2012495769341
 21
37.500000000002728
 31
0.0
  0
LINE
  5
31BC
  8
0
 10
1246.7012495769341
 20
-37.499999999997272
 30
0.0
 11
1246.701249576935
 21
37.500000000002728
 31
0.0
  0
LINE
  5
31BD
  8
0
 10
1242.20124957693
 20
-37.499999999997272
 30
0.0
 11
1242.20124957693
 21
37.500000000002728
 31
0.0
  0
LINE
  5
31BE
  8
0
 10
1237.7012495769341
 20
-37.499999999997272
 30
0.0
 11
1237.701249576935
 21
37.500000000002728
 31
0.0
  0
LINE
  5
31BF
  8
0
 10
1265.1512495769341
 20
-37.499999999997272
 30
0.0
 11
1265.1512495769341
 21
37.500000000002728
 31
0.0
  0
ARC
  5
3207
  8
0
 10
234.45124933851361
 20
-48.0
 30
0.0
 40
7.0
 50
132.20616791857009
 51
171.78674173948309
  0
ARC
  5
3208
  8
0
 10
234.45124933851361
 20
-48.0
 30
0.0
 40
7.0
 50
188.2132024012532
 51
231.78679591847089
  0
ARC
  5
3209
  8
0
 10
234.45124933851361
 20
-48.0
 30
0.0
 40
7.0
 50
248.2131224893802
 51
291.78687751061972
  0
ARC
  5
320A
  8
0
 10
234.45124933851361
 20
-48.0
 30
0.0
 40
7.0
 50
308.21320408152889
 51
351.78679759874672
  0
ARC
  5
320B
  8
0
 10
234.45124933851361
 20
-48.0
 30
0.0
 40
7.0
 50
8.2132582605168114
 51
47.793826811981923
  0
ARC
  5
320C
  8
0
 10
234.45124933851361
 20
48.0
 30
0.0
 40
7.0
 50
312.12875643078303
 51
351.7867417394832
  0
ARC
  5
320D
  8
0
 10
234.45124933851361
 20
48.0
 30
0.0
 40
7.0
 50
8.2132024012016966
 51
51.786795918471
  0
ARC
  5
320E
  8
0
 10
234.45124933851361
 20
48.0
 30
0.0
 40
7.0
 50
68.213122489380268
 51
111.7868775106197
  0
ARC
  5
320F
  8
0
 10
234.45124933851361
 20
48.0
 30
0.0
 40
7.0
 50
128.213204081529
 51
171.78679759874669
  0
LINE
  5
3210
  8
0
 10
1219.701249576935
 20
374.17147954932079
 30
0.0
 11
1219.7012495769341
 21
449.17147954932079
 31
0.0
  0
LINE
  5
3211
  8
0
 10
1215.201249576935
 20
374.17147954932079
 30
0.0
 11
1215.2012495769341
 21
449.17147954932079
 31
0.0
  0
LINE
  5
3212
  8
0
 10
1210.7012495769361
 20
374.17147954932079
 30
0.0
 11
1210.7012495769341
 21
449.17147954932079
 31
0.0
  0
LINE
  5
3213
  8
0
 10
1224.2012495769341
 20
374.17147954932079
 30
0.0
 11
1224.201249576932
 21
449.17147954932079
 31
0.0
  0
LINE
  5
3214
  8
0
 10
1228.701249576937
 20
374.17147954932079
 30
0.0
 11
1228.701249576937
 21
449.17147954932079
 31
0.0
  0
LINE
  5
3215
  8
0
 10
1233.2012495769341
 20
374.17147954932079
 30
0.0
 11
1233.201249576932
 21
449.17147954932079
 31
0.0
  0
LINE
  5
3216
  8
0
 10
1198.7512495769331
 20
380.63056140055772
 30
0.0
 11
1202.480402222465
 21
374.17147954932079
 31
0.0
  0
LINE
  5
3217
  8
0
 10
1202.480402222465
 20
374.17147954932079
 30
0.0
 11
1268.422096931404
 21
374.17147954932079
 31
0.0
  0
LINE
  5
3218
  8
0
 10
1198.7512495769331
 20
380.63056140055772
 30
0.0
 11
1198.7512495769331
 21
442.71239769808011
 31
0.0
  0
LINE
  5
3219
  8
0
 10
1205.7512495769331
 20
374.17147954932079
 30
0.0
 11
1205.7512495769331
 21
449.17147954932079
 31
0.0
  0
LINE
  5
321A
  8
0
 10
1198.7512495769331
 20
442.71239769808011
 30
0.0
 11
1202.480402222465
 21
449.17147954932079
 31
0.0
  0
LINE
  5
321B
  8
0
 10
1202.480402222465
 20
449.17147954932079
 30
0.0
 11
1268.4220969314019
 21
449.17147954932079
 31
0.0
  0
LINE
  5
321D
  8
0
 10
1202.480402222465
 20
374.17147954932437
 30
0.0
 11
1202.480402222465
 21
449.17147954932079
 31
0.0
  0
LINE
  5
321E
  8
0
 10
1272.1512495769341
 20
380.63056140055772
 30
0.0
 11
1268.422096931404
 21
374.17147954932079
 31
0.0
  0
LINE
  5
321F
  8
0
 10
1272.1512495769341
 20
380.63056140055772
 30
0.0
 11
1272.1512495769341
 21
442.71239769808011
 31
0.0
  0
LINE
  5
3220
  8
0
 10
1272.1512495769341
 20
442.71239769808011
 30
0.0
 11
1268.4220969314019
 21
449.17147954932079
 31
0.0
  0
LINE
  5
3221
  8
0
 10
1268.4220969314019
 20
374.17147954932437
 30
0.0
 11
1268.4220969314019
 21
449.17147954932079
 31
0.0
  0
LINE
  5
3222
  8
0
 10
1251.201249576932
 20
374.17147954932079
 30
0.0
 11
1251.2012495769341
 21
449.17147954932079
 31
0.0
  0
LINE
  5
3223
  8
0
 10
1255.701249576932
 20
374.17147954932079
 30
0.0
 11
1255.7012495769341
 21
449.17147954932079
 31
0.0
  0
LINE
  5
3224
  8
0
 10
1260.201249576932
 20
374.17147954932079
 30
0.0
 11
1260.2012495769341
 21
449.17147954932079
 31
0.0
  0
LINE
  5
3225
  8
0
 10
1246.7012495769341
 20
374.17147954932079
 30
0.0
 11
1246.701249576935
 21
449.17147954932079
 31
0.0
  0
LINE
  5
3226
  8
0
 10
1242.20124957693
 20
374.17147954932079
 30
0.0
 11
1242.20124957693
 21
449.17147954932079
 31
0.0
  0
LINE
  5
3227
  8
0
 10
1237.7012495769341
 20
374.17147954932079
 30
0.0
 11
1237.701249576935
 21
449.17147954932079
 31
0.0
  0
LINE
  5
3228
  8
0
 10
1265.1512495769341
 20
374.17147954932079
 30
0.0
 11
1265.1512495769341
 21
449.17147954932079
 31
0.0
  0
ARC
  5
3229
  8
0
 10
2241.4512495769359
 20
432.1714795493171
 30
0.0
 40
1.0
 50
0.0
 51
90.000005008833185
  0
ARC
  5
322A
  8
0
 10
2231.4512495769359
 20
432.1714795493171
 30
0.0
 40
1.0
 50
89.999989999842668
 51
179.99999600002039
  0
ARC
  5
322B
  8
0
 10
2233.201249576935
 20
423.52348454931769
 30
0.0
 40
7.6479949999999981
 50
64.852620000112523
 51
115.14737199976651
  0
ARC
  5
322C
  8
0
 10
2239.7012495769359
 20
423.52348454931769
 30
0.0
 40
7.6479949999999981
 50
64.852630000105577
 51
115.14737199976651
  0
ARC
  5
322D
  8
0
 10
2233.201249576935
 20
432.3194745493164
 30
0.0
 40
7.6479949999999981
 50
244.85263000010551
 51
295.14736999989441
  0
ARC
  5
322E
  8
0
 10
2239.7012495769359
 20
432.3194745493164
 30
0.0
 40
7.6479949999999981
 50
244.85263000010551
 51
295.14736999989441
  0
ARC
  5
322F
  8
0
 10
2239.7012495769359
 20
400.81947454931651
 30
0.0
 40
7.647994500000002
 50
244.85263000010551
 51
295.14736999989441
  0
ARC
  5
3230
  8
0
 10
2233.201249576935
 20
400.81947454931651
 30
0.0
 40
7.647994500000002
 50
244.85263000010551
 51
295.14736999989441
  0
ARC
  5
3231
  8
0
 10
234.45124933851361
 20
48.0
 30
0.0
 40
7.0
 50
188.2132582605168
 51
227.87124883138
  0
LINE
  5
3232
  8
0
 10
2229.2012495769368
 20
386.27147954931928
 30
0.0
 11
2194.5191030177548
 21
386.27147954931752
 31
0.0
  0
LINE
  5
3233
  8
0
 10
2108.3833961361138
 20
386.27147954931843
 30
0.0
 11
1272.110879376319
 21
386.27147954931928
 31
0.0
  0
LINE
  5
3234
  8
0
 10
2229.2012495769368
 20
437.07147954931861
 30
0.0
 11
2194.5191030177548
 21
437.07147954931861
 31
0.0
  0
LINE
  5
3235
  8
0
 10
2108.3833961361161
 20
437.07147954931861
 30
0.0
 11
1272.110879376319
 21
437.07147954931861
 31
0.0
  0
LINE
  5
3236
  8
0
 10
2257.4512495769341
 20
386.32147954931861
 30
0.0
 11
2257.4512495769359
 21
437.02147954931752
 31
0.0
  0
LINE
  5
3237
  8
0
 10
2243.7012495769359
 20
386.32147954931861
 30
0.0
 11
2257.4512495769341
 21
386.32147954931861
 31
0.0
  0
LINE
  5
3238
  8
0
 10
2243.7012495769341
 20
437.02147954931752
 30
0.0
 11
2257.4512495769359
 21
437.02147954931752
 31
0.0
  0
LINE
  5
3239
  8
0
 10
2229.2012495769359
 20
380.81698230823622
 30
0.0
 11
2229.2012495769359
 21
442.6714795493171
 31
0.0
  0
LINE
  5
323A
  8
0
 10
2243.7012495769359
 20
380.81698359366959
 30
0.0
 11
2243.7012495769359
 21
442.6714795493171
 31
0.0
  0
LINE
  5
323B
  8
0
 10
2231.749041216799
 20
449.6714795493171
 30
0.0
 11
2231.750392134777
 21
433.1714795493171
 31
0.0
  0
LINE
  5
323C
  8
0
 10
2231.753655768523
 20
393.30972807970278
 30
0.0
 11
2231.7552636268501
 21
373.67148005877152
 31
0.0
  0
LINE
  5
323D
  8
0
 10
2241.1534579370718
 20
449.6714795493171
 30
0.0
 11
2241.152107019092
 21
433.1714795493171
 31
0.0
  0
LINE
  5
323E
  8
0
 10
2241.148843385346
 20
393.30972807970278
 30
0.0
 11
2241.1472355270189
 21
373.67148005877152
 31
0.0
  0
LINE
  5
323F
  8
0
 10
2229.4512495769359
 20
408.6714795493171
 30
0.0
 11
2243.451249576935
 21
408.6714795493171
 31
0.0
  0
LINE
  5
3240
  8
0
 10
2229.4512495769359
 20
398.6714795493171
 30
0.0
 11
2243.451249576935
 21
398.6714795493171
 31
0.0
  0
LINE
  5
3241
  8
0
 10
2229.4512495769359
 20
414.67147954931721
 30
0.0
 11
2243.451249576935
 21
414.67147954931721
 31
0.0
  0
LINE
  5
3242
  8
0
 10
2229.4512495769359
 20
424.6714795493171
 30
0.0
 11
2243.451249576935
 21
424.6714795493171
 31
0.0
  0
LINE
  5
3243
  8
0
 10
2229.4512495769359
 20
398.6714795493171
 30
0.0
 11
2229.4512495769359
 21
408.6714795493171
 31
0.0
  0
LINE
  5
3244
  8
0
 10
2229.4512495769359
 20
424.6714795493171
 30
0.0
 11
2229.4512495769359
 21
414.67147954931721
 31
0.0
  0
LINE
  5
3245
  8
0
 10
2232.451249576935
 20
414.67147954931721
 30
0.0
 11
2232.451249576935
 21
408.6714795493171
 31
0.0
  0
LINE
  5
3246
  8
0
 10
2240.4512495769359
 20
414.67147954931721
 30
0.0
 11
2240.4512495769359
 21
408.6714795493171
 31
0.0
  0
LINE
  5
3247
  8
0
 10
2240.4512495769359
 20
438.6714795493171
 30
0.0
 11
2240.4512495769359
 21
433.1714795493171
 31
0.0
  0
LINE
  5
3248
  8
0
 10
2241.4512495769359
 20
433.1714795493171
 30
0.0
 11
2231.4512495769359
 21
433.1714795493171
 31
0.0
  0
LINE
  5
3249
  8
0
 10
2240.4512495769359
 20
438.6714795493171
 30
0.0
 11
2232.451249576935
 21
438.6714795493171
 31
0.0
  0
LINE
  5
324A
  8
0
 10
2242.451249576935
 20
432.1714795493171
 30
0.0
 11
2242.451249576935
 21
431.17147954931721
 31
0.0
  0
LINE
  5
324B
  8
0
 10
2230.451249576935
 20
432.1714795493171
 30
0.0
 11
2230.451249576935
 21
431.17147954931721
 31
0.0
  0
LINE
  5
324C
  8
0
 10
2229.9512495769359
 20
431.17147954931721
 30
0.0
 11
2242.9512495769359
 21
431.17147954931721
 31
0.0
  0
LINE
  5
324D
  8
0
 10
2229.9512495769359
 20
431.17147954931721
 30
0.0
 11
2229.9512495769359
 21
424.6714795493171
 31
0.0
  0
LINE
  5
324E
  8
0
 10
2242.9512495769359
 20
431.17147954931721
 30
0.0
 11
2242.9512495769359
 21
424.6714795493171
 31
0.0
  0
LINE
  5
324F
  8
0
 10
2232.451249576935
 20
438.6714795493171
 30
0.0
 11
2232.451249576935
 21
433.1714795493171
 31
0.0
  0
LINE
  5
3250
  8
0
  6
CENTER
 10
2236.451249576935
 20
440.32281454931581
 30
0.0
 11
2236.451249576935
 21
389.84375354931763
 31
0.0
  0
LINE
  5
3251
  8
0
 10
2239.7012495769359
 20
393.1714795493171
 30
0.0
 11
2233.201249576935
 21
393.1714795493171
 31
0.0
  0
LINE
  5
3252
  8
0
 10
2242.9512495769359
 20
393.89637354931619
 30
0.0
 11
2242.9512495769359
 21
398.6714795493171
 31
0.0
  0
LINE
  5
3253
  8
0
 10
2229.9512495769359
 20
393.89637354931619
 30
0.0
 11
2229.9512495769359
 21
398.6714795493171
 31
0.0
  0
LINE
  5
3254
  8
0
 10
2243.451249576935
 20
398.6714795493171
 30
0.0
 11
2243.451249576935
 21
408.6714795493171
 31
0.0
  0
LINE
  5
3255
  8
0
 10
2243.451249576935
 20
424.6714795493171
 30
0.0
 11
2243.451249576935
 21
414.67147954931721
 31
0.0
  0
LINE
  5
3256
  8
AM_0_T3
 10
2231.749041216799
 20
449.6714795493171
 30
0.0
 11
2241.1534579370718
 21
449.6714795493171
 31
0.0
  0
LINE
  5
3257
  8
AM_0_T3
 10
2229.2012495769359
 20
442.6714795493171
 30
0.0
 11
2231.749041216799
 21
449.6714795493171
 31
0.0
  0
LINE
  5
3258
  8
AM_0_T3
 10
2241.1534579370718
 20
449.6714795493171
 30
0.0
 11
2243.7012495769359
 21
442.6714795493171
 31
0.0
  0
LINE
  5
3259
  8
AM_0_T3
 10
2231.749041216799
 20
373.67147954931892
 30
0.0
 11
2241.1534579370718
 21
373.67147954931892
 31
0.0
  0
LINE
  5
325A
  8
AM_0_T3
 10
2229.2012495769359
 20
380.67147954931892
 30
0.0
 11
2231.749041216799
 21
373.67147954931892
 31
0.0
  0
LINE
  5
325B
  8
AM_0_T3
 10
2241.1534579370718
 20
373.67147954931892
 30
0.0
 11
2243.7012495769359
 21
380.67147954931892
 31
0.0
  0
LINE
  5
325C
  8
0
 10
241.70124957693039
 20
25.399999999999629
 30
0.0
 11
1198.791619777548
 21
25.399999999999629
 31
0.0
  0
LINE
  5
325D
  8
0
 10
213.451249576934
 20
25.35000000000036
 30
0.0
 11
213.45124957693221
 21
-25.349999999998541
 31
0.0
  0
LINE
  5
325E
  8
0
 10
227.20124957693221
 20
25.35000000000036
 30
0.0
 11
213.451249576934
 21
25.35000000000036
 31
0.0
  0
LINE
  5
325F
  8
0
 10
227.201249576934
 20
-25.349999999998541
 30
0.0
 11
213.45124957693221
 21
-25.349999999998541
 31
0.0
  0
LINE
  5
3260
  8
0
 10
238.20402573851419
 20
-54.499995999999548
 30
0.0
 11
230.6984715385133
 21
-54.499995999999548
 31
0.0
  0
LINE
  5
3261
  8
0
 10
230.69847233851209
 20
-54.499998999999661
 30
0.0
 11
226.94569513851269
 21
-47.999998000000232
 31
0.0
  0
LINE
  5
3262
  8
0
 10
226.9456945385154
 20
-47.999998000000232
 30
0.0
 11
230.69847163851401
 21
-41.499996999999887
 31
0.0
  0
LINE
  5
3263
  8
0
 10
230.6984715385133
 20
-41.5
 30
0.0
 11
238.20402573851419
 21
-41.5
 31
0.0
  0
LINE
  5
3264
  8
0
 10
241.95680413851181
 20
-47.999998000000232
 30
0.0
 11
238.2040270385132
 21
-41.499996999999887
 31
0.0
  0
LINE
  5
3265
  8
0
 10
238.20402633851509
 20
-54.499998999999661
 30
0.0
 11
241.95680353851449
 21
-47.999998000000232
 31
0.0
  0
LINE
  5
3266
  8
0
 10
230.69847293851299
 20
54.499996000000472
 30
0.0
 11
238.20402713851399
 21
54.499996000000472
 31
0.0
  0
LINE
  5
3267
  8
0
 10
238.20402633851509
 20
54.499999000000571
 30
0.0
 11
241.95680353851449
 21
47.999998000000232
 31
0.0
  0
LINE
  5
3268
  8
0
 10
241.95680413851181
 20
47.999998000000232
 30
0.0
 11
238.2040270385132
 21
41.499996999999887
 31
0.0
  0
LINE
  5
3269
  8
0
 10
226.9456945385154
 20
47.999998000000232
 30
0.0
 11
230.69847163851401
 21
41.499996999999887
 31
0.0
  0
LINE
  5
326A
  8
0
 10
230.69847233851209
 20
54.499999000000571
 30
0.0
 11
226.94569513851269
 21
47.999998000000232
 31
0.0
  0
LINE
  5
326B
  8
0
 10
238.20402713851399
 20
41.5
 30
0.0
 11
230.69847293851299
 21
41.5
 31
0.0
  0
LINE
  5
326C
  8
0
  6
CENTER
 10
244.45124933851361
 20
48.0
 30
0.0
 11
224.45124933851361
 21
48.0
 31
0.0
  0
LINE
  5
326D
  8
0
  6
CENTER
 10
234.451249100095
 20
58.0
 30
0.0
 11
234.451249100095
 21
38.0
 31
0.0
  0
LINE
  5
326E
  8
0
  6
CENTER
 10
244.45124933851361
 20
-48.0
 30
0.0
 11
224.45124933851361
 21
-48.0
 31
0.0
  0
LINE
  5
326F
  8
0
  6
CENTER
 10
234.45124957693221
 20
-38.0
 30
0.0
 11
234.45124957693221
 21
-58.0
 31
0.0
  0
LINE
  5
3270
  8
0
 10
241.70124957693221
 20
30.85449724108275
 30
0.0
 11
241.70124957693221
 21
-30.85449724108275
 31
0.0
  0
LINE
  5
3271
  8
0
 10
227.20124957693221
 20
30.85449595564933
 30
0.0
 11
227.20124957693221
 21
-30.85449595564841
 31
0.0
  0
LINE
  5
3272
  8
0
 10
239.1538521492202
 20
-42.814874465864698
 30
0.0
 11
239.14684183466849
 21
42.808525150782771
 31
0.0
  0
LINE
  5
3273
  8
0
 10
229.74864700468061
 20
-42.814874033369051
 30
0.0
 11
229.75565731916319
 21
42.80852471952312
 31
0.0
  0
LINE
  5
3274
  8
0
 10
239.1534482263323
 20
-37.881393849751468
 30
0.0
 11
241.70124957693221
 21
-30.85449724108275
 31
0.0
  0
LINE
  5
3275
  8
0
 10
229.74905093318921
 20
-37.88139362553283
 30
0.0
 11
227.20124957693221
 21
-30.85449595564841
 31
0.0
  0
LINE
  5
3276
  8
0
 10
239.15327021204391
 20
-35.707142142714467
 30
0.0
 11
229.74922894182049
 21
-35.707142142714467
 31
0.0
  0
LINE
  5
3277
  8
0
 10
239.1534482263323
 20
37.881393849751468
 30
0.0
 11
241.70124957693221
 21
30.85449724108275
 31
0.0
  0
LINE
  5
3278
  8
0
 10
229.74905093318921
 20
37.88139362553283
 30
0.0
 11
227.20124957693221
 21
30.85449595564933
 31
0.0
  0
LINE
  5
3279
  8
0
 10
239.15327021204391
 20
35.707142142714467
 30
0.0
 11
229.74922894182049
 21
35.707142142714467
 31
0.0
  0
ARC
  5
327A
  8
0
 10
229.45124957693221
 20
432.1714795493171
 30
0.0
 40
1.0
 50
89.999994991166815
 51
180.0
  0
ARC
  5
327B
  8
0
 10
239.45124957693221
 20
432.1714795493171
 30
0.0
 40
1.0
 50
0.0000039999795585
 51
90.000010000157346
  0
ARC
  5
327C
  8
0
 10
237.70124957693221
 20
423.52348454931769
 30
0.0
 40
7.6479949999999981
 50
64.852628000233466
 51
115.14737999988741
  0
ARC
  5
327D
  8
0
 10
231.20124957693221
 20
423.52348454931769
 30
0.0
 40
7.6479949999999981
 50
64.852628000233466
 51
115.14736999989439
  0
ARC
  5
327E
  8
0
 10
237.70124957693221
 20
432.3194745493164
 30
0.0
 40
7.6479949999999981
 50
244.85263000010551
 51
295.14736999989441
  0
ARC
  5
327F
  8
0
 10
231.20124957693221
 20
432.3194745493164
 30
0.0
 40
7.6479949999999981
 50
244.85263000010551
 51
295.14736999989441
  0
ARC
  5
3280
  8
0
 10
231.20124957693221
 20
400.81947454931651
 30
0.0
 40
7.647994500000002
 50
244.85263000010551
 51
295.14736999989441
  0
ARC
  5
3281
  8
0
 10
237.70124957693221
 20
400.81947454931651
 30
0.0
 40
7.647994500000002
 50
244.85263000010551
 51
295.14736999989441
  0
LINE
  5
3282
  8
0
 10
241.70124957693039
 20
386.27147954931928
 30
0.0
 11
1198.791619777548
 21
386.27147954931928
 31
0.0
  0
LINE
  5
3283
  8
0
 10
241.70124957693039
 20
437.07147954931861
 30
0.0
 11
1198.791619777548
 21
437.07147954931861
 31
0.0
  0
LINE
  5
3284
  8
0
 10
213.451249576934
 20
386.32147954931861
 30
0.0
 11
213.45124957693221
 21
437.02147954931752
 31
0.0
  0
LINE
  5
3285
  8
0
 10
227.20124957693221
 20
386.32147954931861
 30
0.0
 11
213.451249576934
 21
386.32147954931861
 31
0.0
  0
LINE
  5
3286
  8
0
 10
227.201249576934
 20
437.02147954931752
 30
0.0
 11
213.45124957693221
 21
437.02147954931752
 31
0.0
  0
LINE
  5
3287
  8
0
 10
241.70124957693221
 20
380.81698230823622
 30
0.0
 11
241.70124957693221
 21
442.6714795493171
 31
0.0
  0
LINE
  5
3288
  8
0
 10
227.20124957693221
 20
380.81698359366959
 30
0.0
 11
227.20124957693221
 21
442.6714795493171
 31
0.0
  0
LINE
  5
3289
  8
0
 10
239.15345793706911
 20
449.6714795493171
 30
0.0
 11
239.1521070190901
 21
433.1714795493171
 31
0.0
  0
LINE
  5
328A
  8
0
 10
239.14884338534461
 20
393.30972807970278
 30
0.0
 11
239.1472355270179
 21
373.67148005877152
 31
0.0
  0
LINE
  5
328B
  8
0
 10
229.74904121679529
 20
449.6714795493171
 30
0.0
 11
229.75039213477609
 21
433.1714795493171
 31
0.0
  0
LINE
  5
328C
  8
0
 10
229.75365576852161
 20
393.30972807970278
 30
0.0
 11
229.75526362684829
 21
373.67148005877152
 31
0.0
  0
LINE
  5
328D
  8
0
 10
241.45124957693221
 20
408.6714795493171
 30
0.0
 11
227.45124957693221
 21
408.6714795493171
 31
0.0
  0
LINE
  5
328E
  8
0
 10
241.45124957693221
 20
398.6714795493171
 30
0.0
 11
227.45124957693221
 21
398.6714795493171
 31
0.0
  0
LINE
  5
328F
  8
0
 10
241.45124957693221
 20
414.67147954931721
 30
0.0
 11
227.45124957693221
 21
414.67147954931721
 31
0.0
  0
LINE
  5
3290
  8
0
 10
241.45124957693221
 20
424.6714795493171
 30
0.0
 11
227.45124957693221
 21
424.6714795493171
 31
0.0
  0
LINE
  5
3291
  8
0
 10
241.45124957693221
 20
398.6714795493171
 30
0.0
 11
241.45124957693221
 21
408.6714795493171
 31
0.0
  0
LINE
  5
3292
  8
0
 10
241.45124957693221
 20
424.6714795493171
 30
0.0
 11
241.45124957693221
 21
414.67147954931721
 31
0.0
  0
LINE
  5
3293
  8
0
 10
238.45124957693221
 20
414.67147954931721
 30
0.0
 11
238.45124957693221
 21
408.6714795493171
 31
0.0
  0
LINE
  5
3294
  8
0
 10
230.45124957693221
 20
414.67147954931721
 30
0.0
 11
230.45124957693221
 21
408.6714795493171
 31
0.0
  0
LINE
  5
3295
  8
0
 10
230.45124957693221
 20
438.6714795493171
 30
0.0
 11
230.45124957693221
 21
433.1714795493171
 31
0.0
  0
LINE
  5
3296
  8
0
 10
229.45124957693221
 20
433.1714795493171
 30
0.0
 11
239.45124957693221
 21
433.1714795493171
 31
0.0
  0
LINE
  5
3297
  8
0
 10
230.45124957693221
 20
438.6714795493171
 30
0.0
 11
238.45124957693221
 21
438.6714795493171
 31
0.0
  0
LINE
  5
3298
  8
0
 10
228.45124957693221
 20
432.1714795493171
 30
0.0
 11
228.45124957693221
 21
431.17147954931721
 31
0.0
  0
LINE
  5
3299
  8
0
 10
240.45124957693221
 20
432.1714795493171
 30
0.0
 11
240.45124957693221
 21
431.17147954931721
 31
0.0
  0
LINE
  5
329A
  8
0
 10
240.95124957693221
 20
431.17147954931721
 30
0.0
 11
227.95124957693221
 21
431.17147954931721
 31
0.0
  0
LINE
  5
329B
  8
0
 10
240.95124957693221
 20
431.17147954931721
 30
0.0
 11
240.95124957693221
 21
424.6714795493171
 31
0.0
  0
LINE
  5
329C
  8
0
 10
227.95124957693221
 20
431.17147954931721
 30
0.0
 11
227.95124957693221
 21
424.6714795493171
 31
0.0
  0
LINE
  5
329D
  8
0
 10
238.45124957693221
 20
438.6714795493171
 30
0.0
 11
238.45124957693221
 21
433.1714795493171
 31
0.0
  0
LINE
  5
329E
  8
0
  6
CENTER
 10
234.45124957693221
 20
440.32281454931581
 30
0.0
 11
234.45124957693221
 21
389.84375354931763
 31
0.0
  0
LINE
  5
329F
  8
0
 10
231.20124957693221
 20
393.1714795493171
 30
0.0
 11
237.70124957693221
 21
393.1714795493171
 31
0.0
  0
LINE
  5
32A0
  8
0
 10
227.95124957693221
 20
393.89637354931619
 30
0.0
 11
227.95124957693221
 21
398.6714795493171
 31
0.0
  0
LINE
  5
32A1
  8
0
 10
240.95124957693221
 20
393.89637354931619
 30
0.0
 11
240.95124957693221
 21
398.6714795493171
 31
0.0
  0
LINE
  5
32A2
  8
0
 10
227.45124957693221
 20
398.6714795493171
 30
0.0
 11
227.45124957693221
 21
408.6714795493171
 31
0.0
  0
LINE
  5
32A3
  8
0
 10
227.45124957693221
 20
424.6714795493171
 30
0.0
 11
227.45124957693221
 21
414.67147954931721
 31
0.0
  0
LINE
  5
32A4
  8
AM_0_T3
 10
239.15345793706911
 20
449.6714795493171
 30
0.0
 11
229.74904121679529
 21
449.6714795493171
 31
0.0
  0
LINE
  5
32A5
  8
AM_0_T3
 10
241.70124957693221
 20
442.6714795493171
 30
0.0
 11
239.15345793706911
 21
449.6714795493171
 31
0.0
  0
LINE
  5
32A6
  8
AM_0_T3
 10
229.74904121679529
 20
449.6714795493171
 30
0.0
 11
227.20124957693221
 21
442.6714795493171
 31
0.0
  0
LINE
  5
32A7
  8
AM_0_T3
 10
239.15345793706911
 20
373.67147954931892
 30
0.0
 11
229.74904121679529
 21
373.67147954931892
 31
0.0
  0
LINE
  5
32A8
  8
AM_0_T3
 10
241.70124957693221
 20
380.67147954931892
 30
0.0
 11
239.15345793706911
 21
373.67147954931892
 31
0.0
  0
LINE
  5
32A9
  8
AM_0_T3
 10
229.74904121679529
 20
373.67147954931892
 30
0.0
 11
227.20124957693221
 21
380.67147954931892
 31
0.0
  0
ARC
  5
32AA
  8
0
 10
2236.451249815354
 20
48.000000000000909
 30
0.0
 40
7.0
 50
312.20616791853507
 51
351.78674173943148
  0
ARC
  5
32AB
  8
0
 10
2236.451249815354
 20
48.000000000000909
 30
0.0
 40
7.0
 50
8.2132024012016966
 51
51.786795918471
  0
ARC
  5
32AC
  8
0
 10
2236.451249815354
 20
48.000000000000909
 30
0.0
 40
7.0
 50
68.213122489380268
 51
111.7868775106197
  0
ARC
  5
32AD
  8
0
 10
2236.451249815354
 20
48.000000000000909
 30
0.0
 40
7.0
 50
128.213204081529
 51
171.7867975987983
  0
ARC
  5
32AE
  8
0
 10
2236.451249815354
 20
48.000000000000909
 30
0.0
 40
7.0
 50
188.21325826056841
 51
227.79382681198189
  0
ARC
  5
32AF
  8
0
 10
2236.451249815354
 20
-47.999999999999091
 30
0.0
 40
7.0
 50
132.128756430783
 51
171.78674173943159
  0
ARC
  5
32B0
  8
0
 10
2236.451249815354
 20
-47.999999999999091
 30
0.0
 40
7.0
 50
188.21320240120161
 51
231.78679591847089
  0
ARC
  5
32B1
  8
0
 10
2236.451249815354
 20
-47.999999999999091
 30
0.0
 40
7.0
 50
248.2131224893802
 51
291.78687751061972
  0
ARC
  5
32B2
  8
0
 10
2236.451249815354
 20
-47.999999999999091
 30
0.0
 40
7.0
 50
308.21320408152889
 51
351.78679759879822
  0
ARC
  5
32B3
  8
0
 10
2236.451249815354
 20
-47.999999999999091
 30
0.0
 40
7.0
 50
8.2132582605683861
 51
47.871248831380029
  0
LINE
  5
32B4
  8
0
 10
2229.2012495769368
 20
-25.39999999999873
 30
0.0
 11
1272.110879376319
 21
-25.39999999999873
 31
0.0
  0
LINE
  5
32B5
  8
0
 10
241.70124957693039
 20
-25.400000000000539
 30
0.0
 11
305.8512495769337
 21
-25.400000000000539
 31
0.0
  0
LINE
  5
32B6
  8
0
 10
333.05124957693261
 20
-25.400000000001452
 30
0.0
 11
1198.791619777548
 21
-25.400000000000539
 31
0.0
  0
LINE
  5
32B7
  8
0
 10
2257.4512495769341
 20
-25.349999999999451
 30
0.0
 11
2257.4512495769359
 21
25.349999999999451
 31
0.0
  0
LINE
  5
32B8
  8
0
 10
2243.7012495769359
 20
-25.349999999999451
 30
0.0
 11
2257.4512495769341
 21
-25.349999999999451
 31
0.0
  0
LINE
  5
32B9
  8
0
 10
2243.7012495769341
 20
25.349999999999451
 30
0.0
 11
2257.4512495769359
 21
25.349999999999451
 31
0.0
  0
LINE
  5
32BA
  8
0
 10
2232.698473415353
 20
54.499996000000472
 30
0.0
 11
2240.2040276153548
 21
54.499996000000472
 31
0.0
  0
LINE
  5
32BB
  8
0
 10
2240.204026815356
 20
54.499999000000571
 30
0.0
 11
2243.9568040153549
 21
47.999998000001142
 31
0.0
  0
LINE
  5
32BC
  8
0
 10
2243.9568046153522
 20
47.999998000001142
 30
0.0
 11
2240.204027515354
 21
41.499997000000803
 31
0.0
  0
LINE
  5
32BD
  8
0
 10
2240.2040276153548
 20
41.500000000000902
 30
0.0
 11
2232.698473415353
 21
41.500000000000902
 31
0.0
  0
LINE
  5
32BE
  8
0
 10
2228.9456950153558
 20
47.999998000001142
 30
0.0
 11
2232.6984721153549
 21
41.499997000000803
 31
0.0
  0
LINE
  5
32BF
  8
0
 10
2232.6984728153529
 20
54.499999000000571
 30
0.0
 11
2228.9456956153531
 21
47.999998000001142
 31
0.0
  0
LINE
  5
32C0
  8
0
 10
2240.204026215355
 20
-54.499995999999548
 30
0.0
 11
2232.6984720153541
 21
-54.499995999999548
 31
0.0
  0
LINE
  5
32C1
  8
0
 10
2232.6984728153529
 20
-54.499998999999661
 30
0.0
 11
2228.9456956153531
 21
-47.999997999999323
 31
0.0
  0
LINE
  5
32C2
  8
0
 10
2228.9456950153558
 20
-47.999997999999323
 30
0.0
 11
2232.6984721153549
 21
-41.499996999998977
 31
0.0
  0
LINE
  5
32C3
  8
0
 10
2243.9568046153522
 20
-47.999997999999323
 30
0.0
 11
2240.204027515354
 21
-41.499996999998977
 31
0.0
  0
LINE
  5
32C4
  8
0
 10
2240.204026815356
 20
-54.499998999999661
 30
0.0
 11
2243.9568040153549
 21
-47.999997999999323
 31
0.0
  0
LINE
  5
32C5
  8
0
 10
2232.6984720153541
 20
-41.499999999999083
 30
0.0
 11
2240.204026215355
 21
-41.499999999999083
 31
0.0
  0
LINE
  5
32C6
  8
0
  6
CENTER
 10
2226.451249815354
 20
-47.999999999999091
 30
0.0
 11
2246.451249815354
 21
-47.999999999999091
 31
0.0
  0
LINE
  5
32C7
  8
0
  6
CENTER
 10
2236.451250053773
 20
-57.999999999999091
 30
0.0
 11
2236.451250053773
 21
-37.999999999999091
 31
0.0
  0
LINE
  5
32C8
  8
0
  6
CENTER
 10
2226.451249815354
 20
48.000000000000909
 30
0.0
 11
2246.451249815354
 21
48.000000000000909
 31
0.0
  0
LINE
  5
32C9
  8
0
  6
CENTER
 10
2236.451249576935
 20
38.000000000000909
 30
0.0
 11
2236.451249576935
 21
58.000000000000909
 31
0.0
  0
LINE
  5
32CA
  8
0
 10
2229.2012495769359
 20
-30.854497241081841
 30
0.0
 11
2229.2012495769359
 21
30.85449724108366
 31
0.0
  0
LINE
  5
32CB
  8
0
 10
2243.7012495769359
 20
-30.85449595564841
 30
0.0
 11
2243.7012495769359
 21
30.85449595564933
 31
0.0
  0
LINE
  5
32CC
  8
0
 10
2231.7486470046479
 20
42.814874465865607
 30
0.0
 11
2231.7556573191991
 21
-42.808525150781861
 31
0.0
  0
LINE
  5
32CD
  8
0
 10
2241.1538521491871
 20
42.814874033369961
 30
0.0
 11
2241.1468418347049
 21
-42.808524719522211
 31
0.0
  0
LINE
  5
32CE
  8
0
 10
2231.7490509275358
 20
37.881393849752378
 30
0.0
 11
2229.2012495769359
 21
30.85449724108366
 31
0.0
  0
LINE
  5
32CF
  8
0
 10
2241.153448220678
 20
37.881393625533747
 30
0.0
 11
2243.7012495769359
 21
30.85449595564933
 31
0.0
  0
LINE
  5
32D0
  8
0
 10
2231.7492289418242
 20
35.707142142715377
 30
0.0
 11
2241.1532702120471
 21
35.707142142715377
 31
0.0
  0
LINE
  5
32D1
  8
0
 10
2231.7490509275358
 20
-37.881393849750559
 30
0.0
 11
2229.2012495769359
 21
-30.854497241081841
 31
0.0
  0
LINE
  5
32D2
  8
0
 10
2241.153448220678
 20
-37.881393625531921
 30
0.0
 11
2243.7012495769359
 21
-30.85449595564841
 31
0.0
  0
LINE
  5
32D3
  8
0
 10
2231.7492289418242
 20
-35.707142142713558
 30
0.0
 11
2241.1532702120471
 21
-35.707142142713558
 31
0.0
  0
LINE
  5
3442
  8
0
 10
269.451249576934
 20
-75.999999999999091
 30
0.0
 11
369.451249576934
 21
-75.999999999999091
 31
0.0
  0
LINE
  5
3443
  8
0
 10
369.451249576934
 20
-89.999999999999091
 30
0.0
 11
269.451249576934
 21
-90.0
 31
0.0
  0
LINE
  5
3444
  8
0
  6
CENTER
 10
356.951249576934
 20
-98.999999999999091
 30
0.0
 11
356.951249576934
 21
-65.999999999999091
 31
0.0
  0
LINE
  5
3447
  8
0
 10
369.451249576934
 20
-75.999999999999091
 30
0.0
 11
369.451249576934
 21
-89.999999999999091
 31
0.0
  0
LINE
  5
3448
  8
0
  6
CENTER
 10
281.951249576934
 20
-98.999999999999091
 30
0.0
 11
281.951249576934
 21
-65.999999999999091
 31
0.0
  0
LINE
  5
344B
  8
0
 10
269.451249576934
 20
-90.0
 30
0.0
 11
269.451249576934
 21
-75.999999999999091
 31
0.0
  0
LINE
  5
344D
  8
0
 10
333.05124957693442
 20
-75.999999999999091
 30
0.0
 11
333.05124957693261
 21
-25.400000000001452
 31
0.0
  0
LINE
  5
344E
  8
0
 10
305.8512495769337
 20
-75.999999999999091
 30
0.0
 11
305.8512495769337
 21
-25.400000000000539
 31
0.0
  0
LINE
  5
344F
  8
0
  6
CENTER
 10
2165.5933852006651
 20
425.81361517304867
 30
0.0
 11
2190.3421225421948
 21
450.56235251457832
 31
0.0
  0
LINE
  5
3451
  8
0
  6
CENTER
 10
2137.3091139532039
 20
425.81361517304867
 30
0.0
 11
2112.5603766116742
 21
450.56235251457832
 31
0.0
  0
LINE
  5
3456
  8
0
  6
CENTER
 10
2137.3091139532039
 20
397.5293439255874
 30
0.0
 11
2112.5603766116742
 21
372.78060658405769
 31
0.0
  0
LINE
  5
3458
  8
0
  6
CENTER
 10
2165.5933852006651
 20
397.5293439255874
 30
0.0
 11
2190.3421225421948
 21
372.78060658405769
 31
0.0
  0
ARC
  5
345D
  8
AM_0_T3
 10
319.45124957693218
 20
-46.852272606893159
 30
0.0
 40
25.40000000000779
 50
57.626714020942401
 51
122.3732859790575
  0
LINE
  5
345F
  8
0
 10
2229.2012495769368
 20
25.400000000000539
 30
0.0
 11
2165.051249576934
 21
25.400000000000539
 31
0.0
  0
LINE
  5
3460
  8
0
 10
2137.8512495769351
 20
25.400000000001452
 30
0.0
 11
1272.110879376319
 21
25.400000000000539
 31
0.0
  0
LINE
  5
3461
  8
0
 10
2201.4512495769341
 20
75.999999999999091
 30
0.0
 11
2101.4512495769341
 21
75.999999999999091
 31
0.0
  0
LINE
  5
3462
  8
0
 10
2101.4512495769341
 20
89.999999999999091
 30
0.0
 11
2201.4512495769341
 21
90.0
 31
0.0
  0
LINE
  5
3463
  8
0
  6
CENTER
 10
2113.9512495769341
 20
98.999999999999091
 30
0.0
 11
2113.9512495769341
 21
65.999999999999091
 31
0.0
  0
LINE
  5
3466
  8
0
 10
2101.4512495769341
 20
75.999999999999091
 30
0.0
 11
2101.4512495769341
 21
89.999999999999091
 31
0.0
  0
LINE
  5
3467
  8
0
  6
CENTER
 10
2188.9512495769341
 20
98.999999999999091
 30
0.0
 11
2188.9512495769341
 21
65.999999999999091
 31
0.0
  0
LINE
  5
346A
  8
0
 10
2201.4512495769341
 20
90.0
 30
0.0
 11
2201.4512495769341
 21
75.999999999999091
 31
0.0
  0
LINE
  5
346B
  8
0
 10
2137.8512495769342
 20
75.999999999999091
 30
0.0
 11
2137.8512495769351
 21
25.400000000001452
 31
0.0
  0
LINE
  5
346C
  8
0
 10
2165.051249576934
 20
75.999999999999091
 30
0.0
 11
2165.051249576934
 21
25.400000000000539
 31
0.0
  0
ARC
  5
346D
  8
AM_0_T3
 10
2151.4512495769359
 20
46.852272606893159
 30
0.0
 40
25.40000000000779
 50
237.62671402091451
 51
302.37328597908538
  0
LINE
  5
346E
  8
0
  6
CENTER
 10
305.30911395320248
 20
425.81361517304867
 30
0.0
 11
280.56037661167278
 21
450.56235251457832
 31
0.0
  0
LINE
  5
346F
  8
0
  6
CENTER
 10
333.5933852006637
 20
425.81361517304867
 30
0.0
 11
358.34212254219341
 21
450.56235251457832
 31
0.0
  0
ARC
  5
3470
  8
0
  6
CENTER
 10
319.45124957693218
 20
411.67147954931801
 30
0.0
 40
37.5
 50
42.635610110956669
 51
137.36438988904331
  0
ARC
  5
3471
  8
0
 10
345.96775387142952
 20
438.18798384381353
 30
0.0
 40
7.5
 50
351.43871286961883
 51
188.56128713038109
  0
ARC
  5
3472
  8
0
 10
292.93474528243848
 20
438.18798384381353
 30
0.0
 40
7.5
 50
351.43871286961883
 51
188.56128713038109
  0
ARC
  5
3473
  8
0
 10
345.96775387142952
 20
385.1549752548226
 30
0.0
 40
7.5
 50
171.4387128696188
 51
8.5612871303811762
  0
LINE
  5
3474
  8
0
  6
CENTER
 10
333.5933852006637
 20
397.5293439255874
 30
0.0
 11
358.34212254219341
 21
372.78060658405769
 31
0.0
  0
ARC
  5
3475
  8
0
 10
292.93474528243848
 20
385.1549752548226
 30
0.0
 40
7.5
 50
171.4387128696188
 51
8.5612871303811762
  0
LINE
  5
3476
  8
0
  6
CENTER
 10
305.30911395320248
 20
397.5293439255874
 30
0.0
 11
280.56037661167278
 21
372.78060658405769
 31
0.0
  0
ARC
  5
3478
  8
0
 10
319.45124957693218
 20
411.67147954931801
 30
0.0
 40
50.0
 50
30.530702338700522
 51
149.46929766129949
  0
ARC
  5
3479
  8
0
  6
CENTER
 10
319.45124957693218
 20
411.67147954931801
 30
0.0
 40
37.5
 50
222.63561011095661
 51
317.3643898890432
  0
ARC
  5
347A
  8
0
 10
319.45124957693218
 20
411.67147954931801
 30
0.0
 40
50.0
 50
210.53070233870051
 51
329.46929766129938
  0
LINE
  5
34FC
  8
0
  6
CENTER
 10
2151.4512495769359
 20
327.67151673118673
 30
0.0
 11
2151.4512495769382
 21
495.67144236744929
 31
0.0
  0
LINE
  5
34FF
  8
0
  6
CENTER
 10
2151.4512495769341
 20
98.0
 30
0.0
 11
2151.4512495769341
 21
0.0
 31
0.0
  0
LINE
  5
3502
  8
0
  6
CENTER
 10
319.451249576934
 20
-98.0
 30
0.0
 11
319.451249576934
 21
0.0
 31
0.0
  0
LINE
  5
3503
  8
0
  6
CENTER
 10
319.45124957693218
 20
478.17147954931801
 30
0.0
 11
319.45124957693218
 21
345.17147954931801
 31
0.0
  0
LINE
  5
4585
  8
0
  6
CENTER
 10
2282.59999229799
 20
411.67147954931801
 30
0.0
 11
188.30250685587811
 21
411.67147954931801
 31
0.0
  0
LINE
  5
4586
  8
0
  6
CENTER
 10
2265.4512495769368
 20
0.0
 30
0.0
 11
205.45124957693039
 21
0.0
 31
0.0
  0
LINE
  5
45A9
  8
0
 10
2272.0334226914888
 20
424.14715955495279
 30
0.0
 11
2272.0334226914888
 21
399.19579954368322
 31
0.0
  0
LINE
  5
45AA
  8
0
 10
2279.4512495769341
 20
386.42147954931801
 30
0.0
 11
2279.4512495769341
 21
436.92147954931812
 31
0.0
  0
LINE
  5
45AB
  8
0
 10
2276.6012495769342
 20
387.24625460762212
 30
0.0
 11
2276.6012495769351
 21
436.0967044910139
 31
0.0
  0
LINE
  5
45AC
  8
0
 10
2270.6330080604739
 20
398.97147954931819
 30
0.0
 11
2257.4512505769449
 21
398.97147954931819
 31
0.0
  0
ARC
  5
45AD
  8
0
 10
2270.6330080604739
 20
396.97147954931819
 30
0.0
 40
2.0
 50
20.000000000029289
 51
90.0
1001
GENIUS_GENOBJ-N-FIL_13
1002
{
1000
OWNER
1000
GEN
1002
}
1001
GENIUS_GENODEF_13
1002
{
1000
HIER
1070
     0
1002
}
1002
{
1000
MANEDIT
1070
     0
1002
}
1002
{
1000
NOSEL
1070
     0
1002
}
1002
{
1000
BEHIND
1070
     0
1002
}
1002
{
1000
OTHER
1070
     0
1002
}
1002
{
1000
REACTOR
1002
}
  0
LINE
  5
45AE
  8
0
 10
2279.4512495769341
 20
386.42147954931801
 30
0.0
 11
2277.1614156075011
 21
386.42147954931801
 31
0.0
  0
LINE
  5
45B0
  8
0
 10
2276.409661510871
 20
386.94786343465779
 30
0.0
 11
2272.512393302045
 21
397.65551983596919
 31
0.0
  0
ARC
  5
45B1
  8
0
 10
2277.1614156075011
 20
387.22147954931819
 30
0.0
 40
0.8
 50
200.00000000002919
 51
270.0
1001
GENIUS_GENOBJ-N-FIL_13
1002
{
1000
OWNER
1000
GEN
1002
}
1001
GENIUS_GENODEF_13
1002
{
1000
HIER
1070
     0
1002
}
1002
{
1000
MANEDIT
1070
     0
1002
}
1002
{
1000
NOSEL
1070
     0
1002
}
1002
{
1000
BEHIND
1070
     0
1002
}
1002
{
1000
OTHER
1070
     0
1002
}
1002
{
1000
REACTOR
1002
}
  0
LINE
  5
45B2
  8
0
 10
2270.6330080604739
 20
424.37147954931783
 30
0.0
 11
2257.4512505769449
 21
424.37147954931783
 31
0.0
  0
ARC
  5
45B3
  8
0
 10
2270.6330080604739
 20
426.37147954931788
 30
0.0
 40
2.0
 50
270.0
 51
339.99999999997073
1001
GENIUS_GENOBJ-N-FIL_13
1002
{
1000
OWNER
1000
GEN
1002
}
1001
GENIUS_GENODEF_13
1002
{
1000
HIER
1070
     0
1002
}
1002
{
1000
MANEDIT
1070
     0
1002
}
1002
{
1000
NOSEL
1070
     0
1002
}
1002
{
1000
BEHIND
1070
     0
1002
}
1002
{
1000
OTHER
1070
     0
1002
}
1002
{
1000
REACTOR
1002
}
  0
LINE
  5
45B4
  8
0
 10
2279.4512495769341
 20
436.92147954931812
 30
0.0
 11
2277.1614156075011
 21
436.92147954931812
 31
0.0
  0
LINE
  5
45B5
  8
0
 10
2276.4096615108729
 20
436.39509566397822
 30
0.0
 11
2272.512393302045
 21
425.68743926266683
 31
0.0
  0
ARC
  5
45B6
  8
0
 10
2277.1614156075011
 20
436.12147954931788
 30
0.0
 40
0.8
 50
90.0
 51
159.99999999997061
1001
GENIUS_GENOBJ-N-FIL_13
1002
{
1000
OWNER
1000
GEN
1002
}
1001
GENIUS_GENODEF_13
1002
{
1000
HIER
1070
     0
1002
}
1002
{
1000
MANEDIT
1070
     0
1002
}
1002
{
1000
NOSEL
1070
     0
1002
}
1002
{
1000
BEHIND
1070
     0
1002
}
1002
{
1000
OTHER
1070
     0
1002
}
1002
{
1000
REACTOR
1002
}
  0
LINE
  5
45B7
  8
0
 10
198.86907646237881
 20
-21.325680005634229
 30
0.0
 11
198.86907646237881
 21
3.6256800056344209
 31
0.0
  0
LINE
  5
45B8
  8
0
 10
191.451249576934
 20
16.400000000000539
 30
0.0
 11
191.451249576934
 21
-34.099999999999447
 31
0.0
  0
LINE
  5
45B9
  8
0
 10
194.3012495769344
 20
15.57522494169643
 30
0.0
 11
194.30124957693249
 21
-33.275224941695342
 31
0.0
  0
LINE
  5
45BA
  8
0
  6
CENTER
 10
188.30250685587811
 20
-8.8499999999994543
 30
0.0
 11
219.48225944314979
 21
-8.8499999999994543
 31
0.0
  0
LINE
  5
45BB
  8
0
 10
200.2694910933933
 20
3.8500000000003629
 30
0.0
 11
213.45124857692269
 21
3.8500000000003629
 31
0.0
  0
ARC
  5
45BC
  8
0
 10
200.2694910933933
 20
5.8500000000003629
 30
0.0
 40
2.0
 50
199.9999999999803
 51
270.0
1001
GENIUS_GENOBJ-N-FIL_13
1002
{
1000
OWNER
1000
GEN
1002
}
1001
GENIUS_GENODEF_13
1002
{
1000
HIER
1070
     0
1002
}
1002
{
1000
MANEDIT
1070
     0
1002
}
1002
{
1000
NOSEL
1070
     0
1002
}
1002
{
1000
BEHIND
1070
     0
1002
}
1002
{
1000
OTHER
1070
     0
1002
}
1002
{
1000
REACTOR
1002
}
  0
LINE
  5
45BD
  8
0
 10
191.451249576934
 20
16.400000000000539
 30
0.0
 11
193.74108354636701
 21
16.400000000000539
 31
0.0
  0
LINE
  5
45BF
  8
0
 10
194.49283764299611
 20
15.873616114660759
 30
0.0
 11
198.3901058518222
 21
5.1659597133493662
 31
0.0
  0
ARC
  5
45C0
  8
0
 10
193.74108354636701
 20
15.60000000000036
 30
0.0
 40
0.8
 50
19.999999999980322
 51
90.0
1001
GENIUS_GENOBJ-N-FIL_13
1002
{
1000
OWNER
1000
GEN
1002
}
1001
GENIUS_GENODEF_13
1002
{
1000
HIER
1070
     0
1002
}
1002
{
1000
MANEDIT
1070
     0
1002
}
1002
{
1000
NOSEL
1070
     0
1002
}
1002
{
1000
BEHIND
1070
     0
1002
}
1002
{
1000
OTHER
1070
     0
1002
}
1002
{
1000
REACTOR
1002
}
  0
LINE
  5
45C1
  8
0
 10
200.2694910933933
 20
-21.549999999999269
 30
0.0
 11
213.45124857692269
 21
-21.549999999999269
 31
0.0
  0
ARC
  5
45C2
  8
0
 10
200.2694910933933
 20
-23.549999999999269
 30
0.0
 40
2.0
 50
90.0
 51
160.00000000001961
1001
GENIUS_GENOBJ-N-FIL_13
1002
{
1000
OWNER
1000
GEN
1002
}
1001
GENIUS_GENODEF_13
1002
{
1000
HIER
1070
     0
1002
}
1002
{
1000
MANEDIT
1070
     0
1002
}
1002
{
1000
NOSEL
1070
     0
1002
}
1002
{
1000
BEHIND
1070
     0
1002
}
1002
{
1000
OTHER
1070
     0
1002
}
1002
{
1000
REACTOR
1002
}
  0
LINE
  5
45C3
  8
0
 10
191.451249576934
 20
-34.099999999999447
 30
0.0
 11
193.74108354636701
 21
-34.099999999999447
 31
0.0
  0
LINE
  5
45C4
  8
0
 10
194.49283764299429
 20
-33.573616114659671
 30
0.0
 11
198.3901058518222
 21
-22.865959713348271
 31
0.0
  0
ARC
  5
45C5
  8
0
 10
193.74108354636701
 20
-33.299999999999272
 30
0.0
 40
0.8
 50
270.0
 51
340.00000000001961
1001
GENIUS_GENOBJ-N-FIL_13
1002
{
1000
OWNER
1000
GEN
1002
}
1001
GENIUS_GENODEF_13
1002
{
1000
HIER
1070
     0
1002
}
1002
{
1000
MANEDIT
1070
     0
1002
}
1002
{
1000
NOSEL
1070
     0
1002
}
1002
{
1000
BEHIND
1070
     0
1002
}
1002
{
1000
OTHER
1070
     0
1002
}
1002
{
1000
REACTOR
1002
}
  0
TEXT
  5
463F
  8
0
 10
877.11791624360058
 20
534.28139750375885
 30
0.0
 40
50.0
  1
2SX2000L-20AX1S
 72
     4
 11
1235.4512495769341
 21
559.28139750375885
 31
0.0
  0
CIRCLE
  5
62A1
  8
0
 10
2151.4512495769359
 20
411.67147954931801
 30
0.0
 40
50.0
  0
CIRCLE
  5
62A2
  8
0
  6
CENTER
 10
2151.4512495769359
 20
411.67147954931801
 30
0.0
 40
37.5
  0
CIRCLE
  5
62A3
  8
0
 10
2124.9347452824381
 20
438.18798384381353
 30
0.0
 40
7.5
  0
CIRCLE
  5
62A4
  8
0
 10
2177.9677538714291
 20
438.18798384381353
 30
0.0
 40
7.5
  0
CIRCLE
  5
62A5
  8
0
 10
2124.9347452824381
 20
385.1549752548226
 30
0.0
 40
7.5
  0
CIRCLE
  5
62A6
  8
0
 10
2177.9677538714291
 20
385.1549752548226
 30
0.0
 40
7.5
  0
CIRCLE
  5
62A7
  8
AM_0_T3
 10
2151.4512495769341
 20
411.67147954931801
 30
0.0
 40
13.5999999999999
  0
LINE
  5
639B
  8
0
 10
2272.0334226914888
 20
21.325680005634229
 30
0.0
 11
2272.0334226914888
 21
-3.6256800056344209
 31
0.0
  0
LINE
  5
639C
  8
0
 10
2279.4512495769341
 20
-16.400000000000539
 30
0.0
 11
2279.4512495769341
 21
34.099999999999447
 31
0.0
  0
LINE
  5
639D
  8
0
 10
2276.6012495769342
 20
-15.57522494169643
 30
0.0
 11
2276.6012495769351
 21
33.275224941695342
 31
0.0
  0
LINE
  5
639E
  8
0
 10
2270.6330080604739
 20
-3.8500000000003629
 30
0.0
 11
2257.4512505769449
 21
-3.8500000000003629
 31
0.0
  0
ARC
  5
639F
  8
0
 10
2270.6330080604739
 20
-5.8500000000003629
 30
0.0
 40
2.0
 50
20.000000000029289
 51
90.0
1001
GENIUS_GENOBJ-N-FIL_13
1002
{
1000
OWNER
1000
GEN
1002
}
1001
GENIUS_GENODEF_13
1002
{
1000
HIER
1070
     0
1002
}
1002
{
1000
MANEDIT
1070
     0
1002
}
1002
{
1000
NOSEL
1070
     0
1002
}
1002
{
1000
BEHIND
1070
     0
1002
}
1002
{
1000
OTHER
1070
     0
1002
}
1002
{
1000
REACTOR
1002
}
  0
LINE
  5
63A0
  8
0
 10
2279.4512495769341
 20
-16.400000000000539
 30
0.0
 11
2277.1614156075011
 21
-16.400000000000539
 31
0.0
  0
LINE
  5
63A1
  8
0
 10
2276.409661510871
 20
-15.873616114660759
 30
0.0
 11
2272.512393302045
 21
-5.1659597133493662
 31
0.0
  0
ARC
  5
63A2
  8
0
 10
2277.1614156075011
 20
-15.60000000000036
 30
0.0
 40
0.8
 50
200.00000000002919
 51
270.0
1001
GENIUS_GENOBJ-N-FIL_13
1002
{
1000
OWNER
1000
GEN
1002
}
1001
GENIUS_GENODEF_13
1002
{
1000
HIER
1070
     0
1002
}
1002
{
1000
MANEDIT
1070
     0
1002
}
1002
{
1000
NOSEL
1070
     0
1002
}
1002
{
1000
BEHIND
1070
     0
1002
}
1002
{
1000
OTHER
1070
     0
1002
}
1002
{
1000
REACTOR
1002
}
  0
LINE
  5
63A3
  8
0
 10
2270.6330080604739
 20
21.549999999999269
 30
0.0
 11
2257.4512505769449
 21
21.549999999999269
 31
0.0
  0
ARC
  5
63A4
  8
0
 10
2270.6330080604739
 20
23.549999999999269
 30
0.0
 40
2.0
 50
270.0
 51
339.99999999997073
1001
GENIUS_GENOBJ-N-FIL_13
1002
{
1000
OWNER
1000
GEN
1002
}
1001
GENIUS_GENODEF_13
1002
{
1000
HIER
1070
     0
1002
}
1002
{
1000
MANEDIT
1070
     0
1002
}
1002
{
1000
NOSEL
1070
     0
1002
}
1002
{
1000
BEHIND
1070
     0
1002
}
1002
{
1000
OTHER
1070
     0
1002
}
1002
{
1000
REACTOR
1002
}
  0
LINE
  5
63A5
  8
0
 10
2279.4512495769341
 20
34.099999999999447
 30
0.0
 11
2277.1614156075011
 21
34.099999999999447
 31
0.0
  0
LINE
  5
63A6
  8
0
 10
2276.4096615108729
 20
33.573616114659671
 30
0.0
 11
2272.512393302045
 21
22.865959713348271
 31
0.0
  0
ARC
  5
63A7
  8
0
 10
2277.1614156075011
 20
33.299999999999272
 30
0.0
 40
0.8
 50
90.0
 51
159.99999999997061
1001
GENIUS_GENOBJ-N-FIL_13
1002
{
1000
OWNER
1000
GEN
1002
}
1001
GENIUS_GENODEF_13
1002
{
1000
HIER
1070
     0
1002
}
1002
{
1000
MANEDIT
1070
     0
1002
}
1002
{
1000
NOSEL
1070
     0
1002
}
1002
{
1000
BEHIND
1070
     0
1002
}
1002
{
1000
OTHER
1070
     0
1002
}
1002
{
1000
REACTOR
1002
}
  0
LINE
  5
63A9
  8
0
  6
CENTER
 10
2282.59999229799
 20
8.8499999999994543
 30
0.0
 11
2251.4202397107179
 21
8.8499999999994543
 31
0.0
  0
LINE
  5
63AA
  8
0
 10
198.86907646237881
 20
424.14715955495279
 30
0.0
 11
198.86907646237881
 21
399.19579954368322
 31
0.0
  0
LINE
  5
63AB
  8
0
 10
191.451249576934
 20
386.42147954931801
 30
0.0
 11
191.451249576934
 21
436.92147954931812
 31
0.0
  0
LINE
  5
63AC
  8
0
 10
194.3012495769344
 20
387.24625460762212
 30
0.0
 11
194.30124957693249
 21
436.0967044910139
 31
0.0
  0
LINE
  5
63AD
  8
0
 10
200.2694910933933
 20
398.97147954931819
 30
0.0
 11
213.45124857692269
 21
398.97147954931819
 31
0.0
  0
ARC
  5
63AE
  8
0
 10
200.2694910933933
 20
396.97147954931819
 30
0.0
 40
2.0
 50
90.0
 51
159.99999999997061
1001
GENIUS_GENOBJ-N-FIL_13
1002
{
1000
OWNER
1000
GEN
1002
}
1001
GENIUS_GENODEF_13
1002
{
1000
HIER
1070
     0
1002
}
1002
{
1000
MANEDIT
1070
     0
1002
}
1002
{
1000
NOSEL
1070
     0
1002
}
1002
{
1000
BEHIND
1070
     0
1002
}
1002
{
1000
OTHER
1070
     0
1002
}
1002
{
1000
REACTOR
1002
}
  0
LINE
  5
63AF
  8
0
 10
191.451249576934
 20
386.42147954931801
 30
0.0
 11
193.74108354636701
 21
386.42147954931801
 31
0.0
  0
LINE
  5
63B0
  8
0
 10
194.49283764299611
 20
386.94786343465779
 30
0.0
 11
198.3901058518222
 21
397.65551983596919
 31
0.0
  0
ARC
  5
63B1
  8
0
 10
193.74108354636701
 20
387.22147954931819
 30
0.0
 40
0.8
 50
270.0
 51
339.99999999997073
1001
GENIUS_GENOBJ-N-FIL_13
1002
{
1000
OWNER
1000
GEN
1002
}
1001
GENIUS_GENODEF_13
1002
{
1000
HIER
1070
     0
1002
}
1002
{
1000
MANEDIT
1070
     0
1002
}
1002
{
1000
NOSEL
1070
     0
1002
}
1002
{
1000
BEHIND
1070
     0
1002
}
1002
{
1000
OTHER
1070
     0
1002
}
1002
{
1000
REACTOR
1002
}
  0
LINE
  5
63B2
  8
0
 10
200.2694910933933
 20
424.37147954931783
 30
0.0
 11
213.45124857692269
 21
424.37147954931783
 31
0.0
  0
ARC
  5
63B3
  8
0
 10
200.2694910933933
 20
426.37147954931788
 30
0.0
 40
2.0
 50
200.00000000002919
 51
270.0
1001
GENIUS_GENOBJ-N-FIL_13
1002
{
1000
OWNER
1000
GEN
1002
}
1001
GENIUS_GENODEF_13
1002
{
1000
HIER
1070
     0
1002
}
1002
{
1000
MANEDIT
1070
     0
1002
}
1002
{
1000
NOSEL
1070
     0
1002
}
1002
{
1000
BEHIND
1070
     0
1002
}
1002
{
1000
OTHER
1070
     0
1002
}
1002
{
1000
REACTOR
1002
}
  0
LINE
  5
63B4
  8
0
 10
191.451249576934
 20
436.92147954931812
 30
0.0
 11
193.74108354636701
 21
436.92147954931812
 31
0.0
  0
LINE
  5
63B5
  8
0
 10
194.49283764299429
 20
436.39509566397822
 30
0.0
 11
198.3901058518222
 21
425.68743926266683
 31
0.0
  0
ARC
  5
63B6
  8
0
 10
193.74108354636701
 20
436.12147954931788
 30
0.0
 40
0.8
 50
20.000000000029289
 51
90.0
1001
GENIUS_GENOBJ-N-FIL_13
1002
{
1000
OWNER
1000
GEN
1002
}
1001
GENIUS_GENODEF_13
1002
{
1000
HIER
1070
     0
1002
}
1002
{
1000
MANEDIT
1070
     0
1002
}
1002
{
1000
NOSEL
1070
     0
1002
}
1002
{
1000
BEHIND
1070
     0
1002
}
1002
{
1000
OTHER
1070
     0
1002
}
1002
{
1000
REACTOR
1002
}
  0
LINE
  5
6715
  8
0
 10
3.0
 20
-55.0
 30
0.0
 11
3.0
 21
-33.921148757086478
 31
0.0
  0
LINE
  5
6716
  8
0
 10
13.0
 20
-55.0
 30
0.0
 11
13.0
 21
-35.707142000000204
 31
0.0
  0
LINE
  5
6717
  8
0
 10
-3.0
 20
-55.0
 30
0.0
 11
-3.0
 21
-33.921148757086478
 31
0.0
  0
LINE
  5
6718
  8
0
 10
-13.0
 20
-55.0
 30
0.0
 11
-13.0
 21
-35.707142000000204
 31
0.0
  0
LINE
  5
6719
  8
0
 10
13.0
 20
55.0
 30
0.0
 11
13.0
 21
35.707142000000204
 31
0.0
  0
LINE
  5
671A
  8
0
 10
3.0
 20
55.0
 30
0.0
 11
3.0
 21
28.844409999999701
 31
0.0
  0
LINE
  5
671B
  8
0
 10
-3.0
 20
55.0
 30
0.0
 11
-3.0
 21
28.844409999999701
 31
0.0
  0
LINE
  5
671C
  8
0
 10
-13.0
 20
55.0
 30
0.0
 11
-13.0
 21
35.707142000000204
 31
0.0
  0
LINE
  5
671D
  8
0
 10
13.0
 20
-55.0
 30
0.0
 11
3.0
 21
-55.0
 31
0.0
  0
LINE
  5
671E
  8
0
 10
-13.0
 20
-55.0
 30
0.0
 11
-3.0
 21
-55.0
 31
0.0
  0
LINE
  5
671F
  8
0
 10
13.0
 20
55.0
 30
0.0
 11
3.0
 21
55.0
 31
0.0
  0
LINE
  5
6720
  8
0
 10
-13.0
 20
55.0
 30
0.0
 11
-3.0
 21
55.0
 31
0.0
  0
LINE
  5
6721
  8
0
 10
-3.0
 20
52.0
 30
0.0
 11
3.0
 21
52.0
 31
0.0
  0
LINE
  5
6722
  8
0
 10
-3.0
 20
44.0
 30
0.0
 11
3.0
 21
44.0
 31
0.0
  0
LINE
  5
6723
  8
0
 10
-3.0
 20
-52.0
 30
0.0
 11
3.0
 21
-52.0
 31
0.0
  0
LINE
  5
6724
  8
0
 10
-3.0
 20
-44.0
 30
0.0
 11
3.0
 21
-44.0
 31
0.0
  0
LINE
  5
6725
  8
0
 10
-27.0
 20
44.0
 30
0.0
 11
-21.499999999999989
 21
44.0
 31
0.0
  0
LINE
  5
6726
  8
0
 10
-21.499999999999989
 20
43.0
 30
0.0
 11
-21.499999999999989
 21
53.0
 31
0.0
  0
LINE
  5
6727
  8
0
 10
-27.0
 20
44.0
 30
0.0
 11
-27.0
 21
52.0
 31
0.0
  0
LINE
  5
6728
  8
0
 10
-20.5
 20
42.0
 30
0.0
 11
-19.5
 21
42.0
 31
0.0
  0
LINE
  5
6729
  8
0
 10
-20.5
 20
54.0
 30
0.0
 11
-19.5
 21
54.0
 31
0.0
  0
LINE
  5
672A
  8
0
 10
-19.5
 20
54.5
 30
0.0
 11
-19.5
 21
41.5
 31
0.0
  0
LINE
  5
672B
  8
0
 10
-19.5
 20
54.5
 30
0.0
 11
-13.0
 21
54.5
 31
0.0
  0
LINE
  5
672C
  8
0
 10
-19.5
 20
41.5
 30
0.0
 11
-13.0
 21
41.5
 31
0.0
  0
LINE
  5
672D
  8
0
 10
-27.0
 20
52.0
 30
0.0
 11
-21.499999999999989
 21
52.0
 31
0.0
  0
LINE
  5
672E
  8
0
  6
CENTER
 10
-28.65133499999865
 20
48.0
 30
0.0
 11
22.389211999998221
 21
48.0
 31
0.0
  0
LINE
  5
672F
  8
0
 10
-27.0
 20
-44.0
 30
0.0
 11
-21.499999999999989
 21
-44.0
 31
0.0
  0
LINE
  5
6730
  8
0
 10
-21.499999999999989
 20
-43.0
 30
0.0
 11
-21.499999999999989
 21
-53.0
 31
0.0
  0
LINE
  5
6731
  8
0
 10
-27.0
 20
-44.0
 30
0.0
 11
-27.0
 21
-52.0
 31
0.0
  0
LINE
  5
6732
  8
0
 10
-20.5
 20
-42.0
 30
0.0
 11
-19.5
 21
-42.0
 31
0.0
  0
LINE
  5
6733
  8
0
 10
-20.5
 20
-54.0
 30
0.0
 11
-19.5
 21
-54.0
 31
0.0
  0
LINE
  5
6734
  8
0
 10
-19.5
 20
-54.5
 30
0.0
 11
-19.5
 21
-41.5
 31
0.0
  0
LINE
  5
6735
  8
0
 10
-19.5
 20
-54.5
 30
0.0
 11
-13.0
 21
-54.5
 31
0.0
  0
LINE
  5
6736
  8
0
 10
-19.5
 20
-41.5
 30
0.0
 11
-13.0
 21
-41.5
 31
0.0
  0
LINE
  5
6737
  8
0
 10
-27.0
 20
-52.0
 30
0.0
 11
-21.499999999999989
 21
-52.0
 31
0.0
  0
LINE
  5
6738
  8
0
  6
CENTER
 10
-28.65133499999865
 20
-48.0
 30
0.0
 11
21.827725999999529
 21
-48.0
 31
0.0
  0
LINE
  5
6739
  8
0
 10
18.5
 20
-44.75
 30
0.0
 11
18.5
 21
-51.25
 31
0.0
  0
LINE
  5
673A
  8
0
 10
17.77510600000096
 20
-41.5
 30
0.0
 11
13.0
 21
-41.5
 31
0.0
  0
LINE
  5
673B
  8
0
 10
17.77510600000096
 20
-54.5
 30
0.0
 11
13.0
 21
-54.5
 31
0.0
  0
LINE
  5
673C
  8
0
 10
18.5
 20
44.75
 30
0.0
 11
18.5
 21
51.25
 31
0.0
  0
LINE
  5
673D
  8
0
 10
17.77510600000096
 20
41.5
 30
0.0
 11
13.0
 21
41.5
 31
0.0
  0
LINE
  5
673E
  8
0
 10
17.77510600000096
 20
54.5
 30
0.0
 11
13.0
 21
54.5
 31
0.0
  0
ARC
  5
673F
  8
0
 10
0.0
 20
0.0
 30
0.0
 40
38.0
 50
94.528060000078654
 51
265.47193500007768
  0
ARC
  5
6740
  8
0
 10
0.0
 20
0.0
 30
0.0
 40
29.0
 50
95.937769999914806
 51
213.29286703405319
  0
ARC
  5
6741
  8
0
 10
0.0
 20
0.0
 30
0.0
 40
31.0
 50
95.937769999914806
 51
227.07143144192619
  0
ARC
  5
6742
  8
0
 10
0.0
 20
0.0
 30
0.0
 40
38.0
 50
274.5280629999433
 51
85.471936986256168
  0
ARC
  5
6743
  8
0
 10
0.0
 20
0.0
 30
0.0
 40
29.0
 50
326.7071329659467
 51
84.062220000053145
  0
ARC
  5
6744
  8
0
 10
0.0
 20
0.0
 30
0.0
 40
31.0
 50
312.92856855807378
 51
84.446555804293325
  0
ARC
  5
6745
  8
0
 10
-20.5
 20
43.0
 30
0.0
 40
1.0
 50
179.99998999994679
 51
269.99999600002042
  0
ARC
  5
6746
  8
0
 10
-20.5
 20
53.0
 30
0.0
 40
1.0
 50
90.0
 51
180.00000500893739
  0
ARC
  5
6747
  8
0
 10
-11.85200500000064
 20
51.25
 30
0.0
 40
7.6479949999999981
 50
154.85262999998901
 51
205.14737500014601
  0
ARC
  5
6748
  8
0
 10
-11.85200500000064
 20
44.75
 30
0.0
 40
7.6479949999999981
 50
154.85262999998901
 51
205.14736800002231
  0
ARC
  5
6749
  8
0
 10
-20.647994999999352
 20
51.25
 30
0.0
 40
7.6479949999999981
 50
334.85262999998901
 51
25.14737000001092
  0
ARC
  5
674A
  8
0
 10
-20.647994999999352
 20
44.75
 30
0.0
 40
7.6479949999999981
 50
334.85262999998901
 51
25.14737000001092
  0
ARC
  5
674B
  8
0
 10
-20.5
 20
-43.0
 30
0.0
 40
1.0
 50
90.0
 51
180.00000500893739
  0
ARC
  5
674C
  8
0
 10
-20.5
 20
-53.0
 30
0.0
 40
1.0
 50
179.99998999994679
 51
269.99999600002042
  0
ARC
  5
674D
  8
0
 10
-11.85200500000064
 20
-51.25
 30
0.0
 40
7.6479949999999981
 50
154.85261999999599
 51
205.14737199986081
  0
ARC
  5
674E
  8
0
 10
-11.85200500000064
 20
-44.75
 30
0.0
 40
7.6479949999999981
 50
154.85262999998901
 51
205.14737199986081
  0
ARC
  5
674F
  8
0
 10
-20.647994999999352
 20
-51.25
 30
0.0
 40
7.6479949999999981
 50
334.85262999998901
 51
25.14737000001092
  0
ARC
  5
6750
  8
0
 10
-20.647994999999352
 20
-44.75
 30
0.0
 40
7.6479949999999981
 50
334.85262999998901
 51
25.14737000001092
  0
ARC
  5
6751
  8
0
 10
10.85200500000064
 20
-44.75
 30
0.0
 40
7.647994500000002
 50
334.85262999998901
 51
25.14737000001092
  0
ARC
  5
6752
  8
0
 10
10.85200500000064
 20
-51.25
 30
0.0
 40
7.647994500000002
 50
334.85262999998901
 51
25.14737000001092
  0
ARC
  5
6753
  8
0
 10
10.85200500000064
 20
44.75
 30
0.0
 40
7.647994500000002
 50
334.85262999998901
 51
25.14737000001092
  0
ARC
  5
6754
  8
0
 10
10.85200500000064
 20
51.25
 30
0.0
 40
7.647994500000002
 50
334.85262999998901
 51
25.14737000001092
  0
LINE
  5
6755
  8
0
  6
CENTER
 10
-55.759478892276093
 20
0.0
 30
0.0
 11
55.759478892276093
 21
0.0
 31
0.0
  0
LINE
  5
6799
  8
0
  6
CENTER
 10
-30.518080352572721
 20
-8.8499999999994543
 30
0.0
 11
30.518080352572721
 21
-8.8499999999994543
 31
0.0
  0
LINE
  5
67AC
  8
0
 10
-50.0
 20
-75.999999999999091
 30
0.0
 11
50.0
 21
-75.999999999999091
 31
0.0
  0
LINE
  5
67AD
  8
0
 10
50.0
 20
-89.999999999999091
 30
0.0
 11
-50.0
 21
-90.0
 31
0.0
  0
LINE
  5
67AE
  8
0
  6
CENTER
 10
37.5
 20
-98.999999999999091
 30
0.0
 11
37.5
 21
-65.999999999999091
 31
0.0
  0
LINE
  5
67AF
  8
0
 10
50.0
 20
-75.999999999999091
 30
0.0
 11
50.0
 21
-89.999999999999091
 31
0.0
  0
LINE
  5
67B0
  8
0
  6
CENTER
 10
-37.5
 20
-98.999999999999091
 30
0.0
 11
-37.5
 21
-65.999999999999091
 31
0.0
  0
LINE
  5
67B1
  8
0
 10
-50.0
 20
-90.0
 30
0.0
 11
-50.0
 21
-75.999999999999091
 31
0.0
  0
LINE
  5
67B2
  8
0
 10
13.60000000000036
 20
-75.999999999999091
 30
0.0
 11
13.60000000000036
 21
-54.5
 31
0.0
  0
LINE
  5
67B3
  8
0
 10
13.60000000000036
 20
-41.5
 30
0.0
 11
13.60000000000036
 21
-35.482953653831821
 31
0.0
  0
LINE
  5
67B4
  8
0
 10
-13.60000000000036
 20
-75.999999999999091
 30
0.0
 11
-13.60000000000036
 21
-54.5
 31
0.0
  0
LINE
  5
67B5
  8
0
 10
-13.60000000000036
 20
-41.5
 30
0.0
 11
-13.599999999998539
 21
-35.48295365383273
 31
0.0
  0
LINE
  5
67B6
  8
0
  6
CENTER
 10
0.0
 20
-98.0
 30
0.0
 11
0.0
 21
98.0
 31
0.0
  0
LINE
  5
67B7
  8
0
 10
-50.0
 20
75.999999999999091
 30
0.0
 11
50.0
 21
75.999999999999091
 31
0.0
  0
LINE
  5
67B8
  8
0
 10
50.0
 20
89.999999999999091
 30
0.0
 11
-50.0
 21
90.0
 31
0.0
  0
LINE
  5
67B9
  8
0
  6
CENTER
 10
37.5
 20
98.999999999999091
 30
0.0
 11
37.5
 21
65.999999999999091
 31
0.0
  0
LINE
  5
67BA
  8
0
 10
50.0
 20
75.999999999999091
 30
0.0
 11
50.0
 21
89.999999999999091
 31
0.0
  0
LINE
  5
67BB
  8
0
  6
CENTER
 10
-37.5
 20
98.999999999999091
 30
0.0
 11
-37.5
 21
65.999999999999091
 31
0.0
  0
LINE
  5
67BC
  8
0
 10
-50.0
 20
90.0
 30
0.0
 11
-50.0
 21
75.999999999999091
 31
0.0
  0
LINE
  5
67BD
  8
0
 10
13.60000000000036
 20
75.999999999999091
 30
0.0
 11
13.60000000000036
 21
54.5
 31
0.0
  0
LINE
  5
67BE
  8
0
 10
13.60000000000036
 20
41.500000000000902
 30
0.0
 11
13.60000000000036
 21
35.482953653831821
 31
0.0
  0
LINE
  5
67BF
  8
0
 10
-13.60000000000036
 20
75.999999999999091
 30
0.0
 11
-13.600000000002179
 21
54.5
 31
0.0
  0
LINE
  5
67C0
  8
0
 10
-13.600000000002179
 20
41.5
 30
0.0
 11
-13.60000000000036
 21
35.482953653831821
 31
0.0
  0
CIRCLE
  5
67ED
  8
AM_0_T3
 10
0.0
 20
-8.8499999999994543
 30
0.0
 40
25.25
  0
CIRCLE
  5
67EE
  8
AM_0_T3
 10
0.0
 20
-8.8499999999994543
 30
0.0
 40
12.70000000000004
  0
ENDSEC
  0
EOF
