  0
SECTION
  2
HEADER
  9
$ACADVER
  1
AC1009
  9
$INSBASE
 10
0.0
 20
0.0
 30
0.0
  9
$EXTMIN
 10
-62.500000000047287
 20
-95.000000000573877
 30
0.0
  9
$EXTMAX
 10
2297.392233462494
 20
579.28139750319588
 30
0.0
  9
$LIMMIN
 10
0.0
 20
0.0
  9
$LIMMAX
 10
420.0
 20
297.0
  9
$ORTHOMODE
 70
     0
  9
$REGENMODE
 70
     1
  9
$FILLMODE
 70
     1
  9
$QTEXTMODE
 70
     0
  9
$MIRRTEXT
 70
     1
  9
$DRAGMODE
 70
     2
  9
$LTSCALE
 40
1.0
  9
$OSMODE
 70
    37
  9
$ATTMODE
 70
     1
  9
$TEXTSIZE
 40
73.985717453579113
  9
$TRACEWID
 40
1.0
  9
$TEXTSTYLE
  7
STANDARD
  9
$CLAYER
  8
0
  9
$CELTYPE
  6
BYLAYER
  9
$CECOLOR
 62
   256
  9
$DIMSCALE
 40
1.0
  9
$DIMASZ
 40
0.18
  9
$DIMEXO
 40
0.0625
  9
$DIMDLI
 40
0.38
  9
$DIMRND
 40
0.0
  9
$DIMDLE
 40
0.0
  9
$DIMEXE
 40
0.18
  9
$DIMTP
 40
0.0
  9
$DIMTM
 40
0.0
  9
$DIMTXT
 40
30.0
  9
$DIMCEN
 40
0.09
  9
$DIMTSZ
 40
0.0
  9
$DIMTOL
 70
     0
  9
$DIMLIM
 70
     0
  9
$DIMTIH
 70
     1
  9
$DIMTOH
 70
     1
  9
$DIMSE1
 70
     0
  9
$DIMSE2
 70
     0
  9
$DIMTAD
 70
     0
  9
$DIMZIN
 70
     0
  9
$DIMBLK
  1

  9
$DIMASO
 70
     1
  9
$DIMSHO
 70
     1
  9
$DIMPOST
  1

  9
$DIMAPOST
  1

  9
$DIMALT
 70
     0
  9
$DIMALTD
 70
     2
  9
$DIMALTF
 40
25.399999999999999
  9
$DIMLFAC
 40
1.0
  9
$DIMTOFL
 70
     0
  9
$DIMTVP
 40
0.0
  9
$DIMTIX
 70
     0
  9
$DIMSOXD
 70
     0
  9
$DIMSAH
 70
     0
  9
$DIMBLK1
  1

  9
$DIMBLK2
  1

  9
$DIMSTYLE
  2
STANDARD
  9
$DIMCLRD
 70
     0
  9
$DIMCLRE
 70
     0
  9
$DIMCLRT
 70
     0
  9
$DIMTFAC
 40
1.0
  9
$DIMGAP
 40
0.09
  9
$LUNITS
 70
     2
  9
$LUPREC
 70
     8
  9
$SKETCHINC
 40
1.0
  9
$FILLETRAD
 40
0.0
  9
$AUNITS
 70
     0
  9
$AUPREC
 70
     8
  9
$MENU
  1
.
  9
$ELEVATION
 40
0.0
  9
$PELEVATION
 40
0.0
  9
$THICKNESS
 40
0.0
  9
$LIMCHECK
 70
     0
  9
$BLIPMODE
 70
     0
  9
$CHAMFERA
 40
2.5
  9
$CHAMFERB
 40
2.5
  9
$SKPOLY
 70
     0
  9
$TDCREATE
 40
2454739.7204081588
  9
$TDUPDATE
 40
2454748.5616168752
  9
$TDINDWG
 40
0.2932879514
  9
$TDUSRTIMER
 40
0.2932879514
  9
$USRTIMER
 70
     1
  9
$ANGBASE
 50
0.0
  9
$ANGDIR
 70
     1
  9
$PDMODE
 70
     0
  9
$PDSIZE
 40
0.0
  9
$PLINEWID
 40
0.0
  9
$COORDS
 70
     1
  9
$SPLFRAME
 70
     0
  9
$SPLINETYPE
 70
     6
  9
$SPLINESEGS
 70
     8
  9
$ATTDIA
 70
     0
  9
$ATTREQ
 70
     1
  9
$HANDLING
 70
 22529
  9
$HANDSEED
  5
6BCC
  9
$SURFTAB1
 70
     6
  9
$SURFTAB2
 70
     6
  9
$SURFTYPE
 70
     6
  9
$SURFU
 70
     6
  9
$SURFV
 70
     6
  9
$UCSNAME
  2

  9
$UCSORG
 10
0.0
 20
0.0
 30
0.0
  9
$UCSXDIR
 10
1.0
 20
0.0
 30
0.0
  9
$UCSYDIR
 10
0.0
 20
1.0
 30
0.0
  9
$PUCSNAME
  2

  9
$PUCSORG
 10
0.0
 20
0.0
 30
0.0
  9
$PUCSXDIR
 10
1.0
 20
0.0
 30
0.0
  9
$PUCSYDIR
 10
0.0
 20
1.0
 30
0.0
  9
$USERI1
 70
     0
  9
$USERI2
 70
     0
  9
$USERI3
 70
     0
  9
$USERI4
 70
     0
  9
$USERI5
 70
     0
  9
$USERR1
 40
0.0
  9
$USERR2
 40
0.0
  9
$USERR3
 40
0.0
  9
$USERR4
 40
0.0
  9
$USERR5
 40
0.0
  9
$WORLDVIEW
 70
     1
  9
$SHADEDGE
 70
     3
  9
$SHADEDIF
 70
    70
  9
$TILEMODE
 70
     1
  9
$MAXACTVP
 70
    48
  9
$PLIMCHECK
 70
     0
  9
$PEXTMIN
 10
1.0000000000000000E+020
 20
1.0000000000000000E+020
 30
1.0000000000000000E+020
  9
$PEXTMAX
 10
-1.0000000000000000E+020
 20
-1.0000000000000000E+020
 30
-1.0000000000000000E+020
  9
$PLIMMIN
 10
0.0
 20
0.0
  9
$PLIMMAX
 10
420.0
 20
297.0
  9
$UNITMODE
 70
     0
  9
$VISRETAIN
 70
     1
  9
$PLINEGEN
 70
     0
  9
$PSLTSCALE
 70
     1
  0
ENDSEC
  0
SECTION
  2
TABLES
  0
TABLE
  2
VPORT
 70
     2
  0
VPORT
  2
*ACTIVE
 70
     0
 10
0.0
 20
0.0
 11
1.0
 21
1.0
 12
1458.7703060557201
 22
242.15377845838779
 13
0.0
 23
0.0
 14
2.5
 24
2.5
 15
10.0
 25
10.0
 16
0.0
 26
0.0
 36
1.0
 17
0.0
 27
0.0
 37
0.0
 40
1548.3534693909471
 41
1.9727626459143961
 42
50.0
 43
0.0
 44
0.0
 50
0.0
 51
0.0
 71
     0
 72
   100
 73
     1
 74
     3
 75
     0
 76
     0
 77
     0
 78
     0
  0
ENDTAB
  0
TABLE
  2
LTYPE
 70
     2
  0
LTYPE
  2
CONTINUOUS
 70
     0
  3
Solid line
 72
    65
 73
     0
 40
0.0
  0
LTYPE
  2
CENTER
 70
     0
  3
__ . __
 72
    65
 73
     4
 40
7.0
 49
4.0
 49
-1.0
 49
1.0
 49
-1.0
  0
ENDTAB
  0
TABLE
  2
LAYER
 70
     2
  0
LAYER
  2
0
 70
     0
 62
     7
  6
CONTINUOUS
  0
LAYER
  2
AM_0_T3
 70
     0
 62
     7
  6
CONTINUOUS
  0
ENDTAB
  0
TABLE
  2
STYLE
 70
     2
  0
STYLE
  2
STANDARD
 70
     0
 40
0.0
 41
0.7
 50
0.0
 71
     0
 42
73.985717453579113
  3
romans.shx
  4
bigfont.shx
  0
STYLE
  2
TSKDIM
 70
     0
 40
0.0
 41
0.75
 50
0.0
 71
     0
 42
4.0
  3
romans.shx
  4
EXTFONT.SHX
  0
ENDTAB
  0
TABLE
  2
VIEW
 70
     0
  0
ENDTAB
  0
TABLE
  2
UCS
 70
     0
  0
ENDTAB
  0
TABLE
  2
APPID
 70
    41
  0
APPID
  2
ACAD
 70
     0
  0
APPID
  2
MCAD_NO_VIS
 70
     0
  0
APPID
  2
ACAD_TEMP_GRAPHIC
 70
     0
  0
APPID
  2
ACATTRIBSERVICES
 70
     0
  0
APPID
  2
AD_DRAW
 70
     0
  0
APPID
  2
DESIGNERASSEMBLIES
 70
     0
  0
APPID
  2
ASURF_PCURVE_APPNAME
 70
     0
  0
APPID
  2
ACADM_DIM_EDIT
 70
     0
  0
APPID
  2
GENIUS_GENDIM_13
 70
     0
  0
APPID
  2
GENIUS_GENDTOL_13
 70
     0
  0
APPID
  2
GENIUS_GE3DTOL_13
 70
     0
  0
APPID
  2
AMG_3D2D_5_0
 70
     0
  0
APPID
  2
AMDT_DM_ADJ
 70
     0
  0
APPID
  2
CK_MATE-SERIES
 70
     0
  0
APPID
  2
GEVID1042077799
 70
     0
  0
APPID
  2
GEVMK
 70
     0
  0
APPID
  2
GEVDC
 70
     0
  0
APPID
  2
GENIUS_GENBH_13
 70
     0
  0
APPID
  2
GENIUS_GENOLIS_13
 70
     0
  0
APPID
  2
GENIUS_GENOENT_13
 70
     0
  0
APPID
  2
GENIUS_GENODEF_13
 70
     0
  0
APPID
  2
GENIUS_GENOBJ-NBEHI-BHF_13
 70
     0
  0
APPID
  2
GENIUS_GENOREF_13
 70
     0
  0
APPID
  2
GENIUS_GENOBJ-NBEHI-BHB_13
 70
     0
  0
APPID
  2
GEVID1042183772
 70
     0
  0
APPID
  2
GEVID1042183773
 70
     0
  0
APPID
  2
GEVID1042183774
 70
     0
  0
APPID
  2
DCO15
 70
     0
  0
APPID
  2
ACAD_DSTYLE_DIMARC_LENGTH_
 70
     0
  0
APPID
  2
ACAD_DSTYLE_DIMJOGGED_JOGA
 70
     0
  0
APPID
  2
ACAD_MLEADERVER
 70
     0
  0
APPID
  2
ACAD_DSTYLE_DIMJAG
 70
     0
  0
APPID
  2
ACAD_DSTYLE_DIMTALN
 70
     0
  0
APPID
  2
ACAD_PSEXT
 70
     0
  0
APPID
  2
ACAD_EXEMPT_FROM_CAD_STANDARDS
 70
     0
  0
APPID
  2
ACAD_DSTYLE_DIMINSPECT
 70
     0
  0
APPID
  2
ACAD_DSTYLE_DIMANGULAR_EXT
 70
     0
  0
APPID
  2
GENIUS_GENOBJ-N-FIL_13
 70
     0
  0
APPID
  2
ACAD_DSTYLE_DIM_LINETYPE
 70
     0
  0
APPID
  2
ACAD_DSTYLE_DIM_EXT1_LINETYPE
 70
     0
  0
APPID
  2
ACAD_DSTYLE_DIM_EXT2_LINETYPE
 70
     0
  0
ENDTAB
  0
TABLE
  2
DIMSTYLE
 70
     1
  0
DIMSTYLE
  2
STANDARD
 70
     0
  3

  4

  5

  6

  7

 40
1.0
 41
0.18
 42
0.0625
 43
0.38
 44
0.18
 45
0.0
 46
0.0
 47
0.0
 48
0.0
140
30.0
141
0.09
142
0.0
143
25.399999999999999
144
1.0
145
0.0
146
1.0
147
0.09
 71
     0
 72
     0
 73
     1
 74
     1
 75
     0
 76
     0
 77
     0
 78
     0
170
     0
171
     2
172
     0
173
     0
174
     0
175
     0
176
     0
177
     0
178
     0
  0
ENDTAB
  0
ENDSEC
  0
SECTION
  2
BLOCKS
  0
BLOCK
  8
0
  2
$MODEL_SPACE
 70
     0
 10
0.0
 20
0.0
 30
0.0
  3
$MODEL_SPACE
  1

  0
ENDBLK
  5
21
  8
0
  0
BLOCK
 67
     1
  8
0
  2
$PAPER_SPACE
 70
     0
 10
0.0
 20
0.0
 30
0.0
  3
$PAPER_SPACE
  1

  0
ENDBLK
  5
1D
 67
     1
  8
0
  0
BLOCK
  8
0
  2
_OPEN
 70
     0
 10
0.0
 20
0.0
 30
0.0
  3
_OPEN
  1

  0
LINE
  5
15A
  8
0
  6
BYBLOCK
 62
     0
 10
-1.0
 20
0.1666666666666666
 30
0.0
 11
0.0
 21
0.0
 31
0.0
  0
LINE
  5
15B
  8
0
  6
BYBLOCK
 62
     0
 10
-1.0
 20
-0.1666666666666666
 30
0.0
 11
0.0
 21
0.0
 31
0.0
  0
LINE
  5
15C
  8
0
  6
BYBLOCK
 62
     0
 10
0.0
 20
0.0
 30
0.0
 11
-1.0
 21
0.0
 31
0.0
  0
ENDBLK
  5
15E
  8
0
  0
ENDSEC
  0
SECTION
  2
ENTITIES
  0
LINE
  5
5AB3
  8
0
 10
1220.0718839223191
 20
-32.500000000560242
 30
0.0
 11
1286.013578631253
 21
-32.500000000559787
 31
0.0
  0
LINE
  5
5AB4
  8
0
 10
1216.342731276789
 20
-26.040918149314621
 30
0.0
 11
1220.0718839223191
 21
-32.500000000560242
 31
0.0
  0
LINE
  5
5AB5
  8
0
 10
1216.342731276796
 20
26.04091814820049
 30
0.0
 11
1220.071883922333
 21
32.499999999440199
 31
0.0
  0
LINE
  5
5AB6
  8
0
 10
1228.292731276789
 20
-32.500000000559787
 30
0.0
 11
1228.292731276797
 21
32.499999999440661
 31
0.0
  0
LINE
  5
5AB7
  8
0
 10
1223.0427312767929
 20
-32.500000000559787
 30
0.0
 11
1223.0427312767929
 21
32.499999999440199
 31
0.0
  0
LINE
  5
5AB8
  8
0
 10
1216.342731276789
 20
-26.040918149314621
 30
0.0
 11
1216.342731276796
 21
26.04091814820049
 31
0.0
  0
LINE
  5
5AB9
  8
0
 10
1220.071883922333
 20
32.499999999440199
 30
0.0
 11
1286.013578631253
 21
32.499999999440199
 31
0.0
  0
LINE
  5
5ABA
  8
0
 10
1237.3007490851451
 20
-32.500000000559787
 30
0.0
 11
1237.3007490851451
 21
32.499999999440661
 31
0.0
  0
LINE
  5
5ABB
  8
0
 10
1241.800749085141
 20
-32.500000000559787
 30
0.0
 11
1241.800749085141
 21
32.499999999440661
 31
0.0
  0
LINE
  5
5ABC
  8
0
 10
1246.3007490851451
 20
-32.500000000559787
 30
0.0
 11
1246.300749085148
 21
32.499999999440661
 31
0.0
  0
LINE
  5
5ABD
  8
0
 10
1250.8007490851371
 20
-32.500000000559787
 30
0.0
 11
1250.8007490851451
 21
32.499999999440661
 31
0.0
  0
LINE
  5
5ABE
  8
0
 10
1232.8133671386599
 20
-32.500000000560242
 30
0.0
 11
1232.8003451380021
 21
32.499999999440199
 31
0.0
  0
LINE
  5
5ABF
  8
0
 10
1216.342731276796
 20
-19.049993271275291
 30
0.0
 11
349.04273127679329
 21
-19.049993271284389
 31
0.0
  0
LINE
  5
5AC0
  8
0
 10
315.04273127679329
 20
-19.049993271284841
 30
0.0
 11
259.2959363262853
 21
-19.049993271285519
 31
0.0
  0
LINE
  5
5AC1
  8
0
 10
1216.342731276789
 20
19.050004803478942
 30
0.0
 11
259.2959363262853
 21
19.050004803479169
 31
0.0
  0
LINE
  5
5AC2
  8
0
 10
1220.0718839223259
 20
-32.500000000561613
 30
0.0
 11
1220.0718839223259
 21
32.49999999943838
 31
0.0
  0
LINE
  5
5AC3
  8
0
 10
1289.742731276797
 20
-26.040918149314621
 30
0.0
 11
1286.013578631253
 21
-32.500000000559787
 31
0.0
  0
LINE
  5
5AC4
  8
0
 10
1289.74273127679
 20
26.04091814820049
 30
0.0
 11
1286.013578631253
 21
32.499999999440199
 31
0.0
  0
LINE
  5
5AC5
  8
0
 10
1277.7927312767929
 20
-32.500000000559787
 30
0.0
 11
1277.7927312767929
 21
32.499999999440661
 31
0.0
  0
LINE
  5
5AC6
  8
0
 10
1283.0427312767929
 20
-32.500000000559787
 30
0.0
 11
1283.0427312767929
 21
32.499999999440199
 31
0.0
  0
LINE
  5
5AC7
  8
0
 10
1289.742731276797
 20
-26.040918149314621
 30
0.0
 11
1289.74273127679
 21
26.04091814820049
 31
0.0
  0
LINE
  5
5AC8
  8
0
 10
1268.7847134684409
 20
-32.500000000559787
 30
0.0
 11
1268.7847134684409
 21
32.499999999440661
 31
0.0
  0
LINE
  5
5AC9
  8
0
 10
1264.284713468448
 20
-32.500000000559787
 30
0.0
 11
1264.284713468448
 21
32.499999999440661
 31
0.0
  0
LINE
  5
5ACA
  8
0
 10
1259.7847134684409
 20
-32.500000000559787
 30
0.0
 11
1259.7847134684339
 21
32.499999999440661
 31
0.0
  0
LINE
  5
5ACB
  8
0
 10
1255.2847134684489
 20
-32.500000000559787
 30
0.0
 11
1255.2847134684409
 21
32.499999999440661
 31
0.0
  0
LINE
  5
5ACC
  8
0
 10
1273.2720954149261
 20
-32.500000000560242
 30
0.0
 11
1273.2851174155869
 21
32.499999999440199
 31
0.0
  0
LINE
  5
5ACD
  8
0
 10
1286.0135786312601
 20
-32.500000000561613
 30
0.0
 11
1286.0135786312601
 21
32.49999999943838
 31
0.0
  0
LINE
  5
5B14
  8
0
 10
244.7959363262853
 20
-18.00000000056616
 30
0.0
 11
231.04593532629579
 21
-18.000000000567969
 31
0.0
  0
LINE
  5
5B15
  8
0
 10
244.7959363262853
 20
17.999999999432472
 30
0.0
 11
231.04593532628849
 21
17.999999999432021
 31
0.0
  0
LINE
  5
5B16
  8
0
 10
231.04593532629579
 20
-18.000000000567969
 30
0.0
 11
231.04593532628849
 21
17.999999999432021
 31
0.0
  0
LINE
  5
5B17
  8
0
 10
248.29315992628469
 20
-46.500000000567518
 30
0.0
 11
255.7987141262856
 21
-46.500000000567518
 31
0.0
  0
LINE
  5
5B18
  8
0
 10
255.79871332628679
 20
-46.500003000567617
 30
0.0
 11
259.55149142628568
 21
-40.000001000567863
 31
0.0
  0
LINE
  5
5B19
  8
0
 10
259.55149122628421
 20
-40.00000200056774
 30
0.0
 11
255.79871402628481
 21
-33.500001000567863
 31
0.0
  0
LINE
  5
5B1A
  8
0
 10
255.7987141262856
 20
-33.500000000567518
 30
0.0
 11
248.29315992628469
 21
-33.500000000567518
 31
0.0
  0
LINE
  5
5B1B
  8
0
 10
244.5403814262863
 20
-40.00000200056774
 30
0.0
 11
248.29315952628531
 21
-33.500000000567518
 31
0.0
  0
LINE
  5
5B1C
  8
0
 10
248.29315932628739
 20
-46.500003000567617
 30
0.0
 11
244.54038222628509
 21
-40.00000200056774
 31
0.0
  0
LINE
  5
5B1D
  8
0
 10
255.79871332628679
 20
46.500002999432581
 30
0.0
 11
259.5514904262854
 21
40.000001999432243
 31
0.0
  0
LINE
  5
5B1E
  8
0
 10
259.55149122628421
 20
40.000001999432243
 30
0.0
 11
255.79871312628521
 21
33.499999999432468
 31
0.0
  0
LINE
  5
5B1F
  8
0
 10
244.5403814262863
 20
40.000001999432243
 30
0.0
 11
248.2931586262857
 21
33.500000999432352
 31
0.0
  0
LINE
  5
5B20
  8
0
 10
248.29315852628491
 20
33.499999999432468
 30
0.0
 11
255.7987127262858
 21
33.499999999432468
 31
0.0
  0
LINE
  5
5B21
  8
0
 10
248.29315932628739
 20
46.500002999432581
 30
0.0
 11
244.54038122628481
 21
40.000000999432352
 31
0.0
  0
LINE
  5
5B22
  8
0
 10
255.7987127262858
 20
46.499999999432468
 30
0.0
 11
248.29315852628491
 21
46.499999999432468
 31
0.0
  0
LINE
  5
5B23
  8
0
  6
CENTER
 10
242.0459363262853
 20
39.999999999432468
 30
0.0
 11
262.0459363262853
 21
39.999999999432468
 31
0.0
  0
LINE
  5
5B24
  8
0
  6
CENTER
 10
252.04593632628519
 20
49.999999999432482
 30
0.0
 11
252.04593632628519
 21
30.000001999432239
 31
0.0
  0
LINE
  5
5B25
  8
0
  6
CENTER
 10
242.0459363262853
 20
-40.000000000567518
 30
0.0
 11
262.0459363262853
 21
-40.000000000567518
 31
0.0
  0
LINE
  5
5B26
  8
0
  6
CENTER
 10
220.3969465742193
 20
-0.0000000005675247
 30
0.0
 11
2285.6885159793669
 21
-0.0000000005679794
 31
0.0
  0
LINE
  5
5B27
  8
0
  6
CENTER
 10
252.04593632628519
 20
-30.00000200056774
 30
0.0
 11
252.04593632628519
 21
-50.000000000567518
 31
0.0
  0
LINE
  5
5B28
  8
0
 10
244.7959363262853
 20
24.249999999432472
 30
0.0
 11
244.7959363262853
 21
-24.250000000567521
 31
0.0
  0
LINE
  5
5B29
  8
0
 10
244.7959363262853
 20
-24.250000000567521
 30
0.0
 11
247.34372796614841
 21
-31.250000000567521
 31
0.0
  0
ARC
  5
5B2A
  8
0
 10
252.04593632628519
 20
-40.000001000567863
 30
0.0
 40
7.0
 50
8.2132267968190007
 51
47.798185351404008
  0
ARC
  5
5B2B
  8
0
 10
252.04593632628519
 20
-40.000001000567863
 30
0.0
 40
7.0
 50
308.21323810954249
 51
351.7867593049354
  0
ARC
  5
5B2C
  8
0
 10
252.04593632628519
 20
-40.000001000567863
 30
0.0
 40
7.0
 50
248.21318864862579
 51
291.78681135137413
  0
ARC
  5
5B2D
  8
0
 10
252.04593632628519
 20
-40.000001000567863
 30
0.0
 40
7.0
 50
188.21323386497679
 51
231.7867631325301
  0
ARC
  5
5B2E
  8
0
 10
252.04593632628519
 20
-40.000001000567863
 30
0.0
 40
7.0
 50
132.2018146485959
 51
171.7867741511532
  0
LINE
  5
5B2F
  8
0
 10
259.2959363262853
 20
24.249999999432472
 30
0.0
 11
259.2959363262853
 21
-24.250000000567521
 31
0.0
  0
LINE
  5
5B30
  8
0
 10
259.2959363262853
 20
-24.250000000567521
 30
0.0
 11
256.74814468642211
 21
-31.250000000567521
 31
0.0
  0
LINE
  5
5B31
  8
0
 10
256.74814468642211
 20
34.814517749255629
 30
0.0
 11
256.74814468642211
 21
-34.814517750391133
 31
0.0
  0
LINE
  5
5B32
  8
0
 10
247.34372796614841
 20
-28.417645000567511
 30
0.0
 11
256.74814468642211
 21
-28.417645000567511
 31
0.0
  0
LINE
  5
5B33
  8
0
 10
244.7959363262853
 20
24.249999999432472
 30
0.0
 11
247.34372796614841
 21
31.249999999432472
 31
0.0
  0
LINE
  5
5B34
  8
0
 10
247.34372796614841
 20
-34.814517750391133
 30
0.0
 11
247.34372796614841
 21
34.814517749255629
 31
0.0
  0
ARC
  5
5B35
  8
0
 10
252.04593632628519
 20
40.000000999432352
 30
0.0
 40
7.0
 50
312.20181464859593
 51
351.78677320318099
  0
ARC
  5
5B36
  8
0
 10
252.04593632628519
 20
40.000000999432352
 30
0.0
 40
7.0
 50
8.2132406950645027
 51
51.78676189045742
  0
ARC
  5
5B37
  8
0
 10
252.04593632628519
 20
40.000000999432352
 30
0.0
 40
7.0
 50
68.213188648625831
 51
111.7868113513741
  0
ARC
  5
5B38
  8
0
 10
252.04593632628519
 20
40.000000999432352
 30
0.0
 40
7.0
 50
128.2132368674699
 51
171.7867661350231
  0
ARC
  5
5B39
  8
0
 10
252.04593632628519
 20
40.000000999432352
 30
0.0
 40
7.0
 50
188.21322584884669
 51
227.79818535140399
  0
LINE
  5
5B3A
  8
0
 10
259.2959363262853
 20
24.249999999432472
 30
0.0
 11
256.74814468642211
 21
31.249999999432472
 31
0.0
  0
LINE
  5
5B3B
  8
0
 10
247.34372796614841
 20
28.417644999432468
 30
0.0
 11
256.74814468642211
 21
28.417644999432468
 31
0.0
  0
LINE
  5
5B3C
  8
0
 10
1220.0718839223191
 20
379.17147954875782
 30
0.0
 11
1286.013578631253
 21
379.17147954875782
 31
0.0
  0
LINE
  5
5B3D
  8
0
 10
1216.342731276789
 20
385.63056140000288
 30
0.0
 11
1220.0718839223191
 21
379.17147954875782
 31
0.0
  0
LINE
  5
5B3E
  8
0
 10
1216.342731276796
 20
437.71239769751799
 30
0.0
 11
1220.071883922333
 21
444.17147954875782
 31
0.0
  0
LINE
  5
5B3F
  8
0
 10
1228.292731276789
 20
379.17147954875782
 30
0.0
 11
1228.292731276797
 21
444.17147954875873
 31
0.0
  0
LINE
  5
5B40
  8
0
 10
1223.0427312767929
 20
379.17147954875782
 30
0.0
 11
1223.0427312767929
 21
444.17147954875782
 31
0.0
  0
LINE
  5
5B41
  8
0
 10
1216.342731276789
 20
385.63056140000288
 30
0.0
 11
1216.342731276796
 21
437.71239769751799
 31
0.0
  0
LINE
  5
5B42
  8
0
 10
1220.071883922333
 20
444.17147954875782
 30
0.0
 11
1286.013578631253
 21
444.17147954875782
 31
0.0
  0
LINE
  5
5B43
  8
0
 10
1237.3007490851451
 20
379.17147954875782
 30
0.0
 11
1237.3007490851451
 21
444.17147954875873
 31
0.0
  0
LINE
  5
5B44
  8
0
 10
1241.800749085141
 20
379.17147954875782
 30
0.0
 11
1241.800749085141
 21
444.17147954875873
 31
0.0
  0
LINE
  5
5B45
  8
0
 10
1246.3007490851451
 20
379.17147954875782
 30
0.0
 11
1246.300749085148
 21
444.17147954875873
 31
0.0
  0
LINE
  5
5B46
  8
0
 10
1250.8007490851371
 20
379.17147954875782
 30
0.0
 11
1250.8007490851451
 21
444.17147954875873
 31
0.0
  0
LINE
  5
5B47
  8
0
 10
1232.8133671386599
 20
379.17147954875782
 30
0.0
 11
1232.8003451380021
 21
444.17147954875782
 31
0.0
  0
LINE
  5
5B48
  8
0
 10
1289.74273127679
 20
430.72147281945757
 30
0.0
 11
2114.5167054025151
 21
430.72147281946582
 31
0.0
  0
LINE
  5
5B49
  8
0
 10
2233.5687571510721
 20
430.72147281946758
 30
0.0
 11
2246.7895262273009
 21
430.72147281946758
 31
0.0
  0
LINE
  5
5B4A
  8
0
 10
1289.742731276797
 20
392.62147474470288
 30
0.0
 11
2114.5167090935061
 21
392.62147474470288
 31
0.0
  0
LINE
  5
5B4B
  8
0
 10
2233.5687534600802
 20
392.62147474470288
 30
0.0
 11
2246.7895262273009
 21
392.62147474470288
 31
0.0
  0
LINE
  5
5B4C
  8
0
 10
1220.0718839223259
 20
379.171479548756
 30
0.0
 11
1220.0718839223259
 21
444.171479548756
 31
0.0
  0
LINE
  5
5B4D
  8
0
 10
1289.742731276797
 20
385.63056140000288
 30
0.0
 11
1286.013578631253
 21
379.17147954875782
 31
0.0
  0
LINE
  5
5B4E
  8
0
 10
1289.74273127679
 20
437.71239769751799
 30
0.0
 11
1286.013578631253
 21
444.17147954875782
 31
0.0
  0
LINE
  5
5B4F
  8
0
 10
1277.7927312767929
 20
379.17147954875782
 30
0.0
 11
1277.7927312767929
 21
444.17147954875873
 31
0.0
  0
LINE
  5
5B50
  8
0
 10
1283.0427312767929
 20
379.17147954875782
 30
0.0
 11
1283.0427312767929
 21
444.17147954875782
 31
0.0
  0
LINE
  5
5B51
  8
0
 10
1289.742731276797
 20
385.63056140000288
 30
0.0
 11
1289.74273127679
 21
437.71239769751799
 31
0.0
  0
LINE
  5
5B52
  8
0
 10
1268.7847134684409
 20
379.17147954875782
 30
0.0
 11
1268.7847134684409
 21
444.17147954875873
 31
0.0
  0
LINE
  5
5B53
  8
0
 10
1264.284713468448
 20
379.17147954875782
 30
0.0
 11
1264.284713468448
 21
444.17147954875873
 31
0.0
  0
LINE
  5
5B54
  8
0
 10
1259.7847134684409
 20
379.17147954875782
 30
0.0
 11
1259.7847134684339
 21
444.17147954875873
 31
0.0
  0
LINE
  5
5B55
  8
0
 10
1255.2847134684489
 20
379.17147954875782
 30
0.0
 11
1255.2847134684409
 21
444.17147954875873
 31
0.0
  0
LINE
  5
5B56
  8
0
 10
1273.2720954149261
 20
379.17147954875782
 30
0.0
 11
1273.2851174155869
 21
444.17147954875782
 31
0.0
  0
LINE
  5
5B57
  8
0
 10
1286.0135786312601
 20
379.171479548756
 30
0.0
 11
1286.0135786312601
 21
444.171479548756
 31
0.0
  0
LINE
  5
5B58
  8
0
 10
2261.2895262273009
 20
429.67147954874872
 30
0.0
 11
2275.039527227294
 21
429.67147954875048
 31
0.0
  0
LINE
  5
5B59
  8
0
 10
2261.2895262273009
 20
393.67147954874957
 30
0.0
 11
2275.039527227294
 21
393.67147954875048
 31
0.0
  0
LINE
  5
5B5A
  8
0
 10
2275.039527227294
 20
429.67147954875048
 30
0.0
 11
2275.039527227294
 21
393.67147954875048
 31
0.0
  0
LINE
  5
5B5B
  8
0
  6
CENTER
 10
2297.392233462494
 20
411.67147954874957
 30
0.0
 11
208.69322909109181
 21
411.67147954874957
 31
0.0
  0
LINE
  5
5B5C
  8
0
 10
2261.2895262273009
 20
387.42147954874957
 30
0.0
 11
2261.2895262273009
 21
435.92147954874957
 31
0.0
  0
LINE
  5
5B5D
  8
0
 10
2246.7895262273009
 20
387.42147954874957
 30
0.0
 11
2246.7895262273009
 21
435.92147954874957
 31
0.0
  0
LINE
  5
5B5E
  8
0
 10
2249.3373178671682
 20
380.42147954874781
 30
0.0
 11
2249.3373178671609
 21
393.31061906001008
 31
0.0
  0
LINE
  5
5B5F
  8
0
 10
2249.3373178671682
 20
433.17147954874957
 30
0.0
 11
2249.3373178671682
 21
442.92147954875139
 31
0.0
  0
LINE
  5
5B60
  8
0
 10
2258.7417345874342
 20
442.92147954875139
 30
0.0
 11
2258.7417345874342
 21
433.17147954874957
 31
0.0
  0
LINE
  5
5B61
  8
0
 10
2258.7417345874342
 20
393.31061906000917
 30
0.0
 11
2258.7417345874342
 21
380.42147954874781
 31
0.0
  0
LINE
  5
5B62
  8
0
 10
269.54273127679329
 20
-85.000000000573436
 30
0.0
 11
269.54273127679329
 21
-71.000000000573436
 31
0.0
  0
LINE
  5
5B63
  8
0
  6
CENTER
 10
287.04273127679329
 20
-94.000000000574346
 30
0.0
 11
287.04273127679329
 21
-61.000000000574339
 31
0.0
  0
LINE
  5
5B64
  8
0
  6
CENTER
 10
377.04273127679329
 20
-94.000000000574346
 30
0.0
 11
377.04273127679329
 21
-61.000000000574339
 31
0.0
  0
LINE
  5
5B65
  8
0
 10
394.54273127679329
 20
-71.000000000574346
 30
0.0
 11
394.54273127679329
 21
-85.000000000574346
 31
0.0
  0
LINE
  5
5B66
  8
0
 10
394.54273127679329
 20
-85.000000000574346
 30
0.0
 11
269.54273127679329
 21
-85.000000000573436
 31
0.0
  0
LINE
  5
5B67
  8
0
 10
269.54273127679329
 20
-71.000000000573436
 30
0.0
 11
394.54273127679329
 21
-71.000000000574346
 31
0.0
  0
LINE
  5
5B68
  8
0
 10
349.04273127679329
 20
-71.000000000573436
 30
0.0
 11
349.04273127679329
 21
-19.04999327128462
 31
0.0
  0
LINE
  5
5B69
  8
0
 10
315.04273127679329
 20
-71.000000000573436
 30
0.0
 11
315.04273127679329
 21
-19.04999327128462
 31
0.0
  0
LINE
  5
5B6A
  8
0
  6
CENTER
 10
2156.0115083565388
 20
429.70270246900691
 30
0.0
 11
2128.4343438902652
 21
457.27986693528231
 31
0.0
  0
LINE
  5
5B6B
  8
0
  6
CENTER
 10
2156.0115083565388
 20
393.6402566284932
 30
0.0
 11
2128.4343438902652
 21
366.06309216221769
 31
0.0
  0
LINE
  5
5B6C
  8
0
  6
CENTER
 10
2192.0739541970461
 20
429.70270246900691
 30
0.0
 11
2219.6511186633211
 21
457.27986693528231
 31
0.0
  0
LINE
  5
5B6D
  8
0
  6
CENTER
 10
2192.0739541970461
 20
393.6402566284932
 30
0.0
 11
2219.6511186633211
 21
366.06309216221769
 31
0.0
  0
LINE
  5
5B6E
  8
0
  6
CENTER
 10
2174.0427312767929
 20
327.6715167306192
 30
0.0
 11
2174.0427312767929
 21
495.67144236688182
 31
0.0
  0
ARC
  5
5B79
  8
0
 10
332.04273127679329
 20
-27.64618553085824
 30
0.0
 40
19.04979058581857
 50
26.823824214189429
 51
153.1761757858105
  0
LINE
  5
5B7A
  8
0
  6
CENTER
 10
2254.0395262273009
 20
441.30001754874678
 30
0.0
 11
2254.0395262273009
 21
388.40048154874961
 31
0.0
  0
ARC
  5
5B7B
  8
0
 10
2250.7895262273009
 20
400.81947454874887
 30
0.0
 40
7.6479945000000011
 50
244.85262999987259
 51
295.1473700001273
  0
ARC
  5
5B7C
  8
0
 10
2257.2895262273009
 20
400.81947454874887
 30
0.0
 40
7.6479945000000011
 50
244.85262999987259
 51
295.1473700001273
  0
ARC
  5
5B7D
  8
0
 10
2249.0395262273009
 20
432.17147954874957
 30
0.0
 40
1.0
 50
89.999990000051085
 51
179.99999600002039
  0
ARC
  5
5B7E
  8
0
 10
2259.0395262273009
 20
432.17147954874957
 30
0.0
 40
1.0
 50
0.0
 51
90.000005008833185
  0
ARC
  5
5B7F
  8
0
 10
2257.2895262273009
 20
423.52348454874658
 30
0.0
 40
7.647994999999999
 50
64.852629999872605
 51
115.1473749998909
  0
ARC
  5
5B80
  8
0
 10
2250.7895262273009
 20
423.52348454874658
 30
0.0
 40
7.647994999999999
 50
64.852629999872605
 51
115.14736800004439
  0
ARC
  5
5B81
  8
0
 10
2257.2895262273009
 20
432.31947454874899
 30
0.0
 40
7.647994999999999
 50
244.85262999987259
 51
295.1473700001273
  0
ARC
  5
5B82
  8
0
 10
2250.7895262273009
 20
432.31947454874899
 30
0.0
 40
7.647994999999999
 50
244.85262999987259
 51
295.1473700001273
  0
LINE
  5
5B83
  8
0
 10
2261.0395262273009
 20
398.67147954874957
 30
0.0
 11
2247.0395262273009
 21
398.67147954874957
 31
0.0
  0
LINE
  5
5B84
  8
0
 10
2247.0395262273009
 20
408.67147954874957
 30
0.0
 11
2247.0395262273009
 21
398.67147954874957
 31
0.0
  0
LINE
  5
5B85
  8
0
 10
2261.0395262273009
 20
424.67147954874957
 30
0.0
 11
2247.0395262273009
 21
424.67147954874957
 31
0.0
  0
LINE
  5
5B86
  8
0
 10
2247.0395262273009
 20
414.67147954874957
 30
0.0
 11
2247.0395262273009
 21
424.67147954874957
 31
0.0
  0
LINE
  5
5B87
  8
0
 10
2261.0395262273009
 20
408.67147954875321
 30
0.0
 11
2247.0395262273009
 21
408.67147954874957
 31
0.0
  0
LINE
  5
5B88
  8
0
 10
2261.0395262273009
 20
414.67147954874957
 30
0.0
 11
2247.0395262273009
 21
414.67147954874957
 31
0.0
  0
LINE
  5
5B89
  8
0
 10
2250.0395262273009
 20
414.67147954874957
 30
0.0
 11
2250.0395262273009
 21
408.67147954874957
 31
0.0
  0
LINE
  5
5B8A
  8
0
 10
2258.0395262273009
 20
414.67147954874957
 30
0.0
 11
2258.0395262273009
 21
408.67147954874957
 31
0.0
  0
LINE
  5
5B8B
  8
0
 10
2250.7895262273009
 20
393.17147954874957
 30
0.0
 11
2257.2895262273009
 21
393.17147954874957
 31
0.0
  0
LINE
  5
5B8C
  8
0
 10
2247.5395262273009
 20
393.89637354874861
 30
0.0
 11
2247.5395262273009
 21
398.67147954874957
 31
0.0
  0
LINE
  5
5B8D
  8
0
 10
2260.5395262273009
 20
393.89637354874861
 30
0.0
 11
2260.5395262273009
 21
398.67147954874957
 31
0.0
  0
LINE
  5
5B8E
  8
0
 10
2250.0395262273009
 20
438.67147954874957
 30
0.0
 11
2250.0395262273009
 21
433.17147954874957
 31
0.0
  0
LINE
  5
5B8F
  8
0
 10
2249.0395262273009
 20
433.17147954874957
 30
0.0
 11
2259.0395262273009
 21
433.17147954874957
 31
0.0
  0
LINE
  5
5B90
  8
0
 10
2250.0395262273009
 20
438.67147954874957
 30
0.0
 11
2258.0395262273009
 21
438.67147954874957
 31
0.0
  0
LINE
  5
5B91
  8
0
 10
2248.0395262273009
 20
432.17147954874957
 30
0.0
 11
2248.0395262273009
 21
431.17147954874957
 31
0.0
  0
LINE
  5
5B92
  8
0
 10
2260.0395262273009
 20
432.17147954874957
 30
0.0
 11
2260.0395262273009
 21
431.17147954874957
 31
0.0
  0
LINE
  5
5B93
  8
0
 10
2260.5395262273009
 20
431.17147954874957
 30
0.0
 11
2247.5395262273009
 21
431.17147954874957
 31
0.0
  0
LINE
  5
5B94
  8
0
 10
2260.5395262273009
 20
431.17147954874957
 30
0.0
 11
2260.5395262273009
 21
424.67147954874957
 31
0.0
  0
LINE
  5
5B95
  8
0
 10
2247.5395262273009
 20
431.17147954874957
 30
0.0
 11
2247.5395262273009
 21
424.67147954874957
 31
0.0
  0
LINE
  5
5B96
  8
0
 10
2258.0395262273009
 20
438.67147954874957
 30
0.0
 11
2258.0395262273009
 21
433.17147954874957
 31
0.0
  0
LINE
  5
5B97
  8
0
 10
2261.0395262273009
 20
408.67147954875321
 30
0.0
 11
2261.0395262273009
 21
398.67147954874957
 31
0.0
  0
LINE
  5
5B98
  8
0
 10
2261.0395262273009
 20
414.67147954874957
 30
0.0
 11
2261.0395262273009
 21
424.67147954874957
 31
0.0
  0
LINE
  5
5B99
  8
0
 10
2249.3373178671682
 20
442.92147954875139
 30
0.0
 11
2258.7417345874342
 21
442.92147954875139
 31
0.0
  0
LINE
  5
5B9A
  8
0
 10
2249.3373178671682
 20
442.92147954875139
 30
0.0
 11
2246.7895262273009
 21
435.92147954874957
 31
0.0
  0
LINE
  5
5B9B
  8
0
 10
2258.7417345874342
 20
442.92147954875139
 30
0.0
 11
2261.2895262273009
 21
435.92147954875139
 31
0.0
  0
LINE
  5
5B9C
  8
0
 10
2249.3373178671682
 20
380.42147954874781
 30
0.0
 11
2258.7417345874342
 21
380.42147954874781
 31
0.0
  0
LINE
  5
5B9D
  8
0
 10
2249.3373178671682
 20
380.42147954874781
 30
0.0
 11
2246.7895262273009
 21
387.42147954874957
 31
0.0
  0
LINE
  5
5B9E
  8
0
 10
2258.7417345874342
 20
380.42147954874781
 30
0.0
 11
2261.2895262273009
 21
387.42147954874781
 31
0.0
  0
LINE
  5
5B9F
  8
0
 10
1289.74273127679
 20
19.049993270139559
 30
0.0
 11
2157.0427312767929
 21
19.049993270148889
 31
0.0
  0
LINE
  5
5BA0
  8
0
 10
2191.0427312767929
 20
19.04999327014934
 30
0.0
 11
2246.7895262273009
 21
19.049993270150019
 31
0.0
  0
LINE
  5
5BA1
  8
0
 10
1289.742731276797
 20
-19.050004804614669
 30
0.0
 11
2246.7895262273009
 21
-19.050004804614669
 31
0.0
  0
LINE
  5
5BA2
  8
0
 10
2261.2895262273009
 20
17.999999999430649
 30
0.0
 11
2275.039527227294
 21
17.999999999432472
 31
0.0
  0
LINE
  5
5BA3
  8
0
 10
2261.2895262273009
 20
-18.000000000567969
 30
0.0
 11
2275.039527227294
 21
-18.000000000567521
 31
0.0
  0
LINE
  5
5BA4
  8
0
 10
2275.039527227294
 20
17.999999999432472
 30
0.0
 11
2275.039527227294
 21
-18.000000000567521
 31
0.0
  0
LINE
  5
5BA5
  8
0
 10
2257.7923026272979
 20
46.499999999432021
 30
0.0
 11
2250.2867484273011
 21
46.499999999432021
 31
0.0
  0
LINE
  5
5BA6
  8
0
 10
2250.286749227299
 20
46.50000299943212
 30
0.0
 11
2246.5339711273041
 21
40.000000999432352
 31
0.0
  0
LINE
  5
5BA7
  8
0
 10
2246.5339713273061
 20
40.000001999432243
 30
0.0
 11
2250.2867485273009
 21
33.500000999432352
 31
0.0
  0
LINE
  5
5BA8
  8
0
 10
2250.2867484273011
 20
33.499999999432021
 30
0.0
 11
2257.7923026272979
 21
33.499999999432021
 31
0.0
  0
LINE
  5
5BA9
  8
0
 10
2261.5450811272958
 20
40.000001999432243
 30
0.0
 11
2257.7923030273009
 21
33.499999999432021
 31
0.0
  0
LINE
  5
5BAA
  8
0
 10
2257.7923032273029
 20
46.50000299943212
 30
0.0
 11
2261.5450803273052
 21
40.000001999432243
 31
0.0
  0
LINE
  5
5BAB
  8
0
 10
2250.286749227299
 20
-46.500003000568093
 30
0.0
 11
2246.5339721272971
 21
-40.00000200056774
 31
0.0
  0
LINE
  5
5BAC
  8
0
 10
2246.5339713273061
 20
-40.00000200056774
 30
0.0
 11
2250.2867494273009
 21
-33.500000000567979
 31
0.0
  0
LINE
  5
5BAD
  8
0
 10
2261.5450811272958
 20
-40.00000200056774
 30
0.0
 11
2257.7923039273001
 21
-33.500001000567863
 31
0.0
  0
LINE
  5
5BAE
  8
0
 10
2257.7923040273008
 20
-33.500000000567979
 30
0.0
 11
2250.286749827304
 21
-33.500000000567979
 31
0.0
  0
LINE
  5
5BAF
  8
0
 10
2257.7923032273029
 20
-46.500003000568093
 30
0.0
 11
2261.5450813272978
 21
-40.000001000567863
 31
0.0
  0
LINE
  5
5BB0
  8
0
 10
2250.286749827304
 20
-46.500000000567979
 30
0.0
 11
2257.7923040273008
 21
-46.500000000567979
 31
0.0
  0
LINE
  5
5BB1
  8
0
  6
CENTER
 10
2264.0395262273009
 20
-40.000000000567979
 30
0.0
 11
2244.0395262273009
 21
-40.000000000567979
 31
0.0
  0
LINE
  5
5BB2
  8
0
  6
CENTER
 10
2254.0395262273009
 20
-50.000000000567979
 30
0.0
 11
2254.0395262273009
 21
-30.00000200056774
 31
0.0
  0
LINE
  5
5BB3
  8
0
  6
CENTER
 10
2264.0395262273009
 20
39.999999999432021
 30
0.0
 11
2244.0395262273009
 21
39.999999999432021
 31
0.0
  0
LINE
  5
5BB4
  8
0
  6
CENTER
 10
2254.0395262273009
 20
30.000001999432239
 30
0.0
 11
2254.0395262273009
 21
49.999999999432021
 31
0.0
  0
LINE
  5
5BB5
  8
0
 10
2261.2895262273009
 20
-24.250000000567969
 30
0.0
 11
2261.2895262273009
 21
24.249999999432021
 31
0.0
  0
LINE
  5
5BB6
  8
0
 10
2261.2895262273009
 20
24.249999999432021
 30
0.0
 11
2258.7417345874342
 21
31.249999999432021
 31
0.0
  0
ARC
  5
5BB7
  8
0
 10
2254.0395262273009
 20
40.000000999432352
 30
0.0
 40
7.0
 50
188.21322679681899
 51
227.79818535140399
  0
ARC
  5
5BB8
  8
0
 10
2254.0395262273009
 20
40.000000999432352
 30
0.0
 40
7.0
 50
128.2132381095183
 51
171.7867593048968
  0
ARC
  5
5BB9
  8
0
 10
2254.0395262273009
 20
40.000000999432352
 30
0.0
 40
7.0
 50
68.213188648625831
 51
111.7868113513741
  0
ARC
  5
5BBA
  8
0
 10
2254.0395262273009
 20
40.000000999432352
 30
0.0
 40
7.0
 50
8.2132338649639784
 51
51.786763132530091
  0
ARC
  5
5BBB
  8
0
 10
2254.0395262273009
 20
40.000000999432352
 30
0.0
 40
7.0
 50
312.20181464859593
 51
351.78677415116613
  0
LINE
  5
5BBC
  8
0
 10
2246.7895262273009
 20
-24.250000000567969
 30
0.0
 11
2246.7895262273009
 21
24.249999999432021
 31
0.0
  0
LINE
  5
5BBD
  8
0
 10
2246.7895262273009
 20
24.249999999432021
 30
0.0
 11
2249.3373178671682
 21
31.249999999432021
 31
0.0
  0
LINE
  5
5BBE
  8
0
 10
2249.3373178671682
 20
-34.814517750391133
 30
0.0
 11
2249.3373178671682
 21
34.814517749255629
 31
0.0
  0
LINE
  5
5BBF
  8
0
 10
2258.7417345874342
 20
28.41764499943201
 30
0.0
 11
2249.3373178671682
 21
28.41764499943201
 31
0.0
  0
LINE
  5
5BC0
  8
0
 10
2261.2895262273009
 20
-24.250000000567969
 30
0.0
 11
2258.7417345874342
 21
-31.250000000567979
 31
0.0
  0
LINE
  5
5BC1
  8
0
 10
2258.7417345874342
 20
34.814517749255629
 30
0.0
 11
2258.7417345874342
 21
-34.814517750391133
 31
0.0
  0
ARC
  5
5BC2
  8
0
 10
2254.0395262273009
 20
-40.000001000567863
 30
0.0
 40
7.0
 50
132.2018146485959
 51
171.7867732031809
  0
ARC
  5
5BC3
  8
0
 10
2254.0395262273009
 20
-40.000001000567863
 30
0.0
 40
7.0
 50
188.21324069510311
 51
231.7867618904815
  0
ARC
  5
5BC4
  8
0
 10
2254.0395262273009
 20
-40.000001000567863
 30
0.0
 40
7.0
 50
248.21318864862579
 51
291.78681135137413
  0
ARC
  5
5BC5
  8
0
 10
2254.0395262273009
 20
-40.000001000567863
 30
0.0
 40
7.0
 50
308.2132368674699
 51
351.78676613503598
  0
ARC
  5
5BC6
  8
0
 10
2254.0395262273009
 20
-40.000001000567863
 30
0.0
 40
7.0
 50
8.2132258488338561
 51
47.798185351404008
  0
LINE
  5
5BC7
  8
0
 10
2246.7895262273009
 20
-24.250000000567969
 30
0.0
 11
2249.3373178671682
 21
-31.250000000567979
 31
0.0
  0
LINE
  5
5BC8
  8
0
 10
2258.7417345874342
 20
-28.417645000567969
 30
0.0
 11
2249.3373178671682
 21
-28.417645000567969
 31
0.0
  0
LINE
  5
5BC9
  8
0
  6
CENTER
 10
332.04273127679329
 20
-0.0000000005675247
 30
0.0
 11
332.04273127679329
 21
-95.000000000573877
 31
0.0
  0
LINE
  5
5BCA
  8
0
 10
2236.5427312767929
 20
84.999999999437946
 30
0.0
 11
2236.5427312767929
 21
70.999999999437932
 31
0.0
  0
LINE
  5
5BCB
  8
0
  6
CENTER
 10
2219.0427312767929
 20
93.999999999438856
 30
0.0
 11
2219.0427312767929
 21
60.999999999438842
 31
0.0
  0
LINE
  5
5BCC
  8
0
  6
CENTER
 10
2129.0427312767929
 20
93.999999999438856
 30
0.0
 11
2129.0427312767929
 21
60.999999999438842
 31
0.0
  0
LINE
  5
5BCD
  8
0
 10
2111.5427312767929
 20
70.999999999438842
 30
0.0
 11
2111.5427312767929
 21
84.999999999438842
 31
0.0
  0
LINE
  5
5BCE
  8
0
 10
2111.5427312767929
 20
84.999999999438842
 30
0.0
 11
2236.5427312767929
 21
84.999999999437946
 31
0.0
  0
LINE
  5
5BCF
  8
0
 10
2236.5427312767929
 20
70.999999999437932
 30
0.0
 11
2111.5427312767929
 21
70.999999999438842
 31
0.0
  0
LINE
  5
5BD0
  8
0
 10
2157.0427312767929
 20
70.999999999437932
 30
0.0
 11
2157.0427312767929
 21
19.049993270149109
 31
0.0
  0
LINE
  5
5BD1
  8
0
 10
2191.0427312767929
 20
70.999999999437932
 30
0.0
 11
2191.0427312767929
 21
19.049993270149109
 31
0.0
  0
ARC
  5
5BD2
  8
0
 10
2174.0427312767929
 20
27.646185529722739
 30
0.0
 40
19.04979058581857
 50
206.82382421423591
 51
333.17617578576397
  0
LINE
  5
5BD3
  8
0
 10
1216.342731276796
 20
430.72147281945757
 30
0.0
 11
259.2959363262853
 21
430.72147281946758
 31
0.0
  0
LINE
  5
5BD4
  8
0
 10
1216.342731276789
 20
392.62147474470288
 30
0.0
 11
259.2959363262853
 21
392.62147474470288
 31
0.0
  0
LINE
  5
5BD5
  8
0
 10
244.7959363262853
 20
429.67147954874872
 30
0.0
 11
231.04593532629579
 21
429.67147954875048
 31
0.0
  0
LINE
  5
5BD6
  8
0
 10
244.7959363262853
 20
393.67147954874957
 30
0.0
 11
231.04593532628849
 21
393.67147954875048
 31
0.0
  0
LINE
  5
5BD7
  8
0
 10
231.04593532629579
 20
429.67147954875048
 30
0.0
 11
231.04593532628849
 21
393.67147954875048
 31
0.0
  0
LINE
  5
5BD8
  8
0
 10
244.7959363262853
 20
387.42147954874957
 30
0.0
 11
244.7959363262853
 21
435.92147954874957
 31
0.0
  0
LINE
  5
5BD9
  8
0
 10
259.2959363262853
 20
387.42147954874957
 30
0.0
 11
259.2959363262853
 21
435.92147954874957
 31
0.0
  0
LINE
  5
5BDA
  8
0
 10
256.74814468642211
 20
380.42147954874781
 30
0.0
 11
256.74814468642569
 21
393.31061906001008
 31
0.0
  0
LINE
  5
5BDB
  8
0
 10
256.74814468642211
 20
433.17147954874957
 30
0.0
 11
256.74814468642211
 21
442.92147954875139
 31
0.0
  0
LINE
  5
5BDC
  8
0
 10
247.34372796614841
 20
442.92147954875139
 30
0.0
 11
247.34372796614841
 21
433.17147954874957
 31
0.0
  0
LINE
  5
5BDD
  8
0
 10
247.34372796614841
 20
393.31061906000917
 30
0.0
 11
247.34372796614841
 21
380.42147954874781
 31
0.0
  0
LINE
  5
5BDE
  8
0
  6
CENTER
 10
350.07395419705063
 20
429.70270246900691
 30
0.0
 11
377.65111866332512
 21
457.27986693528231
 31
0.0
  0
LINE
  5
5BDF
  8
0
  6
CENTER
 10
350.07395419705063
 20
393.6402566284932
 30
0.0
 11
377.65111866332512
 21
366.06309216221769
 31
0.0
  0
LINE
  5
5BE0
  8
0
  6
CENTER
 10
314.01150835653601
 20
429.70270246900691
 30
0.0
 11
286.43434389026152
 21
457.27986693528231
 31
0.0
  0
LINE
  5
5BE1
  8
0
  6
CENTER
 10
314.01150835653601
 20
393.6402566284932
 30
0.0
 11
286.43434389026152
 21
366.06309216221769
 31
0.0
  0
LINE
  5
5BE2
  8
0
  6
CENTER
 10
252.04593632628519
 20
441.30001754874678
 30
0.0
 11
252.04593632628519
 21
388.40048154874961
 31
0.0
  0
ARC
  5
5BE3
  8
0
 10
255.2959363262853
 20
400.81947454874887
 30
0.0
 40
7.6479945000000011
 50
244.85262999986699
 51
295.14737000013292
  0
ARC
  5
5BE4
  8
0
 10
248.7959363262853
 20
400.81947454874887
 30
0.0
 40
7.6479945000000011
 50
244.85262999986699
 51
295.14737000013292
  0
ARC
  5
5BE5
  8
0
 10
257.0459363262853
 20
432.17147954874957
 30
0.0
 40
1.0
 50
0.0000039999795585
 51
90.000010000157346
  0
ARC
  5
5BE6
  8
0
 10
247.0459363262853
 20
432.17147954874957
 30
0.0
 40
1.0
 50
89.999994991166815
 51
180.0
  0
ARC
  5
5BE7
  8
0
 10
248.7959363262853
 20
423.52348454874658
 30
0.0
 40
7.647994999999999
 50
64.852625000330946
 51
115.1473700001329
  0
ARC
  5
5BE8
  8
0
 10
255.2959363262853
 20
423.52348454874658
 30
0.0
 40
7.647994999999999
 50
64.852631999961076
 51
115.1473700001329
  0
ARC
  5
5BE9
  8
0
 10
248.7959363262853
 20
432.31947454874899
 30
0.0
 40
7.647994999999999
 50
244.85262999986699
 51
295.14737000013292
  0
ARC
  5
5BEA
  8
0
 10
255.2959363262853
 20
432.31947454874899
 30
0.0
 40
7.647994999999999
 50
244.85262999986699
 51
295.14737000013292
  0
LINE
  5
5BEB
  8
0
 10
245.0459363262853
 20
398.67147954874957
 30
0.0
 11
259.0459363262853
 21
398.67147954874957
 31
0.0
  0
LINE
  5
5BEC
  8
0
 10
259.0459363262853
 20
408.67147954874957
 30
0.0
 11
259.0459363262853
 21
398.67147954874957
 31
0.0
  0
LINE
  5
5BED
  8
0
 10
245.0459363262853
 20
424.67147954874957
 30
0.0
 11
259.0459363262853
 21
424.67147954874957
 31
0.0
  0
LINE
  5
5BEE
  8
0
 10
259.0459363262853
 20
414.67147954874957
 30
0.0
 11
259.0459363262853
 21
424.67147954874957
 31
0.0
  0
LINE
  5
5BEF
  8
0
 10
245.0459363262853
 20
408.67147954875321
 30
0.0
 11
259.0459363262853
 21
408.67147954874957
 31
0.0
  0
LINE
  5
5BF0
  8
0
 10
245.0459363262853
 20
414.67147954874957
 30
0.0
 11
259.0459363262853
 21
414.67147954874957
 31
0.0
  0
LINE
  5
5BF1
  8
0
 10
256.04593632628519
 20
414.67147954874957
 30
0.0
 11
256.04593632628519
 21
408.67147954874957
 31
0.0
  0
LINE
  5
5BF2
  8
0
 10
248.04593632628519
 20
414.67147954874957
 30
0.0
 11
248.04593632628519
 21
408.67147954874957
 31
0.0
  0
LINE
  5
5BF3
  8
0
 10
255.2959363262853
 20
393.17147954874957
 30
0.0
 11
248.7959363262853
 21
393.17147954874957
 31
0.0
  0
LINE
  5
5BF4
  8
0
 10
258.54593632628519
 20
393.89637354874861
 30
0.0
 11
258.54593632628519
 21
398.67147954874957
 31
0.0
  0
LINE
  5
5BF5
  8
0
 10
245.54593632628519
 20
393.89637354874861
 30
0.0
 11
245.54593632628519
 21
398.67147954874957
 31
0.0
  0
LINE
  5
5BF6
  8
0
 10
256.04593632628519
 20
438.67147954874957
 30
0.0
 11
256.04593632628519
 21
433.17147954874957
 31
0.0
  0
LINE
  5
5BF7
  8
0
 10
257.0459363262853
 20
433.17147954874957
 30
0.0
 11
247.0459363262853
 21
433.17147954874957
 31
0.0
  0
LINE
  5
5BF8
  8
0
 10
256.04593632628519
 20
438.67147954874957
 30
0.0
 11
248.04593632628519
 21
438.67147954874957
 31
0.0
  0
LINE
  5
5BF9
  8
0
 10
258.04593632628519
 20
432.17147954874957
 30
0.0
 11
258.04593632628519
 21
431.17147954874957
 31
0.0
  0
LINE
  5
5BFA
  8
0
 10
246.04593632628519
 20
432.17147954874957
 30
0.0
 11
246.04593632628519
 21
431.17147954874957
 31
0.0
  0
LINE
  5
5BFB
  8
0
 10
245.54593632628519
 20
431.17147954874957
 30
0.0
 11
258.54593632628519
 21
431.17147954874957
 31
0.0
  0
LINE
  5
5BFC
  8
0
 10
245.54593632628519
 20
431.17147954874957
 30
0.0
 11
245.54593632628519
 21
424.67147954874957
 31
0.0
  0
LINE
  5
5BFD
  8
0
 10
258.54593632628519
 20
431.17147954874957
 30
0.0
 11
258.54593632628519
 21
424.67147954874957
 31
0.0
  0
LINE
  5
5BFE
  8
0
 10
248.04593632628519
 20
438.67147954874957
 30
0.0
 11
248.04593632628519
 21
433.17147954874957
 31
0.0
  0
LINE
  5
5BFF
  8
0
 10
245.0459363262853
 20
408.67147954875321
 30
0.0
 11
245.0459363262853
 21
398.67147954874957
 31
0.0
  0
LINE
  5
5C00
  8
0
 10
245.0459363262853
 20
414.67147954874957
 30
0.0
 11
245.0459363262853
 21
424.67147954874957
 31
0.0
  0
LINE
  5
5C01
  8
0
 10
256.74814468642211
 20
442.92147954875139
 30
0.0
 11
247.34372796614841
 21
442.92147954875139
 31
0.0
  0
LINE
  5
5C02
  8
0
 10
256.74814468642211
 20
442.92147954875139
 30
0.0
 11
259.2959363262853
 21
435.92147954874957
 31
0.0
  0
LINE
  5
5C03
  8
0
 10
247.34372796614841
 20
442.92147954875139
 30
0.0
 11
244.7959363262853
 21
435.92147954875139
 31
0.0
  0
LINE
  5
5C04
  8
0
 10
256.74814468642211
 20
380.42147954874781
 30
0.0
 11
247.34372796614841
 21
380.42147954874781
 31
0.0
  0
LINE
  5
5C05
  8
0
 10
256.74814468642211
 20
380.42147954874781
 30
0.0
 11
259.2959363262853
 21
387.42147954874957
 31
0.0
  0
LINE
  5
5C06
  8
0
 10
247.34372796614841
 20
380.42147954874781
 30
0.0
 11
244.7959363262853
 21
387.42147954874781
 31
0.0
  0
ARC
  5
5C0E
  8
0
 10
332.04273127679329
 20
411.67147954874957
 30
0.0
 40
62.5
 50
17.746125358874242
 51
162.25387464112569
  0
ARC
  5
5C0F
  8
0
 10
332.04273127679329
 20
411.67147954874957
 30
0.0
 40
62.5
 50
197.74613646007981
 51
342.25386353992019
  0
ARC
  5
5C10
  8
0
  6
CENTER
 10
332.04273127679329
 20
411.67147954874957
 30
0.0
 40
45.0
 50
25.045204904567431
 51
154.9547950954325
  0
ARC
  5
5C11
  8
0
  6
CENTER
 10
332.04273127679329
 20
411.67147954874957
 30
0.0
 40
45.0
 50
205.04522111329081
 51
334.95477888670911
  0
LINE
  5
5C16
  8
0
  6
CENTER
 10
332.04273127679693
 20
327.6715167306192
 30
0.0
 11
332.04273127679693
 21
495.67144236688182
 31
0.0
  0
LINE
  5
5D7D
  8
0
  6
CENTER
 10
2174.0427312767929
 20
-0.0000000005679794
 30
0.0
 11
2174.0427312767929
 21
94.999999999437946
 31
0.0
  0
TEXT
  5
5EFF
  8
0
 10
855.42368365774553
 20
529.28139750319576
 30
0.0
 40
50.0
  1
1.5SX2000L-25AX8A
 72
     4
 11
1253.0427312767929
 21
554.28139750319576
 31
0.0
  0
LINE
  5
6095
  8
0
 10
218.56876337074931
 20
-0.8497678039757374
 30
0.0
 11
218.5688278843881
 21
-14.65023219715931
 31
0.0
  0
LINE
  5
6096
  8
0
 10
212.04273127680059
 20
-24.750000000567521
 30
0.0
 11
212.04273127680059
 21
9.2499999994324753
 31
0.0
  0
LINE
  5
6097
  8
0
 10
214.89273127679911
 20
-23.816133675176381
 30
0.0
 11
214.89273127679911
 21
8.3161336740413372
 31
0.0
  0
LINE
  5
6098
  8
0
  6
CENTER
 10
208.893988555741
 20
-7.7500000005675238
 30
0.0
 11
231.9830742516933
 21
-7.7500000005675238
 31
0.0
  0
LINE
  5
6099
  8
0
 10
219.96924571930859
 20
-0.8500000005678884
 30
0.0
 11
231.04593532629221
 21
-0.8500000005678884
 31
0.0
  0
ARC
  5
609A
  8
0
 10
219.96924571930859
 20
1.1499999994321111
 30
0.0
 40
2.0
 50
200.00000000006489
 51
270.0
1001
GENIUS_GENODEF_13
1002
{
1000
HIER
1070
     0
1002
}
1002
{
1000
MANEDIT
1070
     0
1002
}
1002
{
1000
NOSEL
1070
     0
1002
}
1002
{
1000
BEHIND
1070
     0
1002
}
1002
{
1000
OTHER
1070
     0
1002
}
1002
{
1000
REACTOR
1002
}
1001
GENIUS_GENOBJ-N-FIL_13
1002
{
1000
OWNER
1000
GEN
1002
}
  0
LINE
  5
609B
  8
0
 10
212.04273127680059
 20
9.2499999994324753
 30
0.0
 11
214.3325652462299
 21
9.2499999994324753
 31
0.0
  0
LINE
  5
609D
  8
0
 10
215.084319342859
 20
8.7236161140926924
 30
0.0
 11
218.08986047773939
 21
0.465959712781114
 31
0.0
  0
ARC
  5
609E
  8
0
 10
214.3325652462299
 20
8.4499999994322934
 30
0.0
 40
0.8
 50
20.000000000064929
 51
90.0
1001
GENIUS_GENOBJ-N-FIL_13
1002
{
1000
OWNER
1000
GEN
1002
}
1001
GENIUS_GENODEF_13
1002
{
1000
HIER
1070
     0
1002
}
1002
{
1000
MANEDIT
1070
     0
1002
}
1002
{
1000
NOSEL
1070
     0
1002
}
1002
{
1000
BEHIND
1070
     0
1002
}
1002
{
1000
OTHER
1070
     0
1002
}
1002
{
1000
REACTOR
1002
}
  0
LINE
  5
609F
  8
0
 10
219.96924571930859
 20
-14.650000000567159
 30
0.0
 11
231.04593532629221
 21
-14.650000000568291
 31
0.0
  0
ARC
  5
60A0
  8
0
 10
219.96924571930859
 20
-16.650000000567161
 30
0.0
 40
2.0
 50
90.0
 51
159.999999999935
1001
GENIUS_GENODEF_13
1002
{
1000
HIER
1070
     0
1002
}
1002
{
1000
MANEDIT
1070
     0
1002
}
1002
{
1000
NOSEL
1070
     0
1002
}
1002
{
1000
BEHIND
1070
     0
1002
}
1002
{
1000
OTHER
1070
     0
1002
}
1002
{
1000
REACTOR
1002
}
1001
GENIUS_GENOBJ-N-FIL_13
1002
{
1000
OWNER
1000
GEN
1002
}
  0
LINE
  5
60A1
  8
0
 10
212.04273127680059
 20
-24.750000000567521
 30
0.0
 11
214.3325652462299
 21
-24.750000000567521
 31
0.0
  0
LINE
  5
60A2
  8
0
 10
215.084319342859
 20
-24.223616115227738
 30
0.0
 11
218.08986047773939
 21
-15.96595971391616
 31
0.0
  0
ARC
  5
60A3
  8
0
 10
214.3325652462299
 20
-23.950000000567339
 30
0.0
 40
0.8
 50
270.0
 51
339.99999999993503
1001
GENIUS_GENOBJ-N-FIL_13
1002
{
1000
OWNER
1000
GEN
1002
}
1001
GENIUS_GENODEF_13
1002
{
1000
HIER
1070
     0
1002
}
1002
{
1000
MANEDIT
1070
     0
1002
}
1002
{
1000
NOSEL
1070
     0
1002
}
1002
{
1000
BEHIND
1070
     0
1002
}
1002
{
1000
OTHER
1070
     0
1002
}
1002
{
1000
REACTOR
1002
}
  0
LINE
  5
60A9
  8
0
 10
2287.5166991828369
 20
404.7712473521587
 30
0.0
 11
2287.5166346691981
 21
418.57171174534233
 31
0.0
  0
LINE
  5
60AA
  8
0
 10
2294.0427312767861
 20
428.67147954875048
 30
0.0
 11
2294.0427312767861
 21
394.67147954875048
 31
0.0
  0
LINE
  5
60AB
  8
0
 10
2291.1927312767871
 20
427.7376132233594
 30
0.0
 11
2291.1927312767871
 21
395.60534587414162
 31
0.0
  0
LINE
  5
60AD
  8
0
 10
2286.1162168342771
 20
404.77147954875079
 30
0.0
 11
2275.039527227294
 21
404.77147954875079
 31
0.0
  0
ARC
  5
60AE
  8
0
 10
2286.1162168342771
 20
402.7714795487509
 30
0.0
 40
2.0
 50
20.000000000040458
 51
90.0
1001
GENIUS_GENODEF_13
1002
{
1000
HIER
1070
     0
1002
}
1002
{
1000
MANEDIT
1070
     0
1002
}
1002
{
1000
NOSEL
1070
     0
1002
}
1002
{
1000
BEHIND
1070
     0
1002
}
1002
{
1000
OTHER
1070
     0
1002
}
1002
{
1000
REACTOR
1002
}
1001
GENIUS_GENOBJ-N-FIL_13
1002
{
1000
OWNER
1000
GEN
1002
}
  0
LINE
  5
60AF
  8
0
 10
2294.0427312767861
 20
394.67147954875048
 30
0.0
 11
2291.7528973073572
 21
394.67147954875048
 31
0.0
  0
LINE
  5
60B0
  8
0
 10
2291.0011432107272
 20
395.19786343409032
 30
0.0
 11
2287.9956020758468
 21
403.45551983540179
 31
0.0
  0
ARC
  5
60B1
  8
0
 10
2291.7528973073572
 20
395.47147954875072
 30
0.0
 40
0.8
 50
200.00000000004039
 51
270.0
1001
GENIUS_GENOBJ-N-FIL_13
1002
{
1000
OWNER
1000
GEN
1002
}
1001
GENIUS_GENODEF_13
1002
{
1000
HIER
1070
     0
1002
}
1002
{
1000
MANEDIT
1070
     0
1002
}
1002
{
1000
NOSEL
1070
     0
1002
}
1002
{
1000
BEHIND
1070
     0
1002
}
1002
{
1000
OTHER
1070
     0
1002
}
1002
{
1000
REACTOR
1002
}
  0
LINE
  5
60B2
  8
0
 10
2286.1162168342771
 20
418.57147954875012
 30
0.0
 11
2275.039527227294
 21
418.57147954875109
 31
0.0
  0
ARC
  5
60B3
  8
0
 10
2286.1162168342771
 20
420.57147954875018
 30
0.0
 40
2.0
 50
270.0
 51
339.99999999995953
1001
GENIUS_GENODEF_13
1002
{
1000
HIER
1070
     0
1002
}
1002
{
1000
MANEDIT
1070
     0
1002
}
1002
{
1000
NOSEL
1070
     0
1002
}
1002
{
1000
BEHIND
1070
     0
1002
}
1002
{
1000
OTHER
1070
     0
1002
}
1002
{
1000
REACTOR
1002
}
1001
GENIUS_GENOBJ-N-FIL_13
1002
{
1000
OWNER
1000
GEN
1002
}
  0
LINE
  5
60B4
  8
0
 10
2294.0427312767861
 20
428.67147954875048
 30
0.0
 11
2291.7528973073572
 21
428.67147954875048
 31
0.0
  0
LINE
  5
60B5
  8
0
 10
2291.0011432107272
 20
428.1450956634107
 30
0.0
 11
2287.9956020758468
 21
419.88743926209912
 31
0.0
  0
ARC
  5
60B6
  8
0
 10
2291.7528973073572
 20
427.8714795487503
 30
0.0
 40
0.8
 50
90.0
 51
159.9999999999595
1001
GENIUS_GENOBJ-N-FIL_13
1002
{
1000
OWNER
1000
GEN
1002
}
1001
GENIUS_GENODEF_13
1002
{
1000
HIER
1070
     0
1002
}
1002
{
1000
MANEDIT
1070
     0
1002
}
1002
{
1000
NOSEL
1070
     0
1002
}
1002
{
1000
BEHIND
1070
     0
1002
}
1002
{
1000
OTHER
1070
     0
1002
}
1002
{
1000
REACTOR
1002
}
  0
LINE
  5
60D2
  8
0
 10
2287.5166991828369
 20
0.8497678028402333
 30
0.0
 11
2287.5166346691981
 21
14.650232196023801
 31
0.0
  0
LINE
  5
60D3
  8
0
 10
2294.0427312767861
 20
24.749999999432021
 30
0.0
 11
2294.0427312767861
 21
-9.2500000005679794
 31
0.0
  0
LINE
  5
60D4
  8
0
 10
2291.1927312767871
 20
23.816133674040881
 30
0.0
 11
2291.1927312767871
 21
-8.3161336751768431
 31
0.0
  0
LINE
  5
60D5
  8
0
  6
CENTER
 10
2297.1914739978452
 20
7.7499999994320197
 30
0.0
 11
2274.1023883018929
 21
7.7499999994320197
 31
0.0
  0
LINE
  5
60D6
  8
0
 10
2286.1162168342771
 20
0.8499999994323843
 30
0.0
 11
2275.039527227294
 21
0.8499999994323843
 31
0.0
  0
ARC
  5
60D7
  8
0
 10
2286.1162168342771
 20
-1.150000000567615
 30
0.0
 40
2.0
 50
20.000000000040458
 51
90.0
1001
GENIUS_GENODEF_13
1002
{
1000
HIER
1070
     0
1002
}
1002
{
1000
MANEDIT
1070
     0
1002
}
1002
{
1000
NOSEL
1070
     0
1002
}
1002
{
1000
BEHIND
1070
     0
1002
}
1002
{
1000
OTHER
1070
     0
1002
}
1002
{
1000
REACTOR
1002
}
1001
GENIUS_GENOBJ-N-FIL_13
1002
{
1000
OWNER
1000
GEN
1002
}
  0
LINE
  5
60D8
  8
0
 10
2294.0427312767861
 20
-9.2500000005679794
 30
0.0
 11
2291.7528973073572
 21
-9.2500000005679794
 31
0.0
  0
LINE
  5
60D9
  8
0
 10
2291.0011432107272
 20
-8.7236161152281966
 30
0.0
 11
2287.9956020758468
 21
-0.4659597139166181
 31
0.0
  0
ARC
  5
60DA
  8
0
 10
2291.7528973073572
 20
-8.4500000005677975
 30
0.0
 40
0.8
 50
200.00000000004039
 51
270.0
1001
GENIUS_GENOBJ-N-FIL_13
1002
{
1000
OWNER
1000
GEN
1002
}
1001
GENIUS_GENODEF_13
1002
{
1000
HIER
1070
     0
1002
}
1002
{
1000
MANEDIT
1070
     0
1002
}
1002
{
1000
NOSEL
1070
     0
1002
}
1002
{
1000
BEHIND
1070
     0
1002
}
1002
{
1000
OTHER
1070
     0
1002
}
1002
{
1000
REACTOR
1002
}
  0
LINE
  5
60DB
  8
0
 10
2286.1162168342771
 20
14.64999999943165
 30
0.0
 11
2275.039527227294
 21
14.64999999943279
 31
0.0
  0
ARC
  5
60DC
  8
0
 10
2286.1162168342771
 20
16.64999999943165
 30
0.0
 40
2.0
 50
270.0
 51
339.99999999995953
1001
GENIUS_GENODEF_13
1002
{
1000
HIER
1070
     0
1002
}
1002
{
1000
MANEDIT
1070
     0
1002
}
1002
{
1000
NOSEL
1070
     0
1002
}
1002
{
1000
BEHIND
1070
     0
1002
}
1002
{
1000
OTHER
1070
     0
1002
}
1002
{
1000
REACTOR
1002
}
1001
GENIUS_GENOBJ-N-FIL_13
1002
{
1000
OWNER
1000
GEN
1002
}
  0
LINE
  5
60DD
  8
0
 10
2294.0427312767861
 20
24.749999999432021
 30
0.0
 11
2291.7528973073572
 21
24.749999999432021
 31
0.0
  0
LINE
  5
60DE
  8
0
 10
2291.0011432107272
 20
24.223616114092241
 30
0.0
 11
2287.9956020758468
 21
15.96595971278065
 31
0.0
  0
ARC
  5
60DF
  8
0
 10
2291.7528973073572
 20
23.949999999431839
 30
0.0
 40
0.8
 50
90.0
 51
159.9999999999595
1001
GENIUS_GENOBJ-N-FIL_13
1002
{
1000
OWNER
1000
GEN
1002
}
1001
GENIUS_GENODEF_13
1002
{
1000
HIER
1070
     0
1002
}
1002
{
1000
MANEDIT
1070
     0
1002
}
1002
{
1000
NOSEL
1070
     0
1002
}
1002
{
1000
BEHIND
1070
     0
1002
}
1002
{
1000
OTHER
1070
     0
1002
}
1002
{
1000
REACTOR
1002
}
  0
LINE
  5
60E0
  8
0
 10
218.56876337073481
 20
404.7712473521587
 30
0.0
 11
218.56882788437349
 21
418.57171174534233
 31
0.0
  0
LINE
  5
60E1
  8
0
 10
212.04273127678599
 20
428.67147954875048
 30
0.0
 11
212.04273127678599
 21
394.67147954875048
 31
0.0
  0
LINE
  5
60E2
  8
0
 10
214.89273127678459
 20
427.7376132233594
 30
0.0
 11
214.89273127678459
 21
395.60534587414162
 31
0.0
  0
LINE
  5
60E3
  8
0
 10
219.96924571929409
 20
404.77147954875079
 30
0.0
 11
231.04593532627769
 21
404.77147954875079
 31
0.0
  0
ARC
  5
60E4
  8
0
 10
219.96924571929409
 20
402.7714795487509
 30
0.0
 40
2.0
 50
90.0
 51
159.999999999935
1001
GENIUS_GENODEF_13
1002
{
1000
HIER
1070
     0
1002
}
1002
{
1000
MANEDIT
1070
     0
1002
}
1002
{
1000
NOSEL
1070
     0
1002
}
1002
{
1000
BEHIND
1070
     0
1002
}
1002
{
1000
OTHER
1070
     0
1002
}
1002
{
1000
REACTOR
1002
}
1001
GENIUS_GENOBJ-N-FIL_13
1002
{
1000
OWNER
1000
GEN
1002
}
  0
LINE
  5
60E5
  8
0
 10
212.04273127678599
 20
394.67147954875048
 30
0.0
 11
214.33256524621541
 21
394.67147954875048
 31
0.0
  0
LINE
  5
60E6
  8
0
 10
215.08431934284451
 20
395.19786343409032
 30
0.0
 11
218.08986047772481
 21
403.45551983540179
 31
0.0
  0
ARC
  5
60E7
  8
0
 10
214.33256524621541
 20
395.47147954875072
 30
0.0
 40
0.8
 50
270.0
 51
339.99999999993503
1001
GENIUS_GENOBJ-N-FIL_13
1002
{
1000
OWNER
1000
GEN
1002
}
1001
GENIUS_GENODEF_13
1002
{
1000
HIER
1070
     0
1002
}
1002
{
1000
MANEDIT
1070
     0
1002
}
1002
{
1000
NOSEL
1070
     0
1002
}
1002
{
1000
BEHIND
1070
     0
1002
}
1002
{
1000
OTHER
1070
     0
1002
}
1002
{
1000
REACTOR
1002
}
  0
LINE
  5
60E8
  8
0
 10
219.96924571929409
 20
418.57147954875012
 30
0.0
 11
231.04593532627769
 21
418.57147954875109
 31
0.0
  0
ARC
  5
60E9
  8
0
 10
219.96924571929409
 20
420.57147954875018
 30
0.0
 40
2.0
 50
200.00000000006489
 51
270.0
1001
GENIUS_GENODEF_13
1002
{
1000
HIER
1070
     0
1002
}
1002
{
1000
MANEDIT
1070
     0
1002
}
1002
{
1000
NOSEL
1070
     0
1002
}
1002
{
1000
BEHIND
1070
     0
1002
}
1002
{
1000
OTHER
1070
     0
1002
}
1002
{
1000
REACTOR
1002
}
1001
GENIUS_GENOBJ-N-FIL_13
1002
{
1000
OWNER
1000
GEN
1002
}
  0
LINE
  5
60EA
  8
0
 10
212.04273127678599
 20
428.67147954875048
 30
0.0
 11
214.33256524621541
 21
428.67147954875048
 31
0.0
  0
LINE
  5
60EB
  8
0
 10
215.08431934284451
 20
428.1450956634107
 30
0.0
 11
218.08986047772481
 21
419.88743926209912
 31
0.0
  0
ARC
  5
60EC
  8
0
 10
214.33256524621541
 20
427.8714795487503
 30
0.0
 40
0.8
 50
20.000000000064929
 51
90.0
1001
GENIUS_GENOBJ-N-FIL_13
1002
{
1000
OWNER
1000
GEN
1002
}
1001
GENIUS_GENODEF_13
1002
{
1000
HIER
1070
     0
1002
}
1002
{
1000
MANEDIT
1070
     0
1002
}
1002
{
1000
NOSEL
1070
     0
1002
}
1002
{
1000
BEHIND
1070
     0
1002
}
1002
{
1000
OTHER
1070
     0
1002
}
1002
{
1000
REACTOR
1002
}
  0
CIRCLE
  5
63D4
  8
0
 10
2174.0427312767929
 20
411.67147954874957
 30
0.0
 40
62.5
  0
CIRCLE
  5
63D5
  8
0
  6
CENTER
 10
2174.0427312767929
 20
411.67147954874957
 30
0.0
 40
45.0
  0
CIRCLE
  5
63D6
  8
0
 10
2142.2229261233952
 20
443.49128470214418
 30
0.0
 40
9.5
  0
CIRCLE
  5
63D7
  8
0
 10
2142.2229261233952
 20
379.85167439535502
 30
0.0
 40
9.5
  0
CIRCLE
  5
63D8
  8
0
 10
2205.8625364301911
 20
443.49128470214418
 30
0.0
 40
9.5
  0
CIRCLE
  5
63D9
  8
0
 10
2205.8625364301911
 20
379.85167439535502
 30
0.0
 40
9.5
  0
CIRCLE
  5
63DA
  8
AM_0_T3
 10
2174.0427312767929
 20
411.67147954874957
 30
0.0
 40
17.0
  0
CIRCLE
  5
63DB
  8
0
 10
363.8625364301879
 20
443.49128470214418
 30
0.0
 40
9.5
  0
CIRCLE
  5
63DC
  8
0
 10
363.8625364301879
 20
379.85167439535502
 30
0.0
 40
9.5
  0
CIRCLE
  5
63DD
  8
0
 10
300.22292612339879
 20
443.49128470214418
 30
0.0
 40
9.5
  0
CIRCLE
  5
63DE
  8
0
 10
300.22292612339879
 20
379.85167439535502
 30
0.0
 40
9.5
  0
LINE
  5
69B1
  8
0
 10
13.000000000003631
 20
28.417644999994529
 30
0.0
 11
13.00000000001455
 21
46.999999999994543
 31
0.0
  0
LINE
  5
69B2
  8
0
  6
CENTER
 10
-29.628538000019031
 20
-39.99999999998635
 30
0.0
 11
23.270997999978128
 21
-40.000000000010232
 31
0.0
  0
ARC
  5
69B3
  8
0
 10
-0.000000000007276
 20
0.0000000000002274
 30
0.0
 40
31.25
 50
275.50887500014937
 51
84.491121328926766
  0
ARC
  5
69B4
  8
0
 10
-0.000000000007276
 20
0.0000000000002274
 30
0.0
 40
22.25
 50
309.49713422814671
 51
82.251130000209514
  0
ARC
  5
69B5
  8
0
 10
-0.000000000007276
 20
0.0000000000002274
 30
0.0
 40
24.25
 50
287.16917523131031
 51
82.893656602341636
  0
ARC
  5
69B6
  8
0
 10
-0.000000000007276
 20
0.0000000000002274
 30
0.0
 40
22.25
 50
97.748870000208839
 51
230.5028657718201
  0
ARC
  5
69B7
  8
0
 10
-0.000000000007276
 20
0.0000000000002274
 30
0.0
 40
24.25
 50
97.748870000208839
 51
252.83082476868191
  0
ARC
  5
69B8
  8
0
 10
-0.000000000007276
 20
0.0000000000002274
 30
0.0
 40
31.25
 50
95.508879999975633
 51
264.4911200000243
  0
ARC
  5
69B9
  8
0
 10
-20.499999999985441
 20
45.000000000009543
 30
0.0
 40
1.0
 50
90.0
 51
180.00000500893739
  0
ARC
  5
69BA
  8
0
 10
-20.499999999996358
 20
35.00000000000955
 30
0.0
 40
1.0
 50
179.99998999997291
 51
269.99999600002042
  0
ARC
  5
69BB
  8
0
 10
-11.852004999989729
 20
36.750000000005677
 30
0.0
 40
7.647994999999999
 50
154.8526199999724
 51
205.14737199986081
  0
ARC
  5
69BC
  8
0
 10
-11.85200499998245
 20
43.250000000005677
 30
0.0
 40
7.647994999999999
 50
154.85262999987111
 51
205.14737199986081
  0
ARC
  5
69BD
  8
0
 10
-20.647994999988441
 20
36.75000000000977
 30
0.0
 40
7.647994999999999
 50
334.85262999987111
 51
25.147370000081668
  0
ARC
  5
69BE
  8
0
 10
-20.647994999981162
 20
43.250000000009777
 30
0.0
 40
7.647994999999999
 50
334.85262999987111
 51
25.147370000081668
  0
ARC
  5
69BF
  8
0
 10
10.85200500001883
 20
43.249999999995453
 30
0.0
 40
7.6479945000000011
 50
334.85262999987111
 51
25.147370000081668
  0
ARC
  5
69C0
  8
0
 10
10.85200500001155
 20
36.749999999995453
 30
0.0
 40
7.6479945000000011
 50
334.85262999987111
 51
25.147370000081668
  0
ARC
  5
69C1
  8
0
 10
10.85200499997881
 20
-43.25000000000454
 30
0.0
 40
7.6479945000000011
 50
334.85262999987111
 51
25.147370000081668
  0
ARC
  5
69C2
  8
0
 10
10.85200499998245
 20
-36.750000000004547
 30
0.0
 40
7.6479945000000011
 50
334.85262999987111
 51
25.147370000081668
  0
ARC
  5
69C3
  8
0
 10
-20.500000000032738
 20
-44.99999999999045
 30
0.0
 40
1.0
 50
179.99998999997291
 51
269.99999600002042
  0
ARC
  5
69C4
  8
0
 10
-20.500000000021821
 20
-34.99999999999045
 30
0.0
 40
1.0
 50
90.0
 51
180.0000050089113
  0
ARC
  5
69C5
  8
0
 10
-11.85200500001883
 20
-36.749999999994309
 30
0.0
 40
7.647994999999999
 50
154.85262999987111
 51
205.14737499989229
  0
ARC
  5
69C6
  8
0
 10
-11.852005000022469
 20
-43.249999999994309
 30
0.0
 40
7.647994999999999
 50
154.85262999987111
 51
205.14736800006659
  0
ARC
  5
69C7
  8
0
 10
-20.647995000017541
 20
-36.749999999990223
 30
0.0
 40
7.647994999999999
 50
334.85262999987111
 51
25.147370000081668
  0
ARC
  5
69C8
  8
0
 10
-20.647995000021179
 20
-43.249999999990223
 30
0.0
 40
7.647994999999999
 50
334.85262999987111
 51
25.147370000081668
  0
LINE
  5
69C9
  8
0
 10
3.000000000014551
 20
46.999999999998863
 30
0.0
 11
3.0
 21
22.04682499999921
 31
0.0
  0
LINE
  5
69CA
  8
0
 10
12.999999999974531
 20
-28.41764500000545
 30
0.0
 11
12.999999999967249
 21
-47.00000000000545
 31
0.0
  0
LINE
  5
69CB
  8
0
 10
-2.9999999999854481
 20
47.000000000001819
 30
0.0
 11
-3.0
 21
22.046825000002169
 31
0.0
  0
LINE
  5
69CC
  8
0
 10
2.9999999999672582
 20
-47.00000000000113
 30
0.0
 11
12.999999999967249
 21
-47.00000000000545
 31
0.0
  0
LINE
  5
69CD
  8
0
 10
-13.000000000025461
 20
-28.417644999993851
 30
0.0
 11
-13.00000000003274
 21
-46.999999999993861
 31
0.0
  0
LINE
  5
69CE
  8
0
 10
-3.0000000000327409
 20
-46.999999999998181
 30
0.0
 11
-13.00000000003274
 21
-46.999999999993861
 31
0.0
  0
LINE
  5
69CF
  8
0
 10
3.000000000014551
 20
46.999999999998863
 30
0.0
 11
13.00000000001455
 21
46.999999999994543
 31
0.0
  0
LINE
  5
69D0
  8
0
 10
-2.9999999999854481
 20
47.000000000001819
 30
0.0
 11
-12.999999999985439
 21
47.000000000006132
 31
0.0
  0
LINE
  5
69D1
  8
0
 10
-12.99999999999636
 20
28.417645000006129
 30
0.0
 11
-12.999999999985439
 21
47.000000000006132
 31
0.0
  0
LINE
  5
69D2
  8
0
 10
2.9999999999854481
 20
-24.483200530675042
 30
0.0
 11
2.9999999999672582
 21
-47.00000000000113
 31
0.0
  0
LINE
  5
69D3
  8
0
 10
-3.000000000021827
 20
-24.483200530672999
 30
0.0
 11
-3.0000000000327409
 21
-46.999999999998181
 31
0.0
  0
LINE
  5
69D4
  8
0
 10
-2.9999999999890861
 20
44.000000000001819
 30
0.0
 11
3.000000000010913
 21
43.999999999998863
 31
0.0
  0
LINE
  5
69D5
  8
0
 10
-2.999999999996362
 20
36.000000000001819
 30
0.0
 11
3.0000000000036371
 21
35.999999999998863
 31
0.0
  0
LINE
  5
69D6
  8
0
 10
-3.0000000000327409
 20
-43.999999999998181
 30
0.0
 11
2.9999999999672582
 21
-44.000000000001137
 31
0.0
  0
LINE
  5
69D7
  8
0
 10
-3.000000000025465
 20
-35.999999999998181
 30
0.0
 11
2.9999999999745341
 21
-36.00000000000113
 31
0.0
  0
LINE
  5
69D8
  8
0
 10
-26.999999999989079
 20
44.000000000012498
 30
0.0
 11
-21.499999999989079
 21
44.000000000009997
 31
0.0
  0
LINE
  5
69D9
  8
0
 10
-21.499999999985452
 20
45.000000000009997
 30
0.0
 11
-21.499999999996358
 21
35.000000000009997
 31
0.0
  0
LINE
  5
69DA
  8
0
 10
-26.999999999989079
 20
44.000000000012498
 30
0.0
 11
-26.999999999996358
 21
36.000000000012498
 31
0.0
  0
LINE
  5
69DB
  8
0
 10
-20.499999999985441
 20
46.00000000000955
 30
0.0
 11
-19.499999999985441
 21
46.000000000009102
 31
0.0
  0
LINE
  5
69DC
  8
0
 10
-20.499999999996358
 20
34.00000000000955
 30
0.0
 11
-19.499999999996358
 21
34.000000000009088
 31
0.0
  0
LINE
  5
69DD
  8
0
 10
-19.499999999996358
 20
33.500000000009088
 30
0.0
 11
-19.499999999985441
 21
46.500000000009088
 31
0.0
  0
LINE
  5
69DE
  8
0
 10
-19.499999999996358
 20
33.500000000009088
 30
0.0
 11
-12.99999999999636
 21
33.500000000006139
 31
0.0
  0
LINE
  5
69DF
  8
0
 10
-19.499999999985441
 20
46.500000000009088
 30
0.0
 11
-12.999999999985439
 21
46.500000000006139
 31
0.0
  0
LINE
  5
69E0
  8
0
 10
-26.999999999996358
 20
36.000000000012498
 30
0.0
 11
-21.499999999996358
 21
36.000000000009997
 31
0.0
  0
LINE
  5
69E1
  8
0
 10
18.50000000001091
 20
43.249999999992042
 30
0.0
 11
18.500000000003631
 21
36.749999999992042
 31
0.0
  0
LINE
  5
69E2
  8
0
 10
17.775106000015509
 20
46.499999999992262
 30
0.0
 11
13.00000000001455
 21
46.499999999994543
 31
0.0
  0
LINE
  5
69E3
  8
0
 10
17.775106000004591
 20
33.499999999992262
 30
0.0
 11
13.000000000003631
 21
33.499999999994543
 31
0.0
  0
LINE
  5
69E4
  8
0
 10
18.499999999970889
 20
-43.250000000007951
 30
0.0
 11
18.499999999974531
 21
-36.750000000007958
 31
0.0
  0
LINE
  5
69E5
  8
0
 10
17.775105999968211
 20
-46.500000000007731
 30
0.0
 11
12.999999999967249
 21
-46.50000000000545
 31
0.0
  0
LINE
  5
69E6
  8
0
 10
17.775105999979129
 20
-33.500000000007731
 30
0.0
 11
12.99999999997817
 21
-33.50000000000545
 31
0.0
  0
LINE
  5
69E7
  8
0
 10
-27.000000000032738
 20
-43.999999999987487
 30
0.0
 11
-21.500000000032738
 21
-43.999999999989988
 31
0.0
  0
LINE
  5
69E8
  8
0
 10
-21.500000000032738
 20
-44.999999999989988
 30
0.0
 11
-21.500000000021831
 21
-34.999999999989988
 31
0.0
  0
LINE
  5
69E9
  8
0
 10
-27.000000000032738
 20
-43.999999999987487
 30
0.0
 11
-27.000000000025459
 21
-35.999999999987487
 31
0.0
  0
LINE
  5
69EA
  8
0
 10
-20.500000000032738
 20
-45.999999999990443
 30
0.0
 11
-19.500000000032738
 21
-45.999999999990912
 31
0.0
  0
LINE
  5
69EB
  8
0
 10
-20.500000000021821
 20
-33.99999999999045
 30
0.0
 11
-19.500000000021821
 21
-33.999999999990898
 31
0.0
  0
LINE
  5
69EC
  8
0
 10
-19.500000000021821
 20
-33.499999999990898
 30
0.0
 11
-19.500000000032738
 21
-46.499999999990898
 31
0.0
  0
LINE
  5
69ED
  8
0
 10
-19.500000000021821
 20
-33.499999999990898
 30
0.0
 11
-13.000000000021821
 21
-33.499999999993861
 31
0.0
  0
LINE
  5
69EE
  8
0
 10
-19.500000000032738
 20
-46.499999999990898
 30
0.0
 11
-13.00000000003274
 21
-46.499999999993861
 31
0.0
  0
LINE
  5
69EF
  8
0
 10
-27.000000000025459
 20
-35.999999999987487
 30
0.0
 11
-21.500000000025459
 21
-35.999999999989988
 31
0.0
  0
LINE
  5
69F0
  8
0
  6
CENTER
 10
-29.32865499998297
 20
40.000000000013642
 30
0.0
 11
21.291763000008348
 21
39.999999999990671
 31
0.0
  0
LINE
  5
69F1
  8
0
  6
CENTER
 10
-0.0000000000545697
 20
-94.0
 30
0.0
 11
0.0000000000363798
 21
94.000000000000895
 31
0.0
  0
LINE
  5
69F2
  8
0
  6
CENTER
 10
-48.743126909459527
 20
0.0000000000220552
 30
0.0
 11
48.743126909459527
 21
-0.0000000000218279
 31
0.0
  0
LINE
  5
69F3
  8
0
 10
-62.500000000047287
 20
-84.999999999970896
 30
0.0
 11
-62.500000000040018
 21
-70.999999999971351
 31
0.0
  0
LINE
  5
69F4
  8
0
  6
CENTER
 10
-45.000000000054563
 20
-93.999999999979067
 30
0.0
 11
-45.000000000040018
 21
-60.999999999979991
 31
0.0
  0
LINE
  5
69F5
  8
0
  6
CENTER
 10
44.99999999994543
 20
-94.000000000020464
 30
0.0
 11
44.999999999959982
 21
-61.000000000020691
 31
0.0
  0
LINE
  5
69F6
  8
0
 10
62.499999999959982
 20
-71.000000000028422
 30
0.0
 11
62.499999999952713
 21
-85.00000000002774
 31
0.0
  0
LINE
  5
69F7
  8
0
 10
62.499999999952713
 20
-85.00000000002774
 30
0.0
 11
-62.500000000047287
 21
-84.999999999970896
 31
0.0
  0
LINE
  5
69F8
  8
0
 10
-62.500000000040018
 20
-70.999999999971351
 30
0.0
 11
62.499999999959982
 21
-71.000000000028422
 31
0.0
  0
LINE
  5
69F9
  8
0
 10
16.999999999959979
 20
-71.000000000007034
 30
0.0
 11
16.999999999967251
 21
-46.500000000007503
 31
0.0
  0
LINE
  5
69FA
  8
0
 10
16.999999999978169
 20
-33.500000000007503
 30
0.0
 11
16.999999999978169
 21
-26.221413005412391
 31
0.0
  0
LINE
  5
69FB
  8
0
 10
-17.000000000040011
 20
-70.999999999991815
 30
0.0
 11
-17.000000000025459
 21
-46.499999999992042
 31
0.0
  0
LINE
  5
69FC
  8
0
 10
-17.000000000014548
 20
-33.499999999992262
 30
0.0
 11
-17.000000000021821
 21
-26.22141300539738
 31
0.0
  0
LINE
  5
6A49
  8
0
 10
-62.499999999974527
 20
85.000000000027285
 30
0.0
 11
-62.499999999978172
 21
71.00000000002774
 31
0.0
  0
LINE
  5
6A4A
  8
0
  6
CENTER
 10
-44.99999999996362
 20
94.000000000020918
 30
0.0
 11
-44.99999999998181
 21
61.000000000020918
 31
0.0
  0
LINE
  5
6A4B
  8
0
  6
CENTER
 10
45.000000000036373
 20
93.999999999980446
 30
0.0
 11
45.000000000018183
 21
60.999999999980673
 31
0.0
  0
LINE
  5
6A4C
  8
0
 10
62.500000000021828
 20
70.99999999997317
 30
0.0
 11
62.500000000025473
 21
84.999999999972715
 31
0.0
  0
LINE
  5
6A4D
  8
0
 10
62.500000000025473
 20
84.999999999972715
 30
0.0
 11
-62.499999999974527
 21
85.000000000027285
 31
0.0
  0
LINE
  5
6A4E
  8
0
 10
-62.499999999978172
 20
71.00000000002774
 30
0.0
 11
62.500000000021828
 21
70.99999999997317
 31
0.0
  0
LINE
  5
6A4F
  8
0
 10
17.000000000021821
 20
70.999999999992497
 30
0.0
 11
17.000000000014548
 21
46.499999999992951
 31
0.0
  0
LINE
  5
6A50
  8
0
 10
17.000000000003631
 20
33.499999999992951
 30
0.0
 11
17.000000000003631
 21
26.221413005397832
 31
0.0
  0
LINE
  5
6A51
  8
0
 10
-16.999999999978169
 20
71.000000000007503
 30
0.0
 11
-16.999999999978169
 21
46.500000000007731
 31
0.0
  0
LINE
  5
6A52
  8
0
 10
-16.999999999989079
 20
33.500000000007951
 30
0.0
 11
-16.999999999996358
 21
26.221413005413069
 31
0.0
  0
LINE
  5
6AAF
  8
0
  6
CENTER
 10
-21.05384588198649
 20
-7.7499999999836291
 30
0.0
 11
21.053845881957379
 21
-7.7500000000022728
 31
0.0
  0
CIRCLE
  5
6AB2
  8
0
 10
-0.0000000000145519
 20
-7.7499999999929514
 30
0.0
 40
17.0
  0
CIRCLE
  5
6AB3
  8
0
 10
-0.0000000000145519
 20
-7.7499999999929514
 30
0.0
 40
6.9000000000007722
  0
ENDSEC
  0
EOF
