  0
SECTION
  2
HEADER
  9
$ACADVER
  1
AC1018
  9
$ACADMAINTVER
 70
   104
  9
$DWGCODEPAGE
  3
ANSI_932
  9
$LASTSAVEDBY
  1
h-mizoguchi
  9
$CUSTOMPROPERTYTAG
  1
AmdtFileType
  9
$CUSTOMPROPERTY
  1
84
  9
$INSBASE
 10
0.0
 20
0.0
 30
0.0
  9
$EXTMIN
 10
-112.6236656295004
 20
-160.0000000000718
 30
0.0
  9
$EXTMAX
 10
2423.105709589913
 20
976.5632838052507
 30
0.0
  9
$LIMMIN
 10
0.0
 20
0.0
  9
$LIMMAX
 10
420.0
 20
297.0
  9
$ORTHOMODE
 70
     1
  9
$REGENMODE
 70
     1
  9
$FILLMODE
 70
     1
  9
$QTEXTMODE
 70
     0
  9
$MIRRTEXT
 70
     1
  9
$LTSCALE
 40
1.0
  9
$ATTMODE
 70
     1
  9
$TEXTSIZE
 40
73.98571745357912
  9
$TRACEWID
 40
1.0
  9
$TEXTSTYLE
  7
STANDARD
  9
$CLAYER
  8
0
  9
$CELTYPE
  6
ByLayer
  9
$CECOLOR
 62
   256
  9
$CELTSCALE
 40
1.0
  9
$DISPSILH
 70
     0
  9
$DIMSCALE
 40
1.0
  9
$DIMASZ
 40
3.0
  9
$DIMEXO
 40
1.0
  9
$DIMDLI
 40
10.0
  9
$DIMRND
 40
0.0
  9
$DIMDLE
 40
0.0
  9
$DIMEXE
 40
1.0
  9
$DIMTP
 40
0.1
  9
$DIMTM
 40
0.1
  9
$DIMTXT
 40
3.0
  9
$DIMCEN
 40
0.0
  9
$DIMTSZ
 40
0.0
  9
$DIMTOL
 70
     0
  9
$DIMLIM
 70
     0
  9
$DIMTIH
 70
     0
  9
$DIMTOH
 70
     0
  9
$DIMSE1
 70
     0
  9
$DIMSE2
 70
     0
  9
$DIMTAD
 70
     3
  9
$DIMZIN
 70
     8
  9
$DIMBLK
  1
Open
  9
$DIMASO
 70
     1
  9
$DIMSHO
 70
     1
  9
$DIMPOST
  1

  9
$DIMAPOST
  1
"
  9
$DIMALT
 70
     0
  9
$DIMALTD
 70
     2
  9
$DIMALTF
 40
0.0393701
  9
$DIMLFAC
 40
1.0
  9
$DIMTOFL
 70
     1
  9
$DIMTVP
 40
0.0
  9
$DIMTIX
 70
     0
  9
$DIMSOXD
 70
     0
  9
$DIMSAH
 70
     0
  9
$DIMBLK1
  1

  9
$DIMBLK2
  1

  9
$DIMSTYLE
  2
TSK
  9
$DIMCLRD
 70
   256
  9
$DIMCLRE
 70
   256
  9
$DIMCLRT
 70
     2
  9
$DIMTFAC
 40
0.71
  9
$DIMGAP
 40
1.5
  9
$DIMJUST
 70
     0
  9
$DIMSD1
 70
     0
  9
$DIMSD2
 70
     0
  9
$DIMTOLJ
 70
     1
  9
$DIMTZIN
 70
     8
  9
$DIMALTZ
 70
     0
  9
$DIMALTTZ
 70
     0
  9
$DIMUPT
 70
     0
  9
$DIMDEC
 70
     2
  9
$DIMTDEC
 70
     2
  9
$DIMALTU
 70
     2
  9
$DIMALTTD
 70
     2
  9
$DIMTXSTY
  7
TSKDIM
  9
$DIMAUNIT
 70
     0
  9
$DIMADEC
 70
     0
  9
$DIMALTRND
 40
0.0
  9
$DIMAZIN
 70
     2
  9
$DIMDSEP
 70
    46
  9
$DIMATFIT
 70
     3
  9
$DIMFRAC
 70
     0
  9
$DIMLDRBLK
  1
Open
  9
$DIMLUNIT
 70
     2
  9
$DIMLWD
 70
     9
  9
$DIMLWE
 70
     9
  9
$DIMTMOVE
 70
     0
  9
$LUNITS
 70
     2
  9
$LUPREC
 70
     8
  9
$SKETCHINC
 40
1.0
  9
$FILLETRAD
 40
0.0
  9
$AUNITS
 70
     0
  9
$AUPREC
 70
     8
  9
$MENU
  1
.
  9
$ELEVATION
 40
0.0
  9
$PELEVATION
 40
0.0
  9
$THICKNESS
 40
0.0
  9
$LIMCHECK
 70
     0
  9
$CHAMFERA
 40
2.5
  9
$CHAMFERB
 40
2.5
  9
$CHAMFERC
 40
20.0
  9
$CHAMFERD
 40
0.0
  9
$SKPOLY
 70
     0
  9
$TDCREATE
 40
2454739.398931562
  9
$TDUCREATE
 40
2454739.023931562
  9
$TDUPDATE
 40
2456169.483414548
  9
$TDUUPDATE
 40
2456169.108414548
  9
$TDINDWG
 40
0.3615722569
  9
$TDUSRTIMER
 40
0.3615718981
  9
$USRTIMER
 70
     1
  9
$ANGBASE
 50
0.0
  9
$ANGDIR
 70
     1
  9
$PDMODE
 70
     0
  9
$PDSIZE
 40
0.0
  9
$PLINEWID
 40
0.0
  9
$SPLFRAME
 70
     0
  9
$SPLINETYPE
 70
     6
  9
$SPLINESEGS
 70
     8
  9
$HANDSEED
  5
5AE0
  9
$SURFTAB1
 70
     6
  9
$SURFTAB2
 70
     6
  9
$SURFTYPE
 70
     6
  9
$SURFU
 70
     6
  9
$SURFV
 70
     6
  9
$UCSBASE
  2

  9
$UCSNAME
  2

  9
$UCSORG
 10
0.0
 20
0.0
 30
0.0
  9
$UCSXDIR
 10
1.0
 20
0.0
 30
0.0
  9
$UCSYDIR
 10
0.0
 20
1.0
 30
0.0
  9
$UCSORTHOREF
  2

  9
$UCSORTHOVIEW
 70
     0
  9
$UCSORGTOP
 10
0.0
 20
0.0
 30
0.0
  9
$UCSORGBOTTOM
 10
0.0
 20
0.0
 30
0.0
  9
$UCSORGLEFT
 10
0.0
 20
0.0
 30
0.0
  9
$UCSORGRIGHT
 10
0.0
 20
0.0
 30
0.0
  9
$UCSORGFRONT
 10
0.0
 20
0.0
 30
0.0
  9
$UCSORGBACK
 10
0.0
 20
0.0
 30
0.0
  9
$PUCSBASE
  2

  9
$PUCSNAME
  2

  9
$PUCSORG
 10
0.0
 20
0.0
 30
0.0
  9
$PUCSXDIR
 10
1.0
 20
0.0
 30
0.0
  9
$PUCSYDIR
 10
0.0
 20
1.0
 30
0.0
  9
$PUCSORTHOREF
  2

  9
$PUCSORTHOVIEW
 70
     0
  9
$PUCSORGTOP
 10
0.0
 20
0.0
 30
0.0
  9
$PUCSORGBOTTOM
 10
0.0
 20
0.0
 30
0.0
  9
$PUCSORGLEFT
 10
0.0
 20
0.0
 30
0.0
  9
$PUCSORGRIGHT
 10
0.0
 20
0.0
 30
0.0
  9
$PUCSORGFRONT
 10
0.0
 20
0.0
 30
0.0
  9
$PUCSORGBACK
 10
0.0
 20
0.0
 30
0.0
  9
$USERI1
 70
     0
  9
$USERI2
 70
     0
  9
$USERI3
 70
     0
  9
$USERI4
 70
     0
  9
$USERI5
 70
     0
  9
$USERR1
 40
0.0
  9
$USERR2
 40
0.0
  9
$USERR3
 40
0.0
  9
$USERR4
 40
0.0
  9
$USERR5
 40
0.0
  9
$WORLDVIEW
 70
     1
  9
$SHADEDGE
 70
     3
  9
$SHADEDIF
 70
    70
  9
$TILEMODE
 70
     1
  9
$MAXACTVP
 70
    48
  9
$PINSBASE
 10
0.0
 20
0.0
 30
0.0
  9
$PLIMCHECK
 70
     0
  9
$PEXTMIN
 10
1.000000000000000E+20
 20
1.000000000000000E+20
 30
1.000000000000000E+20
  9
$PEXTMAX
 10
-1.000000000000000E+20
 20
-1.000000000000000E+20
 30
-1.000000000000000E+20
  9
$PLIMMIN
 10
0.0
 20
0.0
  9
$PLIMMAX
 10
420.0
 20
297.0
  9
$UNITMODE
 70
     0
  9
$VISRETAIN
 70
     1
  9
$PLINEGEN
 70
     0
  9
$PSLTSCALE
 70
     1
  9
$TREEDEPTH
 70
  3020
  9
$CMLSTYLE
  2
Standard
  9
$CMLJUST
 70
     0
  9
$CMLSCALE
 40
20.0
  9
$PROXYGRAPHICS
 70
     1
  9
$MEASUREMENT
 70
     1
  9
$CELWEIGHT
370
    -1
  9
$ENDCAPS
280
     0
  9
$JOINSTYLE
280
     0
  9
$LWDISPLAY
290
     0
  9
$INSUNITS
 70
     4
  9
$HYPERLINKBASE
  1

  9
$STYLESHEET
  1
MPP.ctb
  9
$XEDIT
290
     1
  9
$CEPSNTYPE
380
     0
  9
$PSTYLEMODE
290
     1
  9
$FINGERPRINTGUID
  2
{E2EE2984-40DB-4795-A236-B944694F9C34}
  9
$VERSIONGUID
  2
{241B7DA5-FC58-443C-BD22-8CECFD730799}
  9
$EXTNAMES
290
     1
  9
$PSVPSCALE
 40
0.0
  9
$OLESTARTUP
290
     0
  9
$SORTENTS
280
   127
  9
$INDEXCTL
280
     0
  9
$HIDETEXT
280
     0
  9
$XCLIPFRAME
290
     0
  9
$HALOGAP
280
     0
  9
$OBSCOLOR
 70
   257
  9
$OBSLTYPE
280
     0
  9
$INTERSECTIONDISPLAY
280
     0
  9
$INTERSECTIONCOLOR
 70
   257
  9
$DIMASSOC
280
     2
  9
$PROJECTNAME
  1

  0
ENDSEC
  0
SECTION
  2
CLASSES
  0
CLASS
  1
ACDBDICTIONARYWDFLT
  2
AcDbDictionaryWithDefault
  3
ObjectDBX Classes
 90
        0
 91
        1
280
     0
281
     0
  0
CLASS
  1
ACDBPLACEHOLDER
  2
AcDbPlaceHolder
  3
ObjectDBX Classes
 90
        0
 91
        1
280
     0
281
     0
  0
CLASS
  1
LAYOUT
  2
AcDbLayout
  3
ObjectDBX Classes
 90
        0
 91
        3
280
     0
281
     0
  0
CLASS
  1
AMGSETTINGSOBJ
  2
AmgSettingsObj
  3
"AcadM|Product Description: AutoCAD Mechanical|Company: Autodesk, Inc."
 90
     1024
 91
        0
280
     0
281
     0
  0
CLASS
  1
ACME_DOCUMENT
  2
AcMeDbDoc
  3
AcMeServices
 90
     1024
 91
        0
280
     0
281
     0
  0
CLASS
  1
ACMESCOPE
  2
AcMeScope
  3
AcMeServices
 90
     1024
 91
        0
280
     0
281
     0
  0
CLASS
  1
ACMECOMMANDHISTORY
  2
AcMeCommandHistory
  3
AcMeServices
 90
     1024
 91
        0
280
     0
281
     0
  0
CLASS
  1
DICTIONARYVAR
  2
AcDbDictionaryVar
  3
ObjectDBX Classes
 90
        0
 91
       12
280
     0
281
     0
  0
CLASS
  1
ACIMSYSVARMAN
  2
AcImSysVarManager
  3
AcMeServices
 90
     1024
 91
        2
280
     0
281
     0
  0
CLASS
  1
ACIMREALSYSVAR
  2
AcImRealSysVar
  3
AcMeServices
 90
     1024
 91
        0
280
     0
281
     0
  0
CLASS
  1
ACIMINTSYSVAR
  2
AcImIntSysVar
  3
AcMeServices
 90
     1024
 91
        0
280
     0
281
     0
  0
CLASS
  1
ACMEDRAWINGMAN
  2
AcMeDrawingMan
  3
AcMeServices
 90
     1024
 91
        0
280
     0
281
     0
  0
CLASS
  1
ACMEVIEW
  2
AcMeView
  3
AcMeServices
 90
     1024
 91
        0
280
     0
281
     0
  0
CLASS
  1
ACDBENTITYCACHE
  2
AcMeEntityCache
  3
AcMeServices
 90
     1024
 91
        0
280
     0
281
     0
  0
CLASS
  1
GSMANAGER
  2
AcMeGSManager
  3
AcMeServices
 90
     1024
 91
        0
280
     0
281
     0
  0
CLASS
  1
AMDTINTERNALREACTOR
  2
AmdtInternalReactor
  3
AcMeServices
 90
     1024
 91
        0
280
     0
281
     0
  0
CLASS
  1
ACMESTATEMGR
  2
AcMeStateMgr
  3
AcMeServices
 90
     1024
 91
        0
280
     0
281
     0
  0
CLASS
  1
ACGREFMASTER
  2
AcGrefMaster
  3
AcAttribServices
 90
     1024
 91
        0
280
     0
281
     0
  0
CLASS
  1
ACME_DATABASE
  2
AcMeDbDatabase
  3
AcMeServices
 90
     1024
 91
        0
280
     0
281
     0
  0
CLASS
  1
ACRFINSADJUSTERMGR
  2
AcRfInsAdjusterMgr
  3
AcMeServices
 90
     1024
 91
        0
280
     0
281
     0
  0
CLASS
  1
ACGREFACADMASTER
  2
AcGrefacadMaster
  3
AcGrefServices
 90
     1024
 91
        0
280
     0
281
     0
  0
CLASS
  1
AMIMASTER
  2
AmiMaster
  3
AmiServices
 90
     1024
 91
        0
280
     0
281
     0
  0
CLASS
  1
ACIMSTRSYSVAR
  2
AcImStrSysVar
  3
AcMeServices
 90
     1024
 91
        0
280
     0
281
     0
  0
CLASS
  1
ACMSTANDARDJIS
  2
AcmStandardJIS
  3
"Amdt_StdImp|Product Description: AutoCAD Mechanical|Company: Autodesk, Inc."
 90
     1024
 91
        0
280
     0
281
     0
  0
CLASS
  1
AMGOBJPROPCFG
  2
AmgObjPropCfg
  3
"AmgLay|Product Description: AutoCAD Mechanical|Company: Autodesk, Inc."
 90
     1025
 91
        0
280
     0
281
     0
  0
CLASS
  1
ACMSURFSTANDARDJIS
  2
AcmSurfTextStdJIS
  3
"Amdt_StdImp|Product Description: AutoCAD Mechanical|Company: Autodesk, Inc."
 90
     1024
 91
        0
280
     0
281
     0
  0
CLASS
  1
ACMFCFSTANDARDJIS
  2
AcmFCFStdJIS
  3
"Amdt_StdImp|Product Description: AutoCAD Mechanical|Company: Autodesk, Inc."
 90
     1024
 91
        0
280
     0
281
     0
  0
CLASS
  1
ACMWELDSTANDARDJIS
  2
AcmWeldingStdJIS
  3
"Amdt_StdImp|Product Description: AutoCAD Mechanical|Company: Autodesk, Inc."
 90
     1024
 91
        0
280
     0
281
     0
  0
CLASS
  1
ACMIDSTANDARDJIS
  2
AcmIdStdJIS
  3
"Amdt_StdImp|Product Description: AutoCAD Mechanical|Company: Autodesk, Inc."
 90
     1024
 91
        0
280
     0
281
     0
  0
CLASS
  1
ACMDATUMSTANDARDJIS
  2
AcmDatumStdJIS
  3
"Amdt_StdImp|Product Description: AutoCAD Mechanical|Company: Autodesk, Inc."
 90
     1024
 91
        0
280
     0
281
     0
  0
CLASS
  1
ACMBOMSTANDARDJIS
  2
AcmBOMStdJIS
  3
"Amdt_StdImp|Product Description: AutoCAD Mechanical|Company: Autodesk, Inc."
 90
     1024
 91
        0
280
     0
281
     0
  0
CLASS
  1
ACMDETAILSTANDARDJIS
  2
AmdtDetailSymStdJIS
  3
"Amdt_StdImp|Product Description: AutoCAD Mechanical|Company: Autodesk, Inc."
 90
     1024
 91
        0
280
     0
281
     0
  0
CLASS
  1
ACMSECTIONSTANDARDJIS
  2
AmdtSectionSymStdJIS
  3
"Amdt_StdImp|Product Description: AutoCAD Mechanical|Company: Autodesk, Inc."
 90
     1024
 91
        0
280
     0
281
     0
  0
CLASS
  1
ACMCENTERLINESTANDARDJIS
  2
AmdtCenterLineStdJIS
  3
"Amdt_StdImp|Product Description: AutoCAD Mechanical|Company: Autodesk, Inc."
 90
     1024
 91
        0
280
     0
281
     0
  0
CLASS
  1
ACMTHREADLINESTANDARDJIS
  2
AmdtThreadLineStdJIS
  3
"Amdt_StdImp|Product Description: AutoCAD Mechanical|Company: Autodesk, Inc."
 90
     1024
 91
        0
280
     0
281
     0
  0
CLASS
  1
ACAMGLAYSTD
  2
AcAmgLayStd
  3
"AmgLay|Product Description: AutoCAD Mechanical|Company: Autodesk, Inc."
 90
     1024
 91
        0
280
     0
281
     0
  0
CLASS
  1
ACAMGDIMSTD
  2
AcAmgDimStd
  3
"AmgDim|Product Description: AutoCAD Mechanical|Company: Autodesk, Inc."
 90
     1024
 91
        0
280
     0
281
     0
  0
CLASS
  1
ACAMGTITLESTD
  2
AcAmgTitleStd
  3
"AmgTitle|Product Description: AutoCAD Mechanical|Company: Autodesk, Inc."
 90
     4095
 91
        0
280
     0
281
     0
  0
CLASS
  1
ACMDATADICTIONARY
  2
AcmDataDictionary
  3
"AcmSymBB|Product Description: AutoCAD Mechanical|Company: Autodesk, Inc."
 90
     1024
 91
        0
280
     0
281
     0
  0
CLASS
  1
ACMDATAENTRYBLOCK
  2
AcmDataEntryBlock
  3
AcmSymBB|Product Description: AutoCAD Mechanical|Company: Autodesk, Inc.
 90
     1024
 91
        0
280
     0
281
     0
  0
CLASS
  1
LAYER_INDEX
  2
AcDbLayerIndex
  3
ObjectDBX Classes
 90
        0
 91
        0
280
     0
281
     0
  0
CLASS
  1
IDBUFFER
  2
AcDbIdBuffer
  3
ObjectDBX Classes
 90
        0
 91
        0
280
     0
281
     0
  0
CLASS
  1
ACMNOTESTANDARDJIS
  2
AmdtNoteStdJIS
  3
"Amdt_StdImp|Product Description: AutoCAD Mechanical|Company: Autodesk, Inc."
 90
     1024
 91
        0
280
     0
281
     0
  0
CLASS
  1
ACAMGHOLECHARTSTDJIS
  2
AcAmgHoleChartStdJIS
  3
AmgDim|Product Description: AutoCAD Mechanical|Company: Autodesk, Inc.
 90
     1024
 91
        0
280
     0
281
     0
  0
CLASS
  1
ACAMGFILTERDAT
  2
AcAmgFilterDat
  3
"AcadM|Product Description: AutoCAD Mechanical|Company: Autodesk, Inc."
 90
     1024
 91
        0
280
     0
281
     0
  0
CLASS
  1
ACMFCFSTANDARDJIS98
  2
AcmFCFStdJIS98
  3
"Amdt_StdImp|Product Description: AutoCAD Mechanical|Company: Autodesk, Inc."
 90
     1024
 91
        0
280
     0
281
     0
  0
CLASS
  1
AMDTNOTE
  2
AmdtNote
  3
"AcmSymBB|Product Description: AutoCAD Mechanical|Company: Autodesk, Inc."
 90
     4095
 91
        0
280
     0
281
     1
  0
CLASS
  1
AMDTFORMULAUPDATEDISPATCHER
  2
AmdtFormulaUpdateDispatcher
  3
AcMeServices
 90
     1024
 91
        0
280
     0
281
     0
  0
CLASS
  1
ACMSTANDARDISO
  2
AcmStandardISO
  3
"Amdt_StdImp|Product Description: AutoCAD Mechanical|Company: Autodesk, Inc."
 90
     1024
 91
        0
280
     0
281
     0
  0
CLASS
  1
AMDTEDGESTANDARDISO
  2
AmdtEdgeStdISO
  3
"Amdt_StdImp|Product Description: AutoCAD Mechanical|Company: Autodesk, Inc."
 90
     1024
 91
        0
280
     0
281
     0
  0
CLASS
  1
ACMSURFSTANDARDISO
  2
AcmSurfTextStdISO
  3
"Amdt_StdImp|Product Description: AutoCAD Mechanical|Company: Autodesk, Inc."
 90
     1024
 91
        0
280
     0
281
     0
  0
CLASS
  1
ACMFCFSTANDARDISO
  2
AcmFCFStdISO
  3
"Amdt_StdImp|Product Description: AutoCAD Mechanical|Company: Autodesk, Inc."
 90
     1024
 91
        0
280
     0
281
     0
  0
CLASS
  1
ACMWELDSTANDARDISO
  2
AcmWeldingStdISO
  3
"Amdt_StdImp|Product Description: AutoCAD Mechanical|Company: Autodesk, Inc."
 90
     1024
 91
        0
280
     0
281
     0
  0
CLASS
  1
ACMIDSTANDARDISO
  2
AcmIdStdISO
  3
"Amdt_StdImp|Product Description: AutoCAD Mechanical|Company: Autodesk, Inc."
 90
     1024
 91
        0
280
     0
281
     0
  0
CLASS
  1
ACMDATUMSTANDARDISO
  2
AcmDatumStdISO
  3
"Amdt_StdImp|Product Description: AutoCAD Mechanical|Company: Autodesk, Inc."
 90
     1024
 91
        0
280
     0
281
     0
  0
CLASS
  1
ACMBOMSTANDARDISO
  2
AcmBOMStdISO
  3
"Amdt_StdImp|Product Description: AutoCAD Mechanical|Company: Autodesk, Inc."
 90
     1024
 91
        0
280
     0
281
     0
  0
CLASS
  1
ACMDETAILSTANDARDISO
  2
AmdtDetailSymStdISO
  3
"Amdt_StdImp|Product Description: AutoCAD Mechanical|Company: Autodesk, Inc."
 90
     1024
 91
        0
280
     0
281
     0
  0
CLASS
  1
ACMSECTIONSTANDARDISO
  2
AmdtSectionSymStdISO
  3
"Amdt_StdImp|Product Description: AutoCAD Mechanical|Company: Autodesk, Inc."
 90
     1024
 91
        0
280
     0
281
     0
  0
CLASS
  1
ACMCENTERLINESTANDARDISO
  2
AmdtCenterLineStdISO
  3
"Amdt_StdImp|Product Description: AutoCAD Mechanical|Company: Autodesk, Inc."
 90
     1024
 91
        0
280
     0
281
     0
  0
CLASS
  1
ACMNOTESTANDARDISO
  2
AmdtNoteStdISO
  3
"Amdt_StdImp|Product Description: AutoCAD Mechanical|Company: Autodesk, Inc."
 90
     1024
 91
        0
280
     0
281
     0
  0
CLASS
  1
ACAMGHOLECHARTSTDISO
  2
AcAmgHoleChartStdISO
  3
AmgDim|Product Description: AutoCAD Mechanical|Company: Autodesk, Inc.
 90
     1024
 91
        0
280
     0
281
     0
  0
CLASS
  1
ACMSTANDARDGB
  2
AcmStandardGB
  3
"Amdt_StdImp|Product Description: AutoCAD Mechanical|Company: Autodesk, Inc."
 90
     1024
 91
        0
280
     0
281
     0
  0
CLASS
  1
ACMSURFSTANDARDGB
  2
AcmSurfTextStdGB
  3
"Amdt_StdImp|Product Description: AutoCAD Mechanical|Company: Autodesk, Inc."
 90
     1024
 91
        0
280
     0
281
     0
  0
CLASS
  1
ACMFCFSTANDARDGB
  2
AcmFCFStdGB
  3
"Amdt_StdImp|Product Description: AutoCAD Mechanical|Company: Autodesk, Inc."
 90
     1024
 91
        0
280
     0
281
     0
  0
CLASS
  1
ACMWELDSTANDARDGB
  2
AcmWeldingStdGB
  3
"Amdt_StdImp|Product Description: AutoCAD Mechanical|Company: Autodesk, Inc."
 90
     1024
 91
        0
280
     0
281
     0
  0
CLASS
  1
ACMIDSTANDARDGB
  2
AcmIdStdGB
  3
"Amdt_StdImp|Product Description: AutoCAD Mechanical|Company: Autodesk, Inc."
 90
     1024
 91
        0
280
     0
281
     0
  0
CLASS
  1
ACMDATUMSTANDARDGB
  2
AcmDatumStdGB
  3
"Amdt_StdImp|Product Description: AutoCAD Mechanical|Company: Autodesk, Inc."
 90
     1024
 91
        0
280
     0
281
     0
  0
CLASS
  1
ACMBOMSTANDARDGB
  2
AcmBOMStdGB
  3
"Amdt_StdImp|Product Description: AutoCAD Mechanical|Company: Autodesk, Inc."
 90
     1024
 91
        0
280
     0
281
     0
  0
CLASS
  1
ACMDETAILSTANDARDGB
  2
AmdtDetailSymStdGB
  3
"Amdt_StdImp|Product Description: AutoCAD Mechanical|Company: Autodesk, Inc."
 90
     1024
 91
        0
280
     0
281
     0
  0
CLASS
  1
ACMSECTIONSTANDARDGB
  2
AmdtSectionSymStdGB
  3
"Amdt_StdImp|Product Description: AutoCAD Mechanical|Company: Autodesk, Inc."
 90
     1024
 91
        0
280
     0
281
     0
  0
CLASS
  1
ACMCENTERLINESTANDARDGB
  2
AmdtCenterLineStdGB
  3
"Amdt_StdImp|Product Description: AutoCAD Mechanical|Company: Autodesk, Inc."
 90
     1024
 91
        0
280
     0
281
     0
  0
CLASS
  1
ACMNOTESTANDARDGB
  2
AmdtNoteStdGB
  3
"Amdt_StdImp|Product Description: AutoCAD Mechanical|Company: Autodesk, Inc."
 90
     1024
 91
        0
280
     0
281
     0
  0
CLASS
  1
ACAMGHOLECHARTSTDGB
  2
AcAmgHoleChartStdGB
  3
AmgDim|Product Description: AutoCAD Mechanical|Company: Autodesk, Inc.
 90
     1024
 91
        0
280
     0
281
     0
  0
CLASS
  1
TABLESTYLE
  2
AcDbTableStyle
  3
ObjectDBX Classes
 90
     4095
 91
        1
280
     0
281
     0
  0
CLASS
  1
AM_DRAWING_MGR
  2
AcDmDwgMgr
  3
AcMechDwgViewMgmt
 90
     1024
 91
        0
280
     0
281
     0
  0
CLASS
  1
AM_DWG_DOCUMENT
  2
AcDmDwgDocument
  3
AcMechDwgViewMgmt
 90
     1024
 91
        0
280
     0
281
     0
  0
CLASS
  1
AM_DWG_SHEET
  2
AcDmSheet
  3
AcMechDwgViewMgmt
 90
     1024
 91
        0
280
     0
281
     0
  0
CLASS
  1
AM_VIEWDIMPARMAP
  2
AcDmViewDimParMap
  3
AcMechDwgViewMgmt
 90
     1024
 91
        0
280
     0
281
     0
  0
CLASS
  1
AM_DWGMGR_NAME
  2
AcDmDwgMgrName
  3
AcMechDwgViewMgmt
 90
     1024
 91
        0
280
     0
281
     0
  0
CLASS
  1
AMDTMENUSTATEMGR
  2
AmdtMenuStateMgr
  3
McadcomServices
 90
     1024
 91
        0
280
     0
281
     0
  0
CLASS
  1
AMDTMCOMMENUSTATE
  2
AmdtMcomMenuState
  3
McadcomServices
 90
     1024
 91
        0
280
     0
281
     0
  0
CLASS
  1
MAPIAMMOUDLE
  2
MApiAmModule
  3
MApiAmServices
 90
     1024
 91
        0
280
     0
281
     0
  0
CLASS
  1
AMDTADMENUSTATE
  2
AmdtAdMenuState
  3
DesignerServices
 90
     1024
 91
        0
280
     0
281
     0
  0
CLASS
  1
ADAPPL
  2
AcAdAppl
  3
DesignerServices
 90
     1024
 91
        0
280
     0
281
     0
  0
CLASS
  1
DEPMGR
  2
AcAdDepMgr
  3
DesignerServices
 90
     1024
 91
        0
280
     0
281
     0
  0
CLASS
  1
PARAMMGR
  2
AcAdParamMgr
  3
DesignerServices
 90
     1024
 91
        0
280
     0
281
     0
  0
CLASS
  1
PARAMSCOPE
  2
AcAdParamScope
  3
DesignerServices
 90
     1024
 91
        0
280
     0
281
     0
  0
CLASS
  1
NAMEDAPPL
  2
AcAdNamedAppl
  3
DesignerServices
 90
     1024
 91
        0
280
     0
281
     0
  0
CLASS
  1
AMDTDMMENUSTATE
  2
AmdtDmMenuState
  3
AcMechDwgViewMgmt
 90
     1024
 91
        0
280
     0
281
     0
  0
CLASS
  1
AMDTAMMENUSTATE
  2
AmdtAmMenuState
  3
DesignerAssemblies
 90
     1024
 91
        0
280
     0
281
     0
  0
CLASS
  1
ACAMPROJECT
  2
AcAmProject
  3
DesignerAssemblies
 90
     1024
 91
        0
280
     0
281
     0
  0
CLASS
  1
ACAMGRCOMPDEF
  2
AcAmGrCompDef
  3
DesignerAssemblies
 90
     1024
 91
        0
280
     0
281
     0
  0
CLASS
  1
ACCMCONTEXT
  2
AcCmContext
  3
DesignerAssemblies
 90
     1024
 91
        0
280
     0
281
     0
  0
CLASS
  1
ACAMCOMPDEF
  2
AcAmCompDef
  3
DesignerAssemblies
 90
     1024
 91
        0
280
     0
281
     0
  0
CLASS
  1
ACAMCOMPDEFMGR
  2
AcAmCompDefMgr
  3
DesignerAssemblies
 90
     1024
 91
        0
280
     0
281
     0
  0
CLASS
  1
AMCONTEXTMGR
  2
AcAmContextMgr
  3
DesignerAssemblies
 90
     1024
 91
        0
280
     0
281
     0
  0
CLASS
  1
ACAMCONTEXTMODELER
  2
AcAmContextModeler
  3
DesignerAssemblies
 90
     1024
 91
        0
280
     0
281
     0
  0
CLASS
  1
CATALOGSTATE
  2
AcAmCatalogState
  3
DesignerAssemblies
 90
     1024
 91
        0
280
     0
281
     0
  0
CLASS
  1
ACAMGRCOMPDEFSET
  2
AcAmGrCompDefSet
  3
DesignerAssemblies
 90
     1024
 91
        0
280
     0
281
     0
  0
CLASS
  1
AMDTBROWSERDBTAB
  2
AmdtBrowserDbTab
  3
McadcomServices
 90
     1024
 91
        0
280
     0
281
     0
  0
CLASS
  1
CBROWSERAPPOBJECT
  2
CBrowserAppObject
  3
McadcomServices
 90
     1024
 91
        0
280
     0
281
     0
  0
CLASS
  1
DM_PLACEHOLDER
  2
AcDmSelsetPlaceholder
  3
AcMechDwgViewMgmt
 90
     1024
 91
        0
280
     0
281
     0
  0
CLASS
  1
MATERIAL
  2
AcDbMaterial
  3
ObjectDBX Classes
 90
     1153
 91
        3
280
     0
281
     0
  0
CLASS
  1
VISUALSTYLE
  2
AcDbVisualStyle
  3
ObjectDBX Classes
 90
     4095
 91
       26
280
     0
281
     0
  0
CLASS
  1
ACRFATTGENMGR
  2
AcRfAttGeneralMgr
  3
AcAttribServices
 90
     1024
 91
        0
280
     0
281
     0
  0
CLASS
  1
ACRFOBJATTMGR
  2
AcRfObjAttGroupMgr
  3
AcAttribServices
 90
     1024
 91
        0
280
     0
281
     0
  0
CLASS
  1
ACRFMCADAPIATTHOLDER
  2
AcRfMCADAPIAttHolder
  3
AcAttribServices
 90
     1024
 91
        0
280
     0
281
     0
  0
CLASS
  1
AMDTSYSATTR
  2
AmdtSystemAttribute
  3
AcAttribServices
 90
     1024
 91
        0
280
     0
281
     0
  0
CLASS
  1
ACMTAPERSTANDARDJIS
  2
AcmTaperStdJIS
  3
"Amdt_StdImp|Product Description: AutoCAD Mechanical|Company: Autodesk, Inc."
 90
     1024
 91
        0
280
     0
281
     0
  0
CLASS
  1
CAMSSTRUCTBTNSTATE
  2
StructBtnState
  3
DesignerAssemblies
 90
     1024
 91
        0
280
     0
281
     0
  0
CLASS
  1
SCALE
  2
AcDbScale
  3
ObjectDBX Classes
 90
     1153
 91
       33
280
     0
281
     0
  0
CLASS
  1
MLEADERSTYLE
  2
AcDbMLeaderStyle
  3
ACDB_MLEADERSTYLE_CLASS
 90
     4095
 91
        2
280
     0
281
     0
  0
CLASS
  1
ACMANOOTATIONVIEWSTANDARDJIS
  2
AmdtAnViewStdJIS
  3
"Amdt_StdImp|Product Description: AutoCAD Mechanical|Company: Autodesk, Inc."
 90
     1024
 91
        0
280
     0
281
     0
  0
CLASS
  1
CELLSTYLEMAP
  2
AcDbCellStyleMap
  3
ObjectDBX Classes
 90
     1152
 91
        2
280
     0
281
     0
  0
CLASS
  1
AMDTEDGESTANDARDJIS
  2
AmdtEdgeStdJIS
  3
"Amdt_StdImp|Product Description: AutoCAD Mechanical|Company: Autodesk, Inc."
 90
     1024
 91
        0
280
     0
281
     0
  0
CLASS
  1
EXACXREFPANELOBJECT
  2
ExAcXREFPanelObject
  3
EXAC_ESW
 90
     1025
 91
        0
280
     0
281
     0
  0
CLASS
  1
NPOCOLLECTION
  2
AcDbImpNonPersistentObjectsCollection
  3
ObjectDBX Classes
 90
     1153
 91
        0
280
     0
281
     0
  0
CLASS
  1
MULTILEADER
  2
AcDbMLeader
  3
ACDB_MLEADER_CLASS
 90
     1025
 91
        0
280
     0
281
     1
  0
CLASS
  1
SORTENTSTABLE
  2
AcDbSortentsTable
  3
ObjectDBX Classes
 90
        0
 91
        2
280
     0
281
     0
  0
CLASS
  1
ACMSTANDARDANSI
  2
AcmStandardANSI
  3
"Amdt_StdImp|Product Description: AutoCAD Mechanical|Company: Autodesk, Inc."
 90
     1024
 91
        0
280
     0
281
     0
  0
CLASS
  1
ACMSURFSTANDARDANSI
  2
AcmSurfTextStdANSI
  3
"Amdt_StdImp|Product Description: AutoCAD Mechanical|Company: Autodesk, Inc."
 90
     1024
 91
        0
280
     0
281
     0
  0
CLASS
  1
ACMFCFSTANDARDANSI
  2
AcmFCFStdANSI
  3
"Amdt_StdImp|Product Description: AutoCAD Mechanical|Company: Autodesk, Inc."
 90
     1024
 91
        0
280
     0
281
     0
  0
CLASS
  1
ACMWELDSTANDARDANSI
  2
AcmWeldingStdANSI
  3
"Amdt_StdImp|Product Description: AutoCAD Mechanical|Company: Autodesk, Inc."
 90
     1024
 91
        0
280
     0
281
     0
  0
CLASS
  1
ACMIDSTANDARDANSI
  2
AcmIdStdANSI
  3
"Amdt_StdImp|Product Description: AutoCAD Mechanical|Company: Autodesk, Inc."
 90
     1024
 91
        0
280
     0
281
     0
  0
CLASS
  1
ACMDATUMSTANDARDANSI
  2
AcmDatumStdANSI
  3
"Amdt_StdImp|Product Description: AutoCAD Mechanical|Company: Autodesk, Inc."
 90
     1024
 91
        0
280
     0
281
     0
  0
CLASS
  1
ACMBOMSTANDARDANSI
  2
AcmBOMStdANSI
  3
"Amdt_StdImp|Product Description: AutoCAD Mechanical|Company: Autodesk, Inc."
 90
     1024
 91
        0
280
     0
281
     0
  0
CLASS
  1
ACMDETAILSTANDARDANSI
  2
AmdtDetailSymStdANSI
  3
"Amdt_StdImp|Product Description: AutoCAD Mechanical|Company: Autodesk, Inc."
 90
     1024
 91
        0
280
     0
281
     0
  0
CLASS
  1
ACMSECTIONSTANDARDANSI
  2
AmdtSectionSymStdANSI
  3
"Amdt_StdImp|Product Description: AutoCAD Mechanical|Company: Autodesk, Inc."
 90
     1024
 91
        0
280
     0
281
     0
  0
CLASS
  1
ACMCENTERLINESTANDARDANSI
  2
AmdtCenterLineStdANSI
  3
"Amdt_StdImp|Product Description: AutoCAD Mechanical|Company: Autodesk, Inc."
 90
     1024
 91
        0
280
     0
281
     0
  0
CLASS
  1
ACMTHREADLINESTANDARDANSI
  2
AmdtThreadLineStdANSI
  3
"Amdt_StdImp|Product Description: AutoCAD Mechanical|Company: Autodesk, Inc."
 90
     1024
 91
        0
280
     0
281
     0
  0
CLASS
  1
ACMNOTESTANDARDANSI
  2
AmdtNoteStdANSI
  3
"Amdt_StdImp|Product Description: AutoCAD Mechanical|Company: Autodesk, Inc."
 90
     1024
 91
        0
280
     0
281
     0
  0
CLASS
  1
AMDTNOTETEMPLATEDB
  2
AmdtNoteTemplateDB
  3
AcmSymBB|Product Description: AutoCAD Mechanical|Company: Autodesk, Inc.
 90
     1024
 91
        0
280
     0
281
     0
  0
CLASS
  1
ACMTAPERSTANDARDANSI
  2
AcmTaperStdANSI
  3
"Amdt_StdImp|Product Description: AutoCAD Mechanical|Company: Autodesk, Inc."
 90
     1024
 91
        0
280
     0
281
     0
  0
CLASS
  1
ACMANOOTATIONVIEWSTANDARDANSI
  2
AmdtAnViewStdANSI
  3
"Amdt_StdImp|Product Description: AutoCAD Mechanical|Company: Autodesk, Inc."
 90
     1024
 91
        0
280
     0
281
     0
  0
CLASS
  1
ACAMGHOLECHARTSTDANSI
  2
AcAmgHoleChartStdANSI
  3
AmgDim|Product Description: AutoCAD Mechanical|Company: Autodesk, Inc.
 90
     1024
 91
        0
280
     0
281
     0
  0
CLASS
  1
DIMASSOC
  2
AcDbDimAssoc
  3
"AcDbDimAssoc|Product Desc:     AcDim ARX App For Dimension|Company:          Autodesk, Inc.|WEB Address:      www.autodesk.com"
 90
        0
 91
        0
280
     0
281
     0
  0
CLASS
  1
AMDTEDGESTANDARDISO13715
  2
AmdtEdgeStdISO13715
  3
"Amdt_StdImp|Product Description: AutoCAD Mechanical|Company: Autodesk, Inc."
 90
     1024
 91
        0
280
     0
281
     0
  0
CLASS
  1
ACMSURFSTANDARDISO2002
  2
AcmSurfTextStdISO2002
  3
"Amdt_StdImp|Product Description: AutoCAD Mechanical|Company: Autodesk, Inc."
 90
     1024
 91
        0
280
     0
281
     0
  0
CLASS
  1
ACMSECTIONSTANDARDISO2001
  2
AmdtSectionSymStdISO2001
  3
"Amdt_StdImp|Product Description: AutoCAD Mechanical|Company: Autodesk, Inc."
 90
     1024
 91
        0
280
     0
281
     0
  0
CLASS
  1
ACMTHREADLINESTANDARDISO
  2
AmdtThreadLineStdISO
  3
"Amdt_StdImp|Product Description: AutoCAD Mechanical|Company: Autodesk, Inc."
 90
     1024
 91
        0
280
     0
281
     0
  0
CLASS
  1
ACMTAPERSTANDARDISO
  2
AcmTaperStdISO
  3
"Amdt_StdImp|Product Description: AutoCAD Mechanical|Company: Autodesk, Inc."
 90
     1024
 91
        0
280
     0
281
     0
  0
CLASS
  1
ACMANOOTATIONVIEWSTANDARDISO
  2
AmdtAnViewStdISO
  3
"Amdt_StdImp|Product Description: AutoCAD Mechanical|Company: Autodesk, Inc."
 90
     1024
 91
        0
280
     0
281
     0
  0
CLASS
  1
ACAD_PROXY_OBJECT_WRAPPER
  2
AcDbProxyObjectWrapper
  3
ObjectDBX Classes
 90
        0
 91
        0
280
     0
281
     0
  0
CLASS
  1
LONG_TRANSACTION
  2
AcDbLongTransaction
  3
ObjectDBX Classes
 90
        0
 91
        0
280
     0
281
     0
  0
CLASS
  1
LWPOLYLINE
  2
AcDbPolyline
  3
ObjectDBX Classes
 90
        0
 91
        0
280
     0
281
     1
  0
CLASS
  1
HATCH
  2
AcDbHatch
  3
ObjectDBX Classes
 90
        0
 91
        0
280
     0
281
     1
  0
CLASS
  1
XRECORD
  2
AcDbXrecord
  3
ObjectDBX Classes
 90
        0
 91
      111
280
     0
281
     0
  0
ENDSEC
  0
SECTION
  2
TABLES
  0
TABLE
  2
VPORT
  5
8
102
{ACAD_XDICTIONARY
360
5312
102
}
330
0
100
AcDbSymbolTable
 70
     1
  0
VPORT
  5
5896
330
8
100
AcDbSymbolTableRecord
100
AcDbViewportTableRecord
  2
*Active
 70
     0
 10
0.0
 20
0.0
 11
1.0
 21
1.0
 12
1410.386182054986
 22
435.91001580445
 13
0.0
 23
0.0
 14
2.5
 24
2.5
 15
10.0
 25
10.0
 16
0.0
 26
0.0
 36
1.0
 17
0.0
 27
0.0
 37
0.0
 40
1953.586741511796
 41
2.255139056831922
 42
50.0
 43
0.0
 44
0.0
 50
0.0
 51
0.0
 71
     0
 72
   100
 73
     1
 74
     3
 75
     0
 76
     0
 77
     0
 78
     0
281
     0
 65
     1
110
0.0
120
0.0
130
0.0
111
1.0
121
0.0
131
0.0
112
0.0
122
1.0
132
0.0
 79
     0
146
0.0
  0
ENDTAB
  0
TABLE
  2
LTYPE
  5
5
330
0
100
AcDbSymbolTable
 70
     2
  0
LTYPE
  5
14
330
5
100
AcDbSymbolTableRecord
100
AcDbLinetypeTableRecord
  2
ByBlock
 70
     0
  3

 72
    65
 73
     0
 40
0.0
  0
LTYPE
  5
15
330
5
100
AcDbSymbolTableRecord
100
AcDbLinetypeTableRecord
  2
ByLayer
 70
     0
  3

 72
    65
 73
     0
 40
0.0
  0
LTYPE
  5
16
330
5
100
AcDbSymbolTableRecord
100
AcDbLinetypeTableRecord
  2
Continuous
 70
     0
  3
Solid line
 72
    65
 73
     0
 40
0.0
  0
LTYPE
  5
65
330
5
100
AcDbSymbolTableRecord
100
AcDbLinetypeTableRecord
  2
CENTER
 70
     0
  3
__ . __
 72
    65
 73
     4
 40
7.0
 49
4.0
 74
     0
 49
-1.0
 74
     0
 49
1.0
 74
     0
 49
-1.0
 74
     0
  0
ENDTAB
  0
TABLE
  2
LAYER
  5
2
102
{ACAD_XDICTIONARY
360
D1
102
}
330
0
100
AcDbSymbolTable
 70
     2
  0
LAYER
  5
10
102
{ACAD_XDICTIONARY
360
789
102
}
330
2
100
AcDbSymbolTableRecord
100
AcDbLayerTableRecord
  2
0
 70
     0
 62
     7
  6
Continuous
370
    -3
390
F
  0
LAYER
  5
5A10
330
2
100
AcDbSymbolTableRecord
100
AcDbLayerTableRecord
  2
Defpoints
 70
     0
 62
     7
  6
Continuous
290
     0
370
    -3
390
F
  0
ENDTAB
  0
TABLE
  2
STYLE
  5
3
330
0
100
AcDbSymbolTable
 70
     2
  0
STYLE
  5
11
330
3
100
AcDbSymbolTableRecord
100
AcDbTextStyleTableRecord
  2
STANDARD
 70
     0
 40
0.0
 41
0.7
 50
0.0
 71
     0
 42
73.98571745357912
  3
romans.shx
  4
bigfont.shx
  0
STYLE
  5
146
330
3
100
AcDbSymbolTableRecord
100
AcDbTextStyleTableRecord
  2
TSKDIM
 70
     0
 40
0.0
 41
0.75
 50
0.0
 71
     0
 42
4.0
  3
romans.shx
  4
EXTFONT.SHX
  0
ENDTAB
  0
TABLE
  2
VIEW
  5
6
330
0
100
AcDbSymbolTable
 70
     0
  0
ENDTAB
  0
TABLE
  2
UCS
  5
7
330
0
100
AcDbSymbolTable
 70
     0
  0
ENDTAB
  0
TABLE
  2
APPID
  5
9
330
0
100
AcDbSymbolTable
 70
    43
  0
APPID
  5
12
330
9
100
AcDbSymbolTableRecord
100
AcDbRegAppTableRecord
  2
ACAD
 70
     0
  0
APPID
  5
30
330
9
100
AcDbSymbolTableRecord
100
AcDbRegAppTableRecord
  2
MCAD_NO_VIS
 70
     0
  0
APPID
  5
31
330
9
100
AcDbSymbolTableRecord
100
AcDbRegAppTableRecord
  2
ACAD_TEMP_GRAPHIC
 70
     0
  0
APPID
  5
44
330
9
100
AcDbSymbolTableRecord
100
AcDbRegAppTableRecord
  2
ACATTRIBSERVICES
 70
     0
  0
APPID
  5
11D
330
9
100
AcDbSymbolTableRecord
100
AcDbRegAppTableRecord
  2
AD_DRAW
 70
     0
  0
APPID
  5
11E
330
9
100
AcDbSymbolTableRecord
100
AcDbRegAppTableRecord
  2
DESIGNERASSEMBLIES
 70
     0
  0
APPID
  5
11F
330
9
100
AcDbSymbolTableRecord
100
AcDbRegAppTableRecord
  2
ASURF_PCURVE_APPNAME
 70
     0
  0
APPID
  5
120
330
9
100
AcDbSymbolTableRecord
100
AcDbRegAppTableRecord
  2
ACADM_DIM_EDIT
 70
     0
  0
APPID
  5
121
330
9
100
AcDbSymbolTableRecord
100
AcDbRegAppTableRecord
  2
GENIUS_GENDIM_13
 70
     0
  0
APPID
  5
122
330
9
100
AcDbSymbolTableRecord
100
AcDbRegAppTableRecord
  2
GENIUS_GENDTOL_13
 70
     0
  0
APPID
  5
123
330
9
100
AcDbSymbolTableRecord
100
AcDbRegAppTableRecord
  2
GENIUS_GE3DTOL_13
 70
     0
  0
APPID
  5
124
330
9
100
AcDbSymbolTableRecord
100
AcDbRegAppTableRecord
  2
AMG_3D2D_5.0
 70
     0
  0
APPID
  5
125
330
9
100
AcDbSymbolTableRecord
100
AcDbRegAppTableRecord
  2
AMDT_DM_ADJ
 70
     0
  0
APPID
  5
126
330
9
100
AcDbSymbolTableRecord
100
AcDbRegAppTableRecord
  2
CK_MATE-SERIES
 70
     0
  0
APPID
  5
127
330
9
100
AcDbSymbolTableRecord
100
AcDbRegAppTableRecord
  2
GEVID1042077799
 70
     0
  0
APPID
  5
128
330
9
100
AcDbSymbolTableRecord
100
AcDbRegAppTableRecord
  2
GEVMK
 70
     0
  0
APPID
  5
129
330
9
100
AcDbSymbolTableRecord
100
AcDbRegAppTableRecord
  2
GEVDC
 70
     0
  0
APPID
  5
12A
330
9
100
AcDbSymbolTableRecord
100
AcDbRegAppTableRecord
  2
GENIUS_GENBH_13
 70
     0
  0
APPID
  5
12B
330
9
100
AcDbSymbolTableRecord
100
AcDbRegAppTableRecord
  2
GENIUS_GENOLIS_13
 70
     0
  0
APPID
  5
12C
330
9
100
AcDbSymbolTableRecord
100
AcDbRegAppTableRecord
  2
GENIUS_GENOENT_13
 70
     0
  0
APPID
  5
12D
330
9
100
AcDbSymbolTableRecord
100
AcDbRegAppTableRecord
  2
GENIUS_GENODEF_13
 70
     0
  0
APPID
  5
12E
330
9
100
AcDbSymbolTableRecord
100
AcDbRegAppTableRecord
  2
GENIUS_GENOBJ-NBEHI-BHF_13
 70
     0
  0
APPID
  5
12F
330
9
100
AcDbSymbolTableRecord
100
AcDbRegAppTableRecord
  2
GENIUS_GENOREF_13
 70
     0
  0
APPID
  5
130
330
9
100
AcDbSymbolTableRecord
100
AcDbRegAppTableRecord
  2
GENIUS_GENOBJ-NBEHI-BHB_13
 70
     0
  0
APPID
  5
131
330
9
100
AcDbSymbolTableRecord
100
AcDbRegAppTableRecord
  2
GEVID1042183772
 70
     0
  0
APPID
  5
132
330
9
100
AcDbSymbolTableRecord
100
AcDbRegAppTableRecord
  2
GEVID1042183773
 70
     0
  0
APPID
  5
133
330
9
100
AcDbSymbolTableRecord
100
AcDbRegAppTableRecord
  2
GEVID1042183774
 70
     0
  0
APPID
  5
2E8
330
9
100
AcDbSymbolTableRecord
100
AcDbRegAppTableRecord
  2
DCO15
 70
     0
  0
APPID
  5
570
330
9
100
AcDbSymbolTableRecord
100
AcDbRegAppTableRecord
  2
ACAD_DSTYLE_DIMARC_LENGTH_SYMBOL
 70
     0
  0
APPID
  5
571
330
9
100
AcDbSymbolTableRecord
100
AcDbRegAppTableRecord
  2
ACAD_DSTYLE_DIMJOGGED_JOGANGLE_SYMBOL
 70
     0
  0
APPID
  5
607
330
9
100
AcDbSymbolTableRecord
100
AcDbRegAppTableRecord
  2
ACAD_MLEADERVER
 70
     0
  0
APPID
  5
6ED
330
9
100
AcDbSymbolTableRecord
100
AcDbRegAppTableRecord
  2
ACAD_DSTYLE_DIMJAG
 70
     0
  0
APPID
  5
6EE
330
9
100
AcDbSymbolTableRecord
100
AcDbRegAppTableRecord
  2
ACAD_DSTYLE_DIMTALN
 70
     0
  0
APPID
  5
6EF
330
9
100
AcDbSymbolTableRecord
100
AcDbRegAppTableRecord
  2
ACAD_PSEXT
 70
     0
  0
APPID
  5
70D
330
9
100
AcDbSymbolTableRecord
100
AcDbRegAppTableRecord
  2
ACAD_EXEMPT_FROM_CAD_STANDARDS
 70
     0
  0
APPID
  5
B46
330
9
100
AcDbSymbolTableRecord
100
AcDbRegAppTableRecord
  2
AcAecLayerStandard
 70
     0
  0
APPID
  5
B9A
330
9
100
AcDbSymbolTableRecord
100
AcDbRegAppTableRecord
  2
ACAD_DSTYLE_DIMINSPECT
 70
     0
  0
APPID
  5
D83
330
9
100
AcDbSymbolTableRecord
100
AcDbRegAppTableRecord
  2
GENIUS_GENOBJ-N-FIL_13
 70
     0
  0
APPID
  5
2531
330
9
100
AcDbSymbolTableRecord
100
AcDbRegAppTableRecord
  2
ACAD_DSTYLE_DIMRADIAL_EXTENSION
 70
     0
  0
APPID
  5
36C9
330
9
100
AcDbSymbolTableRecord
100
AcDbRegAppTableRecord
  2
ACAD_DSTYLE_DIMANGULAR_EXTENSION
 70
     0
  0
APPID
  5
5321
330
9
100
AcDbSymbolTableRecord
100
AcDbRegAppTableRecord
  2
ACAD_DSTYLE_DIM_LINETYPE
 70
     0
  0
APPID
  5
5322
330
9
100
AcDbSymbolTableRecord
100
AcDbRegAppTableRecord
  2
ACAD_DSTYLE_DIM_EXT1_LINETYPE
 70
     0
  0
APPID
  5
5323
330
9
100
AcDbSymbolTableRecord
100
AcDbRegAppTableRecord
  2
ACAD_DSTYLE_DIM_EXT2_LINETYPE
 70
     0
  0
ENDTAB
  0
TABLE
  2
DIMSTYLE
  5
A
330
0
100
AcDbSymbolTable
 70
     1
100
AcDbDimStyleTable
 71
     1
340
111
  0
DIMSTYLE
105
111
330
A
100
AcDbSymbolTableRecord
100
AcDbDimStyleTableRecord
  2
TSK
 70
     0
  4
"
 41
3.0
 42
1.0
 43
10.0
 44
1.0
 47
0.1
 48
0.1
 73
     0
 74
     0
 77
     3
 78
     8
 79
     2
140
3.0
141
0.0
143
0.0393701
146
0.71
147
1.5
172
     1
176
   256
177
   256
178
     2
271
     2
272
     2
284
     8
340
146
341
159
342
159
371
     9
372
     9
1001
ACAD_DSTYLE_DIMJOGGED_JOGANGLE_SYMBOL
1070
   384
1040
0.7853981633974483
1001
ACAD_DSTYLE_DIMJAG
1070
   388
1040
1.5
1001
ACAD_DSTYLE_DIMTALN
1070
   392
1070
     0
1001
ACAD_DSTYLE_DIMARC_LENGTH_SYMBOL
1070
   379
1070
     1
  0
ENDTAB
  0
TABLE
  2
BLOCK_RECORD
  5
1
330
0
100
AcDbSymbolTable
 70
     4
  0
BLOCK_RECORD
  5
1F
102
{ACAD_XDICTIONARY
360
82
102
}
330
1
100
AcDbSymbolTableRecord
100
AcDbBlockTableRecord
  2
*Model_Space
340
22
  0
BLOCK_RECORD
  5
1B
102
{ACAD_XDICTIONARY
360
5898
102
}
330
1
100
AcDbSymbolTableRecord
100
AcDbBlockTableRecord
  2
*Paper_Space
340
1E
  0
BLOCK_RECORD
  5
23
102
{ACAD_XDICTIONARY
360
589A
102
}
330
1
100
AcDbSymbolTableRecord
100
AcDbBlockTableRecord
  2
*Paper_Space0
340
26
  0
BLOCK_RECORD
  5
159
330
1
100
AcDbSymbolTableRecord
100
AcDbBlockTableRecord
  2
_Open
340
0
102
{BLKREFS
331
5A21
331
5A22
102
}
  0
BLOCK_RECORD
  5
58F9
102
{ACAD_XDICTIONARY
360
5A0A
102
}
330
1
100
AcDbSymbolTableRecord
100
AcDbBlockTableRecord
  2
HE125A-65A-15
340
0
1001
ACAD
1000
DesignCenter Data
1002
{
1070
     1
1070
     4
1002
}
  0
ENDTAB
  0
ENDSEC
  0
SECTION
  2
BLOCKS
  0
BLOCK
  5
20
330
1F
100
AcDbEntity
  8
0
100
AcDbBlockBegin
  2
*Model_Space
 70
     0
 10
0.0
 20
0.0
 30
0.0
  3
*Model_Space
  1

  0
ENDBLK
  5
21
330
1F
100
AcDbEntity
  8
0
100
AcDbBlockEnd
  0
BLOCK
  5
1C
330
1B
100
AcDbEntity
 67
     1
  8
0
100
AcDbBlockBegin
  2
*Paper_Space
 70
     0
 10
0.0
 20
0.0
 30
0.0
  3
*Paper_Space
  1

  0
ENDBLK
  5
1D
330
1B
100
AcDbEntity
 67
     1
  8
0
100
AcDbBlockEnd
  0
BLOCK
  5
24
330
23
100
AcDbEntity
 67
     1
  8
0
100
AcDbBlockBegin
  2
*Paper_Space0
 70
     0
 10
0.0
 20
0.0
 30
0.0
  3
*Paper_Space0
  1

  0
ENDBLK
  5
25
330
23
100
AcDbEntity
 67
     1
  8
0
100
AcDbBlockEnd
  0
BLOCK
  5
15D
330
159
100
AcDbEntity
  8
0
100
AcDbBlockBegin
  2
_Open
 70
     0
 10
0.0
 20
0.0
 30
0.0
  3
_Open
  1

  0
LINE
  5
15A
330
159
100
AcDbEntity
  8
0
  6
ByBlock
 62
     0
370
    -2
100
AcDbLine
 10
-1.0
 20
0.1666666666666666
 30
0.0
 11
0.0
 21
0.0
 31
0.0
  0
LINE
  5
15B
330
159
100
AcDbEntity
  8
0
  6
ByBlock
 62
     0
370
    -2
100
AcDbLine
 10
-1.0
 20
-0.1666666666666666
 30
0.0
 11
0.0
 21
0.0
 31
0.0
  0
LINE
  5
15C
330
159
100
AcDbEntity
  8
0
  6
ByBlock
 62
     0
370
    -2
100
AcDbLine
 10
0.0
 20
0.0
 30
0.0
 11
-1.0
 21
0.0
 31
0.0
  0
ENDBLK
  5
15E
330
159
100
AcDbEntity
  8
0
100
AcDbBlockEnd
  0
BLOCK
  5
5A0C
330
58F9
100
AcDbEntity
  8
0
100
AcDbBlockBegin
  2
HE125A-65A-15
 70
     0
 10
0.0
 20
0.0
 30
0.0
  3
HE125A-65A-15
  1

  0
ARC
  5
58FA
330
58F9
100
AcDbEntity
  8
0
100
AcDbCircle
 10
334.9569668688491
 20
-69.70000000004984
 30
0.0
 40
5.0
100
AcDbArc
 50
0.0
 51
90.0
  0
ARC
  5
58FB
330
58F9
100
AcDbEntity
  8
0
100
AcDbCircle
 10
383.4569668688491
 20
-70.40000000004965
 30
0.0
 40
0.5
100
AcDbArc
 50
90.0
 51
180.0
  0
ARC
  5
58FC
330
58F9
100
AcDbEntity
  8
0
100
AcDbCircle
 10
334.9569668688491
 20
69.69999999995071
 30
0.0
 40
5.0
100
AcDbArc
 50
270.0
 51
0.0
  0
LINE
  5
58FD
330
58F9
100
AcDbEntity
  8
0
  6
CENTER
100
AcDbLine
 10
-22.86725758376997
 20
70.37818220586178
 30
0.0
 11
-29.66563146001863
 21
91.30142556435748
 31
0.0
  0
LINE
  5
58FE
330
58F9
100
AcDbEntity
  8
0
  6
CENTER
100
AcDbLine
 10
22.86725758372995
 20
70.3781822058545
 30
0.0
 11
29.66563145997861
 21
91.30142556434748
 31
0.0
  0
LINE
  5
58FF
330
58F9
100
AcDbEntity
  8
0
100
AcDbLine
 10
-59.86725758379908
 20
-43.49610866963575
 30
0.0
 11
-77.66563146005137
 21
-56.42738422006914
 31
0.0
  0
LINE
  5
5900
330
58F9
100
AcDbEntity
  8
0
  6
CENTER
100
AcDbLine
 10
59.8672575837154
 20
-43.49610866965849
 30
0.0
 11
77.66563145996406
 21
-56.42738422009461
 31
0.0
  0
LINE
  5
5901
330
58F9
100
AcDbEntity
  8
0
  6
CENTER
100
AcDbLine
 10
59.86725758372995
 20
43.49610866964394
 30
0.0
 11
77.66563145997861
 21
56.42738422007642
 31
0.0
  0
LINE
  5
5902
330
58F9
100
AcDbEntity
  8
0
  6
CENTER
100
AcDbLine
 10
-59.86725758378452
 20
43.49610866966577
 30
0.0
 11
-77.66563146003318
 21
56.42738422010189
 31
0.0
  0
LINE
  5
5903
330
58F9
100
AcDbEntity
  8
0
  6
CENTER
100
AcDbLine
 10
-22.86725758379544
 20
-70.37818220584722
 30
0.0
 11
-29.6656314600441
 21
-91.30142556433929
 31
0.0
  0
LINE
  5
5904
330
58F9
100
AcDbEntity
  8
0
  6
CENTER
100
AcDbLine
 10
22.86725758370449
 20
-70.3781822058545
 30
0.0
 11
29.66563145995315
 21
-91.30142556434838
 31
0.0
  0
LINE
  5
5905
330
58F9
100
AcDbEntity
  8
0
100
AcDbLine
 10
1332.686119514372
 20
-80.00000000006094
 30
0.0
 11
1397.227814223304
 21
-80.00000000004092
 31
0.0
  0
LINE
  5
5906
330
58F9
100
AcDbEntity
  8
0
100
AcDbLine
 10
1344.706966868838
 20
-80.00000000005821
 30
0.0
 11
1344.706966868834
 21
79.99999999993633
 31
0.0
  0
LINE
  5
5907
330
58F9
100
AcDbEntity
  8
0
100
AcDbLine
 10
1340.206966868838
 20
-80.00000000005911
 30
0.0
 11
1340.206966868838
 21
79.99999999993725
 31
0.0
  0
LINE
  5
5908
330
58F9
100
AcDbEntity
  8
0
100
AcDbLine
 10
1349.206966868838
 20
-80.00000000005547
 30
0.0
 11
1349.206966868834
 21
79.99999999993452
 31
0.0
  0
LINE
  5
5909
330
58F9
100
AcDbEntity
  8
0
100
AcDbLine
 10
1335.706966868838
 20
-80.00000000006002
 30
0.0
 11
1335.706966868838
 21
79.99999999993907
 31
0.0
  0
LINE
  5
590A
330
58F9
100
AcDbEntity
  8
0
100
AcDbLine
 10
1358.206966868838
 20
-80.00000000005366
 30
0.0
 11
1358.206966868838
 21
79.9999999999327
 31
0.0
  0
LINE
  5
590B
330
58F9
100
AcDbEntity
  8
0
100
AcDbLine
 10
1353.706966868834
 20
-80.00000000005456
 30
0.0
 11
1353.706966868838
 21
79.9999999999336
 31
0.0
  0
LINE
  5
590C
330
58F9
100
AcDbEntity
  8
0
100
AcDbLine
 10
1328.956966868838
 20
-73.54091814882031
 30
0.0
 11
1328.956966868838
 21
73.54091814869935
 31
0.0
  0
LINE
  5
590D
330
58F9
100
AcDbEntity
  8
0
100
AcDbLine
 10
1385.206966868842
 20
-80.00000000004547
 30
0.0
 11
1385.206966868834
 21
79.9999999999236
 31
0.0
  0
LINE
  5
590E
330
58F9
100
AcDbEntity
  8
0
100
AcDbLine
 10
1389.706966868838
 20
-80.00000000004456
 30
0.0
 11
1389.706966868838
 21
79.99999999992178
 31
0.0
  0
LINE
  5
590F
330
58F9
100
AcDbEntity
  8
0
100
AcDbLine
 10
1367.206966868838
 20
-80.00000000005185
 30
0.0
 11
1367.206966868834
 21
79.99999999992906
 31
0.0
  0
LINE
  5
5910
330
58F9
100
AcDbEntity
  8
0
100
AcDbLine
 10
1362.706966868838
 20
-80.00000000005275
 30
0.0
 11
1362.706966868834
 21
79.99999999993088
 31
0.0
  0
LINE
  5
5911
330
58F9
100
AcDbEntity
  8
0
100
AcDbLine
 10
1371.706966868842
 20
-80.00000000004911
 30
0.0
 11
1371.706966868838
 21
79.99999999992815
 31
0.0
  0
LINE
  5
5912
330
58F9
100
AcDbEntity
  8
0
100
AcDbLine
 10
1376.206966868838
 20
-80.00000000004821
 30
0.0
 11
1376.206966868838
 21
79.99999999992633
 31
0.0
  0
LINE
  5
5913
330
58F9
100
AcDbEntity
  8
0
100
AcDbLine
 10
1380.706966868838
 20
-80.00000000004638
 30
0.0
 11
1380.706966868834
 21
79.99999999992542
 31
0.0
  0
LINE
  5
5914
330
58F9
100
AcDbEntity
  8
0
100
AcDbLine
 10
1394.206966868838
 20
-80.00000000006002
 30
0.0
 11
1394.206966868838
 21
79.99999999993907
 31
0.0
  0
LINE
  5
5915
330
58F9
100
AcDbEntity
  8
0
100
AcDbLine
 10
1332.686119514372
 20
79.99999999993907
 30
0.0
 11
1397.227814223315
 21
79.99999999991996
 31
0.0
  0
LINE
  5
5916
330
58F9
100
AcDbEntity
  8
0
100
AcDbLine
 10
1328.956966868838
 20
73.54091814869935
 30
0.0
 11
1332.686119514372
 21
79.99999999993907
 31
0.0
  0
LINE
  5
5917
330
58F9
100
AcDbEntity
  8
0
100
AcDbLine
 10
1400.956966868834
 20
73.54091814869935
 30
0.0
 11
1397.227814223315
 21
79.99999999991996
 31
0.0
  0
LINE
  5
5918
330
58F9
100
AcDbEntity
  8
0
100
AcDbLine
 10
1400.956966868834
 20
69.89999999993961
 30
0.0
 11
1400.956966868834
 21
73.54091814869935
 31
0.0
  0
LINE
  5
5919
330
58F9
100
AcDbEntity
  8
0
100
AcDbLine
 10
1400.956966868834
 20
69.8499999996211
 30
0.0
 11
1400.956966868834
 21
-73.54091814880939
 31
0.0
  0
ARC
  5
591A
330
58F9
100
AcDbEntity
  8
0
100
AcDbCircle
 10
383.4569668688528
 20
70.39999999995143
 30
0.0
 40
0.5
100
AcDbArc
 50
180.0
 51
270.0
  0
LINE
  5
591B
330
58F9
100
AcDbEntity
  8
0
100
AcDbLine
 10
1328.956966868834
 20
-73.5409181488103
 30
0.0
 11
1332.686119514372
 21
-80.00000000005002
 31
0.0
  0
LINE
  5
591C
330
58F9
100
AcDbEntity
  8
0
100
AcDbLine
 10
1400.956966868834
 20
-73.54091814880939
 30
0.0
 11
1397.227814223304
 21
-80.00000000004092
 31
0.0
  0
LINE
  5
591D
330
58F9
100
AcDbEntity
  8
0
100
AcDbLine
 10
1397.227814223304
 20
-80.00000000004092
 30
0.0
 11
1397.227814223304
 21
79.99999999993542
 31
0.0
  0
LINE
  5
591E
330
58F9
100
AcDbEntity
  8
0
100
AcDbLine
 10
1332.686119514372
 20
79.99999999993907
 30
0.0
 11
1332.686119514375
 21
-80.00000000006094
 31
0.0
  0
LINE
  5
591F
330
58F9
100
AcDbEntity
  8
0
  6
CENTER
100
AcDbLine
 10
319.9569668688491
 20
-0.0000000000500222
 30
0.0
 11
2409.956966868842
 21
-0.0000000000609361
 31
0.0
  0
LINE
  5
5920
330
58F9
100
AcDbEntity
  8
0
100
AcDbLine
 10
339.9569668688528
 20
-97.50000000005094
 30
0.0
 11
339.9569668688128
 21
97.4999999999509
 31
0.0
  0
LINE
  5
5921
330
58F9
100
AcDbEntity
  8
0
100
AcDbLine
 10
331.9569668688491
 20
-64.70000000004984
 30
0.0
 11
331.95696686882
 21
64.69999999994979
 31
0.0
  0
LINE
  5
5922
330
58F9
100
AcDbEntity
  8
0
100
AcDbLine
 10
357.9569668688419
 20
-97.50000000005002
 30
0.0
 11
357.9569668689146
 21
97.4999999999509
 31
0.0
  0
LINE
  5
5923
330
58F9
100
AcDbEntity
  8
0
  6
CENTER
100
AcDbLine
 10
335.9569668688491
 20
-85.00000000004911
 30
0.0
 11
386.9569668688491
 21
-85.00000000004911
 31
0.0
  0
LINE
  5
5924
330
58F9
100
AcDbEntity
  8
0
100
AcDbLine
 10
339.9569668688491
 20
-97.50000000005002
 30
0.0
 11
357.9569668688491
 21
-97.50000000004911
 31
0.0
  0
LINE
  5
5925
330
58F9
100
AcDbEntity
  8
0
100
AcDbLine
 10
357.9569668688491
 20
-75.50000000004911
 30
0.0
 11
360.9569668688491
 21
-75.50000000004911
 31
0.0
  0
LINE
  5
5926
330
58F9
100
AcDbEntity
  8
0
100
AcDbLine
 10
331.9569668688491
 20
-64.70000000004984
 30
0.0
 11
334.9569668688491
 21
-64.70000000004984
 31
0.0
  0
LINE
  5
5927
330
58F9
100
AcDbEntity
  8
0
100
AcDbLine
 10
382.9569668688528
 20
-97.50000000004911
 30
0.0
 11
382.9569668688273
 21
97.4999999999509
 31
0.0
  0
LINE
  5
5928
330
58F9
100
AcDbEntity
  8
0
100
AcDbLine
 10
360.9569668688491
 20
-97.50000000004911
 30
0.0
 11
360.9569668688491
 21
97.4999999999509
 31
0.0
  0
LINE
  5
5929
330
58F9
100
AcDbEntity
  8
0
100
AcDbLine
 10
360.9569668688491
 20
-97.50000000004911
 30
0.0
 11
382.9569668688492
 21
-97.50000000004911
 31
0.0
  0
LINE
  5
592A
330
58F9
100
AcDbEntity
  8
0
  6
CENTER
100
AcDbLine
 10
335.9569668688491
 20
84.99999999995088
 30
0.0
 11
386.9569668688491
 21
84.99999999994997
 31
0.0
  0
LINE
  5
592B
330
58F9
100
AcDbEntity
  8
0
100
AcDbLine
 10
339.9569668688491
 20
97.4999999999509
 30
0.0
 11
357.9569668688491
 21
97.4999999999509
 31
0.0
  0
LINE
  5
592C
330
58F9
100
AcDbEntity
  8
0
100
AcDbLine
 10
331.95696686882
 20
64.69999999994979
 30
0.0
 11
334.9569668688491
 21
64.69999999995071
 31
0.0
  0
LINE
  5
592D
330
58F9
100
AcDbEntity
  8
0
100
AcDbLine
 10
360.9569668688491
 20
97.4999999999509
 30
0.0
 11
382.9569668688492
 21
97.4999999999509
 31
0.0
  0
LINE
  5
592E
330
58F9
100
AcDbEntity
  8
0
100
AcDbLine
 10
1328.956966868853
 20
69.8999999999487
 30
0.0
 11
383.4569668688528
 21
69.89999999995143
 31
0.0
  0
LINE
  5
592F
330
58F9
100
AcDbEntity
  8
0
100
AcDbLine
 10
382.9569668688492
 20
-69.90000000005966
 30
0.0
 11
446.8069668688695
 21
-69.90000000005875
 31
0.0
  0
LINE
  5
5930
330
58F9
100
AcDbEntity
  8
0
100
AcDbLine
 10
523.1069668688469
 20
-69.90000000005875
 30
0.0
 11
1328.956966868853
 21
-69.90000000005057
 31
0.0
  0
LINE
  5
5931
330
58F9
100
AcDbEntity
  8
0
100
AcDbLine
 10
357.9569668688309
 20
75.49999999995361
 30
0.0
 11
360.9569668688491
 21
75.49999999995453
 31
0.0
  0
ARC
  5
5932
330
58F9
100
AcDbEntity
  8
0
100
AcDbCircle
 10
2394.956966868842
 20
69.69999999993888
 30
0.0
 40
5.0
100
AcDbArc
 50
180.0
 51
270.0
  0
ARC
  5
5933
330
58F9
100
AcDbEntity
  8
0
100
AcDbCircle
 10
2346.456966868839
 20
70.3999999999387
 30
0.0
 40
0.5
100
AcDbArc
 50
270.0
 51
0.0
  0
ARC
  5
5934
330
58F9
100
AcDbEntity
  8
0
100
AcDbCircle
 10
2394.956966868842
 20
-69.70000000006166
 30
0.0
 40
5.0
100
AcDbArc
 50
90.0
 51
180.0
  0
ARC
  5
5935
330
58F9
100
AcDbEntity
  8
0
100
AcDbCircle
 10
2346.456966868835
 20
-70.40000000006239
 30
0.0
 40
0.5
100
AcDbArc
 50
0.0
 51
90.0
  0
LINE
  5
5936
330
58F9
100
AcDbEntity
  8
0
100
AcDbLine
 10
2389.956966868835
 20
97.49999999993997
 30
0.0
 11
2389.956966868874
 21
-97.50000000006185
 31
0.0
  0
LINE
  5
5937
330
58F9
100
AcDbEntity
  8
0
100
AcDbLine
 10
2397.956966868842
 20
64.69999999993888
 30
0.0
 11
2397.956966868871
 21
-64.70000000006075
 31
0.0
  0
LINE
  5
5938
330
58F9
100
AcDbEntity
  8
0
100
AcDbLine
 10
2371.956966868849
 20
97.49999999993907
 30
0.0
 11
2371.956966868776
 21
-97.50000000006185
 31
0.0
  0
LINE
  5
5939
330
58F9
100
AcDbEntity
  8
0
  6
CENTER
100
AcDbLine
 10
2393.956966868842
 20
84.99999999993816
 30
0.0
 11
2342.956966868838
 21
84.99999999993816
 31
0.0
  0
LINE
  5
593A
330
58F9
100
AcDbEntity
  8
0
100
AcDbLine
 10
2389.956966868838
 20
97.49999999993907
 30
0.0
 11
2371.956966868842
 21
97.49999999993816
 31
0.0
  0
LINE
  5
593B
330
58F9
100
AcDbEntity
  8
0
100
AcDbLine
 10
2371.956966868838
 20
75.49999999993815
 30
0.0
 11
2368.956966868835
 21
75.49999999993815
 31
0.0
  0
LINE
  5
593C
330
58F9
100
AcDbEntity
  8
0
100
AcDbLine
 10
2397.956966868842
 20
64.69999999993888
 30
0.0
 11
2394.956966868842
 21
64.69999999993888
 31
0.0
  0
LINE
  5
593D
330
58F9
100
AcDbEntity
  8
0
100
AcDbLine
 10
2346.956966868835
 20
97.49999999993816
 30
0.0
 11
2346.956966868857
 21
-97.50000000006185
 31
0.0
  0
LINE
  5
593E
330
58F9
100
AcDbEntity
  8
0
100
AcDbLine
 10
2368.956966868835
 20
97.49999999993816
 30
0.0
 11
2368.956966868835
 21
-97.50000000006185
 31
0.0
  0
LINE
  5
593F
330
58F9
100
AcDbEntity
  8
0
100
AcDbLine
 10
2368.956966868835
 20
97.49999999993816
 30
0.0
 11
2346.956966868835
 21
97.49999999993816
 31
0.0
  0
LINE
  5
5940
330
58F9
100
AcDbEntity
  8
0
  6
CENTER
100
AcDbLine
 10
2393.956966868842
 20
-85.00000000006185
 30
0.0
 11
2342.956966868838
 21
-85.00000000006094
 31
0.0
  0
LINE
  5
5941
330
58F9
100
AcDbEntity
  8
0
100
AcDbLine
 10
2389.956966868842
 20
-97.50000000006185
 30
0.0
 11
2371.956966868842
 21
-97.50000000006185
 31
0.0
  0
LINE
  5
5942
330
58F9
100
AcDbEntity
  8
0
100
AcDbLine
 10
2397.956966868871
 20
-64.70000000006075
 30
0.0
 11
2394.956966868842
 21
-64.70000000006166
 31
0.0
  0
LINE
  5
5943
330
58F9
100
AcDbEntity
  8
0
100
AcDbLine
 10
2368.956966868835
 20
-97.50000000006185
 30
0.0
 11
2346.956966868835
 21
-97.50000000006185
 31
0.0
  0
LINE
  5
5944
330
58F9
100
AcDbEntity
  8
0
100
AcDbLine
 10
1400.956966868834
 20
-69.90000000006057
 30
0.0
 11
2346.456966868835
 21
-69.90000000006239
 31
0.0
  0
LINE
  5
5945
330
58F9
100
AcDbEntity
  8
0
100
AcDbLine
 10
2346.956966868835
 20
69.8999999999487
 30
0.0
 11
2283.106966868843
 21
69.89999999994779
 31
0.0
  0
LINE
  5
5946
330
58F9
100
AcDbEntity
  8
0
100
AcDbLine
 10
2206.806966868841
 20
69.89999999994688
 30
0.0
 11
1400.956966868834
 21
69.8999999999387
 31
0.0
  0
LINE
  5
5947
330
58F9
100
AcDbEntity
  8
0
100
AcDbLine
 10
2371.956966868856
 20
-75.50000000006457
 30
0.0
 11
2368.956966868835
 21
-75.50000000006548
 31
0.0
  0
LINE
  5
5948
330
58F9
100
AcDbEntity
  8
0
  6
CENTER
100
AcDbLine
 10
112.6236656295004
 20
-0.0000000000045475
 30
0.0
 11
-112.6236656295004
 21
0.000000000005457
 31
0.0
  0
LINE
  5
5949
330
58F9
100
AcDbEntity
  8
0
  6
CENTER
100
AcDbLine
 10
484.9569668688454
 20
-160.0000000000718
 30
0.0
 11
484.9569668688454
 21
-0.0000000000554792
 31
0.0
  0
LINE
  5
594A
330
58F9
100
AcDbEntity
  8
0
  6
CENTER
100
AcDbLine
 10
0.000000000007276
 20
158.0000000000054
 30
0.0
 11
-0.000000000007276
 21
-158.0000000000054
 31
0.0
  0
ARC
  5
594B
330
58F9
100
AcDbEntity
  8
0
100
AcDbCircle
 10
0.0
 20
0.0
 30
0.0
 40
64.69999999999981
100
AcDbArc
 50
279.2501971469501
 51
260.7498028530498
  0
ARC
  5
594C
330
58F9
100
AcDbEntity
  8
0
100
AcDbCircle
 10
334.9569668688491
 20
688.7132838053421
 30
0.0
 40
5.0
100
AcDbArc
 50
0.0
 51
90.0
  0
ARC
  5
594D
330
58F9
100
AcDbEntity
  8
0
100
AcDbCircle
 10
383.4569668688491
 20
688.0132838053423
 30
0.0
 40
0.5
100
AcDbArc
 50
90.0
 51
180.0
  0
ARC
  5
594E
330
58F9
100
AcDbEntity
  8
0
100
AcDbCircle
 10
334.9569668688491
 20
828.1132838053427
 30
0.0
 40
5.0
100
AcDbArc
 50
270.0
 51
0.0
  0
LINE
  5
594F
330
58F9
100
AcDbEntity
  8
0
100
AcDbLine
 10
1332.686119514372
 20
678.413283805331
 30
0.0
 11
1397.227814223304
 21
678.413283805351
 31
0.0
  0
LINE
  5
5950
330
58F9
100
AcDbEntity
  8
0
100
AcDbLine
 10
1344.706966868838
 20
678.4132838053338
 30
0.0
 11
1344.706966868834
 21
838.4132838053282
 31
0.0
  0
LINE
  5
5951
330
58F9
100
AcDbEntity
  8
0
100
AcDbLine
 10
1340.206966868838
 20
678.4132838053328
 30
0.0
 11
1340.206966868838
 21
838.4132838053291
 31
0.0
  0
LINE
  5
5952
330
58F9
100
AcDbEntity
  8
0
100
AcDbLine
 10
1349.206966868838
 20
678.4132838053364
 30
0.0
 11
1349.206966868834
 21
838.4132838053265
 31
0.0
  0
LINE
  5
5953
330
58F9
100
AcDbEntity
  8
0
100
AcDbLine
 10
1335.706966868838
 20
678.4132838053319
 30
0.0
 11
1335.706966868838
 21
838.4132838053311
 31
0.0
  0
LINE
  5
5954
330
58F9
100
AcDbEntity
  8
0
100
AcDbLine
 10
1358.206966868838
 20
678.4132838053383
 30
0.0
 11
1358.206966868838
 21
838.4132838053247
 31
0.0
  0
LINE
  5
5955
330
58F9
100
AcDbEntity
  8
0
100
AcDbLine
 10
1353.706966868834
 20
678.4132838053373
 30
0.0
 11
1353.706966868838
 21
838.4132838053256
 31
0.0
  0
LINE
  5
5956
330
58F9
100
AcDbEntity
  8
0
100
AcDbLine
 10
1328.956966868838
 20
684.8723656565717
 30
0.0
 11
1328.956966868838
 21
831.9542019540913
 31
0.0
  0
LINE
  5
5957
330
58F9
100
AcDbEntity
  8
0
100
AcDbLine
 10
1385.206966868842
 20
678.4132838053465
 30
0.0
 11
1385.206966868834
 21
838.4132838053156
 31
0.0
  0
LINE
  5
5958
330
58F9
100
AcDbEntity
  8
0
100
AcDbLine
 10
1389.706966868838
 20
678.4132838053474
 30
0.0
 11
1389.706966868838
 21
838.4132838053137
 31
0.0
  0
LINE
  5
5959
330
58F9
100
AcDbEntity
  8
0
100
AcDbLine
 10
1367.206966868838
 20
678.4132838053401
 30
0.0
 11
1367.206966868834
 21
838.413283805321
 31
0.0
  0
LINE
  5
595A
330
58F9
100
AcDbEntity
  8
0
100
AcDbLine
 10
1362.706966868838
 20
678.4132838053392
 30
0.0
 11
1362.706966868834
 21
838.4132838053229
 31
0.0
  0
LINE
  5
595B
330
58F9
100
AcDbEntity
  8
0
100
AcDbLine
 10
1371.706966868842
 20
678.4132838053428
 30
0.0
 11
1371.706966868838
 21
838.4132838053201
 31
0.0
  0
LINE
  5
595C
330
58F9
100
AcDbEntity
  8
0
100
AcDbLine
 10
1376.206966868838
 20
678.4132838053437
 30
0.0
 11
1376.206966868838
 21
838.4132838053183
 31
0.0
  0
LINE
  5
595D
330
58F9
100
AcDbEntity
  8
0
100
AcDbLine
 10
1380.706966868838
 20
678.4132838053456
 30
0.0
 11
1380.706966868834
 21
838.4132838053174
 31
0.0
  0
LINE
  5
595E
330
58F9
100
AcDbEntity
  8
0
100
AcDbLine
 10
1394.206966868838
 20
678.4132838053319
 30
0.0
 11
1394.206966868838
 21
838.4132838053311
 31
0.0
  0
LINE
  5
595F
330
58F9
100
AcDbEntity
  8
0
100
AcDbLine
 10
1332.686119514372
 20
838.4132838053311
 30
0.0
 11
1397.227814223315
 21
838.4132838053119
 31
0.0
  0
LINE
  5
5960
330
58F9
100
AcDbEntity
  8
0
100
AcDbLine
 10
1328.956966868838
 20
831.9542019540913
 30
0.0
 11
1332.686119514372
 21
838.4132838053311
 31
0.0
  0
LINE
  5
5961
330
58F9
100
AcDbEntity
  8
0
100
AcDbLine
 10
1400.956966868834
 20
831.9542019540913
 30
0.0
 11
1397.227814223315
 21
838.4132838053119
 31
0.0
  0
LINE
  5
5962
330
58F9
100
AcDbEntity
  8
0
100
AcDbLine
 10
1400.956966868834
 20
828.3132838053315
 30
0.0
 11
1400.956966868834
 21
831.9542019540913
 31
0.0
  0
LINE
  5
5963
330
58F9
100
AcDbEntity
  8
0
100
AcDbLine
 10
1400.956966868834
 20
828.263283805013
 30
0.0
 11
1400.956966868834
 21
684.8723656565826
 31
0.0
  0
ARC
  5
5964
330
58F9
100
AcDbEntity
  8
0
100
AcDbCircle
 10
383.4569668688528
 20
828.8132838053433
 30
0.0
 40
0.5
100
AcDbArc
 50
180.0
 51
270.0
  0
LINE
  5
5965
330
58F9
100
AcDbEntity
  8
0
100
AcDbLine
 10
1328.956966868834
 20
684.8723656565816
 30
0.0
 11
1332.686119514372
 21
678.413283805342
 31
0.0
  0
LINE
  5
5966
330
58F9
100
AcDbEntity
  8
0
100
AcDbLine
 10
1400.956966868834
 20
684.8723656565826
 30
0.0
 11
1397.227814223304
 21
678.413283805351
 31
0.0
  0
LINE
  5
5967
330
58F9
100
AcDbEntity
  8
0
100
AcDbLine
 10
1397.227814223304
 20
678.413283805351
 30
0.0
 11
1397.227814223304
 21
838.4132838053274
 31
0.0
  0
LINE
  5
5968
330
58F9
100
AcDbEntity
  8
0
100
AcDbLine
 10
1332.686119514372
 20
838.4132838053311
 30
0.0
 11
1332.686119514375
 21
678.413283805331
 31
0.0
  0
LINE
  5
5969
330
58F9
100
AcDbEntity
  8
0
100
AcDbLine
 10
339.9569668688528
 20
660.913283805341
 30
0.0
 11
339.9569668688128
 21
855.9132838053429
 31
0.0
  0
LINE
  5
596A
330
58F9
100
AcDbEntity
  8
0
100
AcDbLine
 10
331.9569668688491
 20
693.7132838053421
 30
0.0
 11
331.95696686882
 21
823.1132838053417
 31
0.0
  0
LINE
  5
596B
330
58F9
100
AcDbEntity
  8
0
100
AcDbLine
 10
357.9569668688419
 20
660.9132838053419
 30
0.0
 11
357.9569668689146
 21
855.9132838053429
 31
0.0
  0
LINE
  5
596C
330
58F9
100
AcDbEntity
  8
0
  6
CENTER
100
AcDbLine
 10
335.9569668688491
 20
673.4132838053429
 30
0.0
 11
386.9569668688491
 21
673.4132838053429
 31
0.0
  0
LINE
  5
596D
330
58F9
100
AcDbEntity
  8
0
100
AcDbLine
 10
339.9569668688491
 20
660.9132838053419
 30
0.0
 11
357.9569668688491
 21
660.9132838053429
 31
0.0
  0
LINE
  5
596E
330
58F9
100
AcDbEntity
  8
0
100
AcDbLine
 10
357.9569668688491
 20
682.9132838053428
 30
0.0
 11
360.9569668688491
 21
682.9132838053428
 31
0.0
  0
LINE
  5
596F
330
58F9
100
AcDbEntity
  8
0
100
AcDbLine
 10
331.9569668688491
 20
693.7132838053421
 30
0.0
 11
334.9569668688491
 21
693.7132838053421
 31
0.0
  0
LINE
  5
5970
330
58F9
100
AcDbEntity
  8
0
100
AcDbLine
 10
382.9569668688528
 20
660.9132838053429
 30
0.0
 11
382.9569668688273
 21
855.9132838053429
 31
0.0
  0
LINE
  5
5971
330
58F9
100
AcDbEntity
  8
0
100
AcDbLine
 10
360.9569668688491
 20
660.9132838053429
 30
0.0
 11
360.9569668688491
 21
855.9132838053429
 31
0.0
  0
LINE
  5
5972
330
58F9
100
AcDbEntity
  8
0
100
AcDbLine
 10
360.9569668688491
 20
660.9132838053429
 30
0.0
 11
382.9569668688492
 21
660.9132838053429
 31
0.0
  0
LINE
  5
5973
330
58F9
100
AcDbEntity
  8
0
  6
CENTER
100
AcDbLine
 10
335.9569668688491
 20
843.4132838053429
 30
0.0
 11
386.9569668688491
 21
843.413283805342
 31
0.0
  0
LINE
  5
5974
330
58F9
100
AcDbEntity
  8
0
100
AcDbLine
 10
339.9569668688491
 20
855.9132838053429
 30
0.0
 11
357.9569668688491
 21
855.9132838053429
 31
0.0
  0
LINE
  5
5975
330
58F9
100
AcDbEntity
  8
0
100
AcDbLine
 10
331.95696686882
 20
823.1132838053417
 30
0.0
 11
334.9569668688491
 21
823.1132838053426
 31
0.0
  0
LINE
  5
5976
330
58F9
100
AcDbEntity
  8
0
100
AcDbLine
 10
360.9569668688491
 20
855.9132838053429
 30
0.0
 11
382.9569668688492
 21
855.9132838053429
 31
0.0
  0
LINE
  5
5977
330
58F9
100
AcDbEntity
  8
0
100
AcDbLine
 10
1328.956966868853
 20
828.3132838053406
 30
0.0
 11
383.4569668688528
 21
828.3132838053434
 31
0.0
  0
LINE
  5
5978
330
58F9
100
AcDbEntity
  8
0
100
AcDbLine
 10
382.9569668688492
 20
688.5132838053323
 30
0.0
 11
1328.956966868853
 21
688.5132838053414
 31
0.0
  0
LINE
  5
5979
330
58F9
100
AcDbEntity
  8
0
100
AcDbLine
 10
357.9569668688309
 20
833.9132838053455
 30
0.0
 11
360.9569668688491
 21
833.9132838053465
 31
0.0
  0
ARC
  5
597A
330
58F9
100
AcDbEntity
  8
0
100
AcDbCircle
 10
2394.956966868842
 20
828.1132838053308
 30
0.0
 40
5.0
100
AcDbArc
 50
180.0
 51
270.0
  0
ARC
  5
597B
330
58F9
100
AcDbEntity
  8
0
100
AcDbCircle
 10
2346.456966868839
 20
828.8132838053307
 30
0.0
 40
0.5
100
AcDbArc
 50
270.0
 51
0.0
  0
ARC
  5
597C
330
58F9
100
AcDbEntity
  8
0
100
AcDbCircle
 10
2394.956966868842
 20
688.7132838053303
 30
0.0
 40
5.0
100
AcDbArc
 50
90.0
 51
180.0
  0
ARC
  5
597D
330
58F9
100
AcDbEntity
  8
0
100
AcDbCircle
 10
2346.456966868835
 20
688.0132838053295
 30
0.0
 40
0.5
100
AcDbArc
 50
0.0
 51
90.0
  0
LINE
  5
597E
330
58F9
100
AcDbEntity
  8
0
100
AcDbLine
 10
2389.956966868835
 20
855.9132838053319
 30
0.0
 11
2389.956966868874
 21
660.9132838053301
 31
0.0
  0
LINE
  5
597F
330
58F9
100
AcDbEntity
  8
0
100
AcDbLine
 10
2397.956966868842
 20
823.1132838053309
 30
0.0
 11
2397.956966868871
 21
693.7132838053312
 31
0.0
  0
LINE
  5
5980
330
58F9
100
AcDbEntity
  8
0
100
AcDbLine
 10
2371.956966868849
 20
855.913283805331
 30
0.0
 11
2371.956966868776
 21
660.9132838053301
 31
0.0
  0
LINE
  5
5981
330
58F9
100
AcDbEntity
  8
0
  6
CENTER
100
AcDbLine
 10
2393.956966868842
 20
843.4132838053301
 30
0.0
 11
2342.956966868838
 21
843.4132838053301
 31
0.0
  0
LINE
  5
5982
330
58F9
100
AcDbEntity
  8
0
100
AcDbLine
 10
2389.956966868838
 20
855.913283805331
 30
0.0
 11
2371.956966868842
 21
855.9132838053301
 31
0.0
  0
LINE
  5
5983
330
58F9
100
AcDbEntity
  8
0
100
AcDbLine
 10
2371.956966868838
 20
833.91328380533
 30
0.0
 11
2368.956966868835
 21
833.91328380533
 31
0.0
  0
LINE
  5
5984
330
58F9
100
AcDbEntity
  8
0
100
AcDbLine
 10
2397.956966868842
 20
823.1132838053309
 30
0.0
 11
2394.956966868842
 21
823.1132838053309
 31
0.0
  0
LINE
  5
5985
330
58F9
100
AcDbEntity
  8
0
100
AcDbLine
 10
2346.956966868835
 20
855.9132838053301
 30
0.0
 11
2346.956966868857
 21
660.9132838053301
 31
0.0
  0
LINE
  5
5986
330
58F9
100
AcDbEntity
  8
0
100
AcDbLine
 10
2368.956966868835
 20
855.9132838053301
 30
0.0
 11
2368.956966868835
 21
660.9132838053301
 31
0.0
  0
LINE
  5
5987
330
58F9
100
AcDbEntity
  8
0
100
AcDbLine
 10
2368.956966868835
 20
855.9132838053301
 30
0.0
 11
2346.956966868835
 21
855.9132838053301
 31
0.0
  0
LINE
  5
5988
330
58F9
100
AcDbEntity
  8
0
  6
CENTER
100
AcDbLine
 10
2393.956966868842
 20
673.4132838053301
 30
0.0
 11
2342.956966868838
 21
673.413283805331
 31
0.0
  0
LINE
  5
5989
330
58F9
100
AcDbEntity
  8
0
100
AcDbLine
 10
2389.956966868842
 20
660.9132838053301
 30
0.0
 11
2371.956966868842
 21
660.9132838053301
 31
0.0
  0
LINE
  5
598A
330
58F9
100
AcDbEntity
  8
0
100
AcDbLine
 10
2397.956966868871
 20
693.7132838053312
 30
0.0
 11
2394.956966868842
 21
693.7132838053303
 31
0.0
  0
LINE
  5
598B
330
58F9
100
AcDbEntity
  8
0
100
AcDbLine
 10
2368.956966868835
 20
660.9132838053301
 30
0.0
 11
2346.956966868835
 21
660.9132838053301
 31
0.0
  0
LINE
  5
598C
330
58F9
100
AcDbEntity
  8
0
100
AcDbLine
 10
1400.956966868834
 20
688.5132838053314
 30
0.0
 11
2192.323897416271
 21
688.5132838053305
 31
0.0
  0
LINE
  5
598D
330
58F9
100
AcDbEntity
  8
0
100
AcDbLine
 10
2297.590036321413
 20
688.5132838053305
 30
0.0
 11
2346.456966868835
 21
688.5132838053295
 31
0.0
  0
LINE
  5
598E
330
58F9
100
AcDbEntity
  8
0
100
AcDbLine
 10
2346.956966868835
 20
828.3132838053406
 30
0.0
 11
2297.590036321417
 21
828.3132838053406
 31
0.0
  0
LINE
  5
598F
330
58F9
100
AcDbEntity
  8
0
100
AcDbLine
 10
2192.323897416267
 20
828.3132838053388
 30
0.0
 11
1400.956966868834
 21
828.3132838053306
 31
0.0
  0
LINE
  5
5990
330
58F9
100
AcDbEntity
  8
0
100
AcDbLine
 10
2371.956966868856
 20
682.9132838053274
 30
0.0
 11
2368.956966868835
 21
682.9132838053265
 31
0.0
  0
LINE
  5
5991
330
58F9
100
AcDbEntity
  8
0
100
AcDbLine
 10
446.8069668688476
 20
-132.0000000000554
 30
0.0
 11
446.8069668688476
 21
-69.90000000005875
 31
0.0
  0
LINE
  5
5992
330
58F9
100
AcDbEntity
  8
0
100
AcDbLine
 10
523.1069668688469
 20
-132.0000000000554
 30
0.0
 11
523.1069668688433
 21
-69.90000000005784
 31
0.0
  0
LINE
  5
5993
330
58F9
100
AcDbEntity
  8
0
100
AcDbLine
 10
397.4569668688455
 20
-132.0000000000554
 30
0.0
 11
572.4569668688454
 21
-132.0000000000554
 31
0.0
  0
LINE
  5
5994
330
58F9
100
AcDbEntity
  8
0
100
AcDbLine
 10
572.4569668688454
 20
-150.0000000000555
 30
0.0
 11
397.4569668688455
 21
-150.0000000000555
 31
0.0
  0
LINE
  5
5995
330
58F9
100
AcDbEntity
  8
0
100
AcDbLine
 10
572.4569668688454
 20
-132.0000000000554
 30
0.0
 11
572.4569668688454
 21
-150.0000000000555
 31
0.0
  0
LINE
  5
5996
330
58F9
100
AcDbEntity
  8
0
  6
CENTER
100
AcDbLine
 10
554.9569668688454
 20
-158.0000000000555
 30
0.0
 11
554.9569668688454
 21
-122.0000000000555
 31
0.0
  0
LINE
  5
5997
330
58F9
100
AcDbEntity
  8
0
100
AcDbLine
 10
397.4569668688455
 20
-150.0000000000555
 30
0.0
 11
397.4569668688455
 21
-132.0000000000554
 31
0.0
  0
LINE
  5
5998
330
58F9
100
AcDbEntity
  8
0
  6
CENTER
100
AcDbLine
 10
414.9569668688455
 20
-158.0000000000555
 30
0.0
 11
414.9569668688455
 21
-122.0000000000555
 31
0.0
  0
ARC
  5
5999
330
58F9
100
AcDbEntity
  8
0
100
AcDbCircle
 10
484.9569668688454
 20
-128.4712173341831
 30
0.0
 40
69.90000000000939
100
AcDbArc
 50
56.922039290275
 51
123.077960709725
  0
LINE
  5
599A
330
58F9
100
AcDbEntity
  8
0
  6
CENTER
100
AcDbLine
 10
2244.956966868842
 20
159.9999999999609
 30
0.0
 11
2244.956966868842
 21
-0.0000000000554792
 31
0.0
  0
LINE
  5
599B
330
58F9
100
AcDbEntity
  8
0
100
AcDbLine
 10
2283.106966868843
 20
131.9999999999445
 30
0.0
 11
2283.106966868843
 21
69.89999999994779
 31
0.0
  0
LINE
  5
599C
330
58F9
100
AcDbEntity
  8
0
100
AcDbLine
 10
2206.806966868841
 20
131.9999999999445
 30
0.0
 11
2206.806966868841
 21
69.89999999994688
 31
0.0
  0
LINE
  5
599D
330
58F9
100
AcDbEntity
  8
0
100
AcDbLine
 10
2332.456966868842
 20
131.9999999999445
 30
0.0
 11
2157.456966868842
 21
131.9999999999445
 31
0.0
  0
LINE
  5
599E
330
58F9
100
AcDbEntity
  8
0
100
AcDbLine
 10
2157.456966868842
 20
149.9999999999445
 30
0.0
 11
2332.456966868842
 21
149.9999999999445
 31
0.0
  0
LINE
  5
599F
330
58F9
100
AcDbEntity
  8
0
100
AcDbLine
 10
2157.456966868842
 20
131.9999999999445
 30
0.0
 11
2157.456966868842
 21
149.9999999999445
 31
0.0
  0
LINE
  5
59A0
330
58F9
100
AcDbEntity
  8
0
  6
CENTER
100
AcDbLine
 10
2174.956966868842
 20
157.9999999999445
 30
0.0
 11
2174.956966868842
 21
121.9999999999445
 31
0.0
  0
LINE
  5
59A1
330
58F9
100
AcDbEntity
  8
0
100
AcDbLine
 10
2332.456966868842
 20
149.9999999999445
 30
0.0
 11
2332.456966868842
 21
131.9999999999445
 31
0.0
  0
LINE
  5
59A2
330
58F9
100
AcDbEntity
  8
0
  6
CENTER
100
AcDbLine
 10
2314.956966868842
 20
157.9999999999445
 30
0.0
 11
2314.956966868842
 21
121.9999999999445
 31
0.0
  0
ARC
  5
59A3
330
58F9
100
AcDbEntity
  8
0
100
AcDbCircle
 10
2244.956966868842
 20
128.4712173340722
 30
0.0
 40
69.90000000000939
100
AcDbArc
 50
236.922039290275
 51
303.077960709725
  0
LINE
  5
59A4
330
58F9
100
AcDbEntity
  8
0
  6
CENTER
100
AcDbLine
 10
2244.956966868842
 20
862.0787737447944
 30
0.0
 11
2244.956966868842
 21
654.7477938658694
 31
0.0
  0
LINE
  5
59A5
330
58F9
100
AcDbEntity
  8
0
  6
CENTER
100
AcDbLine
 10
2209.24807441892
 20
794.1221762552568
 30
0.0
 11
2181.670909952645
 21
821.6993407215332
 31
0.0
  0
LINE
  5
59A6
330
58F9
100
AcDbEntity
  8
0
  6
CENTER
100
AcDbLine
 10
2209.24807441892
 20
722.7043913554162
 30
0.0
 11
2181.670909952645
 21
695.1272268891398
 31
0.0
  0
LINE
  5
59A7
330
58F9
100
AcDbEntity
  8
0
  6
CENTER
100
AcDbLine
 10
2280.66585931876
 20
794.1221762552568
 30
0.0
 11
2308.243023785038
 21
821.6993407215332
 31
0.0
  0
LINE
  5
59A8
330
58F9
100
AcDbEntity
  8
0
  6
CENTER
100
AcDbLine
 10
2280.66585931876
 20
722.7043913554162
 30
0.0
 11
2308.243023785038
 21
695.1272268891398
 31
0.0
  0
LINE
  5
59A9
330
58F9
100
AcDbEntity
  8
0
  6
CENTER
100
AcDbLine
 10
484.9569668688454
 20
862.0787737447944
 30
0.0
 11
484.9569668688454
 21
654.7477938658694
 31
0.0
  0
ARC
  5
59AA
330
58F9
100
AcDbEntity
  8
0
100
AcDbCircle
 10
484.9569668688454
 20
758.4132838053364
 30
0.0
 40
87.5
100
AcDbArc
 50
53.02110570341927
 51
126.9788942965807
  0
ARC
  5
59AB
330
58F9
100
AcDbEntity
  8
0
100
AcDbCircle
 10
484.9569668688454
 20
758.4132838053364
 30
0.0
 40
87.5
100
AcDbArc
 50
233.0211057034192
 51
306.9788942965808
  0
LINE
  5
59AC
330
58F9
100
AcDbEntity
  8
0
100
AcDbLine
 10
-38.15000000000873
 20
-132.0000000000036
 30
0.0
 11
-38.15000000000509
 21
-89.72640358333682
 31
0.0
  0
LINE
  5
59AD
330
58F9
100
AcDbEntity
  8
0
100
AcDbLine
 10
38.14999999999418
 20
-132.0000000000073
 30
0.0
 11
38.14999999999782
 21
-89.72640358334047
 31
0.0
  0
LINE
  5
59AE
330
58F9
100
AcDbEntity
  8
0
100
AcDbLine
 10
-87.50000000000728
 20
-132.0000000000009
 30
0.0
 11
87.49999999999273
 21
-132.0000000000091
 31
0.0
  0
LINE
  5
59AF
330
58F9
100
AcDbEntity
  8
0
100
AcDbLine
 10
87.49999999999273
 20
-150.0000000000091
 30
0.0
 11
-87.50000000000728
 21
-150.0000000000009
 31
0.0
  0
LINE
  5
59B0
330
58F9
100
AcDbEntity
  8
0
100
AcDbLine
 10
87.49999999999273
 20
-132.0000000000091
 30
0.0
 11
87.49999999999273
 21
-150.0000000000091
 31
0.0
  0
LINE
  5
59B1
330
58F9
100
AcDbEntity
  8
0
  6
CENTER
100
AcDbLine
 10
69.99999999999272
 20
-158.0000000000081
 30
0.0
 11
69.99999999999272
 21
-122.0000000000082
 31
0.0
  0
LINE
  5
59B2
330
58F9
100
AcDbEntity
  8
0
100
AcDbLine
 10
-87.50000000000728
 20
-150.0000000000009
 30
0.0
 11
-87.50000000000728
 21
-132.0000000000009
 31
0.0
  0
LINE
  5
59B3
330
58F9
100
AcDbEntity
  8
0
  6
CENTER
100
AcDbLine
 10
-70.00000000000728
 20
-158.0000000000018
 30
0.0
 11
-70.00000000000728
 21
-122.0000000000018
 31
0.0
  0
LINE
  5
59B4
330
58F9
100
AcDbEntity
  8
0
100
AcDbLine
 10
-38.14999999999782
 20
132.0000000000073
 30
0.0
 11
-38.14999999999782
 21
89.72640358334047
 31
0.0
  0
LINE
  5
59B5
330
58F9
100
AcDbEntity
  8
0
100
AcDbLine
 10
38.15000000000509
 20
132.0000000000036
 30
0.0
 11
38.15000000000509
 21
89.72640358333682
 31
0.0
  0
LINE
  5
59B6
330
58F9
100
AcDbEntity
  8
0
100
AcDbLine
 10
-87.49999999999635
 20
132.00000000001
 30
0.0
 11
87.50000000000364
 21
132.0000000000018
 31
0.0
  0
LINE
  5
59B7
330
58F9
100
AcDbEntity
  8
0
100
AcDbLine
 10
87.50000000000728
 20
150.0000000000018
 30
0.0
 11
-87.49999999999273
 21
150.00000000001
 31
0.0
  0
LINE
  5
59B8
330
58F9
100
AcDbEntity
  8
0
100
AcDbLine
 10
87.50000000000364
 20
132.0000000000018
 30
0.0
 11
87.50000000000728
 21
150.0000000000018
 31
0.0
  0
LINE
  5
59B9
330
58F9
100
AcDbEntity
  8
0
  6
CENTER
100
AcDbLine
 10
70.00000000000728
 20
158.0000000000027
 30
0.0
 11
70.00000000000364
 21
122.0000000000027
 31
0.0
  0
LINE
  5
59BA
330
58F9
100
AcDbEntity
  8
0
100
AcDbLine
 10
-87.49999999999273
 20
150.00000000001
 30
0.0
 11
-87.49999999999635
 21
132.00000000001
 31
0.0
  0
LINE
  5
59BB
330
58F9
100
AcDbEntity
  8
0
  6
CENTER
100
AcDbLine
 10
-69.99999999999272
 20
158.0000000000091
 30
0.0
 11
-69.99999999999636
 21
122.0000000000091
 31
0.0
  0
TEXT
  5
59BC
330
58F9
100
AcDbEntity
  8
0
100
AcDbText
 10
922.0998240117062
 20
926.5632838052507
 30
0.0
 40
50.0
  1
125AX2000L-65AX1.5S
 72
     4
 11
1364.956966868849
 21
951.5632838052507
 31
0.0
100
AcDbText
  0
LINE
  5
59BD
330
58F9
100
AcDbEntity
  8
0
  6
CENTER
100
AcDbLine
 10
32.60082756530392
 20
-40.85000000000127
 30
0.0
 11
-32.60082756531119
 21
-40.84999999999854
 31
0.0
  0
ARC
  5
59BE
330
58F9
100
AcDbEntity
  8
0
100
AcDbCircle
 10
316.4639973977064
 20
-19.80000000004929
 30
0.0
 40
2.0
100
AcDbArc
 50
200.0000000001139
 51
270.0
1001
GENIUS_GENOBJ-N-FIL_13
1002
{
1000
OWNER
1000
GEN
1002
}
1001
GENIUS_GENODEF_13
1002
{
1000
HIER
1070
     0
1002
}
1002
{
1000
MANEDIT
1070
     0
1002
}
1002
{
1000
NOSEL
1070
     0
1002
}
1002
{
1000
BEHIND
1070
     0
1002
}
1002
{
1000
OTHER
1070
     0
1002
}
1002
{
1000
REACTOR
1002
}
  0
ARC
  5
59BF
330
58F9
100
AcDbEntity
  8
0
100
AcDbCircle
 10
312.2468008382711
 20
-16.40000000004966
 30
0.0
 40
0.8
100
AcDbArc
 50
20.00000000011391
 51
90.0
1001
GENIUS_GENOBJ-N-FIL_13
1002
{
1000
OWNER
1000
GEN
1002
}
1001
GENIUS_GENODEF_13
1002
{
1000
HIER
1070
     0
1002
}
1002
{
1000
MANEDIT
1070
     0
1002
}
1002
{
1000
NOSEL
1070
     0
1002
}
1002
{
1000
BEHIND
1070
     0
1002
}
1002
{
1000
OTHER
1070
     0
1002
}
1002
{
1000
REACTOR
1002
}
  0
ARC
  5
59C0
330
58F9
100
AcDbEntity
  8
0
100
AcDbCircle
 10
316.4639973977064
 20
-61.90000000004966
 30
0.0
 40
2.0
100
AcDbArc
 50
90.0
 51
159.9999999998861
1001
GENIUS_GENOBJ-N-FIL_13
1002
{
1000
OWNER
1000
GEN
1002
}
1001
GENIUS_GENODEF_13
1002
{
1000
HIER
1070
     0
1002
}
1002
{
1000
MANEDIT
1070
     0
1002
}
1002
{
1000
NOSEL
1070
     0
1002
}
1002
{
1000
BEHIND
1070
     0
1002
}
1002
{
1000
OTHER
1070
     0
1002
}
1002
{
1000
REACTOR
1002
}
  0
ARC
  5
59C1
330
58F9
100
AcDbEntity
  8
0
100
AcDbCircle
 10
312.2468008382711
 20
-65.30000000004929
 30
0.0
 40
0.8
100
AcDbArc
 50
270.0
 51
339.9999999998861
1001
GENIUS_GENOBJ-N-FIL_13
1002
{
1000
OWNER
1000
GEN
1002
}
1001
GENIUS_GENODEF_13
1002
{
1000
HIER
1070
     0
1002
}
1002
{
1000
MANEDIT
1070
     0
1002
}
1002
{
1000
NOSEL
1070
     0
1002
}
1002
{
1000
BEHIND
1070
     0
1002
}
1002
{
1000
OTHER
1070
     0
1002
}
1002
{
1000
REACTOR
1002
}
  0
LINE
  5
59C2
330
58F9
100
AcDbEntity
  8
0
100
AcDbLine
 10
315.0635824965029
 20
-59.57028584849286
 30
0.0
 11
315.0635824965029
 21
-22.129714151607
 31
0.0
  0
LINE
  5
59C3
330
58F9
100
AcDbEntity
  8
0
100
AcDbLine
 10
309.9569668688382
 20
-66.10000000004948
 30
0.0
 11
309.9569668688382
 21
-15.60000000004947
 31
0.0
  0
LINE
  5
59C4
330
58F9
100
AcDbEntity
  8
0
100
AcDbLine
 10
312.8069668688368
 20
-65.29734571804602
 30
0.0
 11
312.8069668688368
 21
-16.40265428205293
 31
0.0
  0
LINE
  5
59C5
330
58F9
100
AcDbEntity
  8
0
  6
CENTER
100
AcDbLine
 10
306.8082241477823
 20
-40.85000000004948
 30
0.0
 11
337.9119899597208
 21
-40.85000000004948
 31
0.0
  0
LINE
  5
59C6
330
58F9
100
AcDbEntity
  8
0
100
AcDbLine
 10
316.4639973977064
 20
-21.80000000004929
 30
0.0
 11
331.9569668688418
 21
-21.80000000004929
 31
0.0
  0
LINE
  5
59C7
330
58F9
100
AcDbEntity
  8
0
100
AcDbLine
 10
309.9569668688382
 20
-15.60000000004947
 30
0.0
 11
312.2468008382711
 21
-15.60000000004947
 31
0.0
  0
LINE
  5
59C8
330
58F9
100
AcDbEntity
  8
0
100
AcDbLine
 10
312.9985549349003
 20
-16.12638388538926
 30
0.0
 11
314.5846121561372
 21
-20.4840402867012
 31
0.0
  0
LINE
  5
59C9
330
58F9
100
AcDbEntity
  8
0
100
AcDbLine
 10
316.4639973977064
 20
-59.90000000004966
 30
0.0
 11
331.9569668688418
 21
-59.90000000004966
 31
0.0
  0
LINE
  5
59CA
330
58F9
100
AcDbEntity
  8
0
100
AcDbLine
 10
309.9569668688382
 20
-66.10000000004948
 30
0.0
 11
312.2468008382711
 21
-66.10000000004948
 31
0.0
  0
LINE
  5
59CB
330
58F9
100
AcDbEntity
  8
0
100
AcDbLine
 10
312.9985549349003
 20
-65.5736161147097
 30
0.0
 11
314.5846121561372
 21
-61.21595971339775
 31
0.0
  0
ARC
  5
59CC
330
58F9
100
AcDbEntity
  8
0
100
AcDbCircle
 10
2413.449936339977
 20
19.79999999993833
 30
0.0
 40
2.0
100
AcDbArc
 50
20.00000000006494
 51
90.0
1001
GENIUS_GENOBJ-N-FIL_13
1002
{
1000
OWNER
1000
GEN
1002
}
1001
GENIUS_GENODEF_13
1002
{
1000
HIER
1070
     0
1002
}
1002
{
1000
MANEDIT
1070
     0
1002
}
1002
{
1000
NOSEL
1070
     0
1002
}
1002
{
1000
BEHIND
1070
     0
1002
}
1002
{
1000
OTHER
1070
     0
1002
}
1002
{
1000
REACTOR
1002
}
  0
ARC
  5
59CD
330
58F9
100
AcDbEntity
  8
0
100
AcDbCircle
 10
2417.667132899413
 20
16.3999999999387
 30
0.0
 40
0.8
100
AcDbArc
 50
200.0000000000649
 51
270.0
1001
GENIUS_GENOBJ-N-FIL_13
1002
{
1000
OWNER
1000
GEN
1002
}
1001
GENIUS_GENODEF_13
1002
{
1000
HIER
1070
     0
1002
}
1002
{
1000
MANEDIT
1070
     0
1002
}
1002
{
1000
NOSEL
1070
     0
1002
}
1002
{
1000
BEHIND
1070
     0
1002
}
1002
{
1000
OTHER
1070
     0
1002
}
1002
{
1000
REACTOR
1002
}
  0
ARC
  5
59CE
330
58F9
100
AcDbEntity
  8
0
100
AcDbCircle
 10
2413.449936339977
 20
61.8999999999387
 30
0.0
 40
2.0
100
AcDbArc
 50
270.0
 51
339.999999999935
1001
GENIUS_GENOBJ-N-FIL_13
1002
{
1000
OWNER
1000
GEN
1002
}
1001
GENIUS_GENODEF_13
1002
{
1000
HIER
1070
     0
1002
}
1002
{
1000
MANEDIT
1070
     0
1002
}
1002
{
1000
NOSEL
1070
     0
1002
}
1002
{
1000
BEHIND
1070
     0
1002
}
1002
{
1000
OTHER
1070
     0
1002
}
1002
{
1000
REACTOR
1002
}
  0
ARC
  5
59CF
330
58F9
100
AcDbEntity
  8
0
100
AcDbCircle
 10
2417.667132899413
 20
65.29999999993833
 30
0.0
 40
0.8
100
AcDbArc
 50
90.0
 51
159.999999999935
1001
GENIUS_GENOBJ-N-FIL_13
1002
{
1000
OWNER
1000
GEN
1002
}
1001
GENIUS_GENODEF_13
1002
{
1000
HIER
1070
     0
1002
}
1002
{
1000
MANEDIT
1070
     0
1002
}
1002
{
1000
NOSEL
1070
     0
1002
}
1002
{
1000
BEHIND
1070
     0
1002
}
1002
{
1000
OTHER
1070
     0
1002
}
1002
{
1000
REACTOR
1002
}
  0
LINE
  5
59D0
330
58F9
100
AcDbEntity
  8
0
100
AcDbLine
 10
2414.850351241181
 20
59.5702858483819
 30
0.0
 11
2414.850351241181
 21
22.12971415149604
 31
0.0
  0
LINE
  5
59D1
330
58F9
100
AcDbEntity
  8
0
100
AcDbLine
 10
2419.956966868845
 20
66.09999999993942
 30
0.0
 11
2419.956966868845
 21
15.59999999993943
 31
0.0
  0
LINE
  5
59D2
330
58F9
100
AcDbEntity
  8
0
100
AcDbLine
 10
2417.106966868847
 20
65.29734571793506
 30
0.0
 11
2417.106966868847
 21
16.40265428194197
 31
0.0
  0
LINE
  5
59D3
330
58F9
100
AcDbEntity
  8
0
  6
CENTER
100
AcDbLine
 10
2423.105709589902
 20
40.84999999993942
 30
0.0
 11
2392.001943777963
 21
40.84999999993942
 31
0.0
  0
LINE
  5
59D4
330
58F9
100
AcDbEntity
  8
0
100
AcDbLine
 10
2413.449936339977
 20
21.79999999993833
 30
0.0
 11
2397.956966868842
 21
21.79999999993833
 31
0.0
  0
LINE
  5
59D5
330
58F9
100
AcDbEntity
  8
0
100
AcDbLine
 10
2419.956966868845
 20
15.59999999993943
 30
0.0
 11
2417.667132899413
 21
15.59999999993943
 31
0.0
  0
LINE
  5
59D6
330
58F9
100
AcDbEntity
  8
0
100
AcDbLine
 10
2416.915378802784
 20
16.1263838852783
 30
0.0
 11
2415.329321581547
 21
20.48404028659025
 31
0.0
  0
LINE
  5
59D7
330
58F9
100
AcDbEntity
  8
0
100
AcDbLine
 10
2413.449936339977
 20
59.8999999999387
 30
0.0
 11
2397.956966868842
 21
59.8999999999387
 31
0.0
  0
LINE
  5
59D8
330
58F9
100
AcDbEntity
  8
0
100
AcDbLine
 10
2419.956966868845
 20
66.09999999993942
 30
0.0
 11
2417.667132899413
 21
66.09999999993942
 31
0.0
  0
LINE
  5
59D9
330
58F9
100
AcDbEntity
  8
0
100
AcDbLine
 10
2416.915378802784
 20
65.57361611459874
 30
0.0
 11
2415.329321581547
 21
61.2159597132877
 31
0.0
  0
ARC
  5
59DA
330
58F9
100
AcDbEntity
  8
0
100
AcDbCircle
 10
2413.449936339989
 20
737.3632838053309
 30
0.0
 40
2.0
100
AcDbArc
 50
20.00000000006494
 51
90.0
1001
GENIUS_GENOBJ-N-FIL_13
1002
{
1000
OWNER
1000
GEN
1002
}
1001
GENIUS_GENODEF_13
1002
{
1000
HIER
1070
     0
1002
}
1002
{
1000
MANEDIT
1070
     0
1002
}
1002
{
1000
NOSEL
1070
     0
1002
}
1002
{
1000
BEHIND
1070
     0
1002
}
1002
{
1000
OTHER
1070
     0
1002
}
1002
{
1000
REACTOR
1002
}
  0
ARC
  5
59DB
330
58F9
100
AcDbEntity
  8
0
100
AcDbCircle
 10
2417.667132899424
 20
733.9632838053312
 30
0.0
 40
0.8
100
AcDbArc
 50
200.0000000000649
 51
270.0
1001
GENIUS_GENOBJ-N-FIL_13
1002
{
1000
OWNER
1000
GEN
1002
}
1001
GENIUS_GENODEF_13
1002
{
1000
HIER
1070
     0
1002
}
1002
{
1000
MANEDIT
1070
     0
1002
}
1002
{
1000
NOSEL
1070
     0
1002
}
1002
{
1000
BEHIND
1070
     0
1002
}
1002
{
1000
OTHER
1070
     0
1002
}
1002
{
1000
REACTOR
1002
}
  0
ARC
  5
59DC
330
58F9
100
AcDbEntity
  8
0
100
AcDbCircle
 10
2413.449936339989
 20
779.4632838053303
 30
0.0
 40
2.0
100
AcDbArc
 50
270.0
 51
339.999999999935
1001
GENIUS_GENOBJ-N-FIL_13
1002
{
1000
OWNER
1000
GEN
1002
}
1001
GENIUS_GENODEF_13
1002
{
1000
HIER
1070
     0
1002
}
1002
{
1000
MANEDIT
1070
     0
1002
}
1002
{
1000
NOSEL
1070
     0
1002
}
1002
{
1000
BEHIND
1070
     0
1002
}
1002
{
1000
OTHER
1070
     0
1002
}
1002
{
1000
REACTOR
1002
}
  0
ARC
  5
59DD
330
58F9
100
AcDbEntity
  8
0
100
AcDbCircle
 10
2417.667132899424
 20
782.8632838053309
 30
0.0
 40
0.8
100
AcDbArc
 50
90.0
 51
159.999999999935
1001
GENIUS_GENOBJ-N-FIL_13
1002
{
1000
OWNER
1000
GEN
1002
}
1001
GENIUS_GENODEF_13
1002
{
1000
HIER
1070
     0
1002
}
1002
{
1000
MANEDIT
1070
     0
1002
}
1002
{
1000
NOSEL
1070
     0
1002
}
1002
{
1000
BEHIND
1070
     0
1002
}
1002
{
1000
OTHER
1070
     0
1002
}
1002
{
1000
REACTOR
1002
}
  0
LINE
  5
59DE
330
58F9
100
AcDbEntity
  8
0
100
AcDbLine
 10
2414.850351241192
 20
777.1335696537744
 30
0.0
 11
2414.850351241192
 21
739.6929979568876
 31
0.0
  0
LINE
  5
59DF
330
58F9
100
AcDbEntity
  8
0
100
AcDbLine
 10
2419.956966868856
 20
783.6632838053311
 30
0.0
 11
2419.956966868856
 21
733.163283805331
 31
0.0
  0
LINE
  5
59E0
330
58F9
100
AcDbEntity
  8
0
100
AcDbLine
 10
2417.106966868858
 20
782.8606295233275
 30
0.0
 11
2417.106966868858
 21
733.9659380873345
 31
0.0
  0
LINE
  5
59E1
330
58F9
100
AcDbEntity
  8
0
  6
CENTER
100
AcDbLine
 10
2423.105709589913
 20
758.413283805331
 30
0.0
 11
306.8082241477714
 21
758.413283805331
 31
0.0
  0
LINE
  5
59E2
330
58F9
100
AcDbEntity
  8
0
100
AcDbLine
 10
2413.449936339989
 20
739.3632838053308
 30
0.0
 11
2397.956966868853
 21
739.3632838053308
 31
0.0
  0
LINE
  5
59E3
330
58F9
100
AcDbEntity
  8
0
100
AcDbLine
 10
2419.956966868856
 20
733.163283805331
 30
0.0
 11
2417.667132899424
 21
733.163283805331
 31
0.0
  0
LINE
  5
59E4
330
58F9
100
AcDbEntity
  8
0
100
AcDbLine
 10
2416.915378802795
 20
733.6896676906698
 30
0.0
 11
2415.329321581558
 21
738.0473240919827
 31
0.0
  0
LINE
  5
59E5
330
58F9
100
AcDbEntity
  8
0
100
AcDbLine
 10
2413.449936339989
 20
777.4632838053303
 30
0.0
 11
2397.956966868853
 21
777.4632838053312
 31
0.0
  0
LINE
  5
59E6
330
58F9
100
AcDbEntity
  8
0
100
AcDbLine
 10
2419.956966868856
 20
783.6632838053311
 30
0.0
 11
2417.667132899424
 21
783.6632838053311
 31
0.0
  0
LINE
  5
59E7
330
58F9
100
AcDbEntity
  8
0
100
AcDbLine
 10
2416.915378802795
 20
783.1368999199912
 30
0.0
 11
2415.329321581558
 21
778.7792435186793
 31
0.0
  0
ARC
  5
59E8
330
58F9
100
AcDbEntity
  8
0
100
AcDbCircle
 10
316.4639973976955
 20
737.3632838053309
 30
0.0
 40
2.0
100
AcDbArc
 50
90.0
 51
159.9999999998861
1001
GENIUS_GENOBJ-N-FIL_13
1002
{
1000
OWNER
1000
GEN
1002
}
1001
GENIUS_GENODEF_13
1002
{
1000
HIER
1070
     0
1002
}
1002
{
1000
MANEDIT
1070
     0
1002
}
1002
{
1000
NOSEL
1070
     0
1002
}
1002
{
1000
BEHIND
1070
     0
1002
}
1002
{
1000
OTHER
1070
     0
1002
}
1002
{
1000
REACTOR
1002
}
  0
ARC
  5
59E9
330
58F9
100
AcDbEntity
  8
0
100
AcDbCircle
 10
312.2468008382603
 20
733.9632838053312
 30
0.0
 40
0.8
100
AcDbArc
 50
270.0
 51
339.9999999998861
1001
GENIUS_GENOBJ-N-FIL_13
1002
{
1000
OWNER
1000
GEN
1002
}
1001
GENIUS_GENODEF_13
1002
{
1000
HIER
1070
     0
1002
}
1002
{
1000
MANEDIT
1070
     0
1002
}
1002
{
1000
NOSEL
1070
     0
1002
}
1002
{
1000
BEHIND
1070
     0
1002
}
1002
{
1000
OTHER
1070
     0
1002
}
1002
{
1000
REACTOR
1002
}
  0
ARC
  5
59EA
330
58F9
100
AcDbEntity
  8
0
100
AcDbCircle
 10
316.4639973976955
 20
779.4632838053303
 30
0.0
 40
2.0
100
AcDbArc
 50
200.0000000001139
 51
270.0
1001
GENIUS_GENOBJ-N-FIL_13
1002
{
1000
OWNER
1000
GEN
1002
}
1001
GENIUS_GENODEF_13
1002
{
1000
HIER
1070
     0
1002
}
1002
{
1000
MANEDIT
1070
     0
1002
}
1002
{
1000
NOSEL
1070
     0
1002
}
1002
{
1000
BEHIND
1070
     0
1002
}
1002
{
1000
OTHER
1070
     0
1002
}
1002
{
1000
REACTOR
1002
}
  0
ARC
  5
59EB
330
58F9
100
AcDbEntity
  8
0
100
AcDbCircle
 10
312.2468008382603
 20
782.8632838053309
 30
0.0
 40
0.8
100
AcDbArc
 50
20.00000000011391
 51
90.0
1001
GENIUS_GENOBJ-N-FIL_13
1002
{
1000
OWNER
1000
GEN
1002
}
1001
GENIUS_GENODEF_13
1002
{
1000
HIER
1070
     0
1002
}
1002
{
1000
MANEDIT
1070
     0
1002
}
1002
{
1000
NOSEL
1070
     0
1002
}
1002
{
1000
BEHIND
1070
     0
1002
}
1002
{
1000
OTHER
1070
     0
1002
}
1002
{
1000
REACTOR
1002
}
  0
LINE
  5
59EC
330
58F9
100
AcDbEntity
  8
0
100
AcDbLine
 10
315.063582496492
 20
777.1335696537744
 30
0.0
 11
315.063582496492
 21
739.6929979568876
 31
0.0
  0
LINE
  5
59ED
330
58F9
100
AcDbEntity
  8
0
100
AcDbLine
 10
309.9569668688273
 20
783.6632838053311
 30
0.0
 11
309.9569668688273
 21
733.163283805331
 31
0.0
  0
LINE
  5
59EE
330
58F9
100
AcDbEntity
  8
0
100
AcDbLine
 10
312.8069668688258
 20
782.8606295233275
 30
0.0
 11
312.8069668688258
 21
733.9659380873345
 31
0.0
  0
LINE
  5
59EF
330
58F9
100
AcDbEntity
  8
0
100
AcDbLine
 10
316.4639973976955
 20
739.3632838053308
 30
0.0
 11
331.956966868831
 21
739.3632838053308
 31
0.0
  0
LINE
  5
59F0
330
58F9
100
AcDbEntity
  8
0
100
AcDbLine
 10
309.9569668688273
 20
733.163283805331
 30
0.0
 11
312.2468008382603
 21
733.163283805331
 31
0.0
  0
LINE
  5
59F1
330
58F9
100
AcDbEntity
  8
0
100
AcDbLine
 10
312.9985549348894
 20
733.6896676906698
 30
0.0
 11
314.5846121561262
 21
738.0473240919827
 31
0.0
  0
LINE
  5
59F2
330
58F9
100
AcDbEntity
  8
0
100
AcDbLine
 10
316.4639973976955
 20
777.4632838053303
 30
0.0
 11
331.956966868831
 21
777.4632838053312
 31
0.0
  0
LINE
  5
59F3
330
58F9
100
AcDbEntity
  8
0
100
AcDbLine
 10
309.9569668688273
 20
783.6632838053311
 30
0.0
 11
312.2468008382603
 21
783.6632838053311
 31
0.0
  0
LINE
  5
59F4
330
58F9
100
AcDbEntity
  8
0
100
AcDbLine
 10
312.9985549348894
 20
783.1368999199912
 30
0.0
 11
314.5846121561262
 21
778.7792435186793
 31
0.0
  0
CIRCLE
  5
59F5
330
58F9
100
AcDbEntity
  8
0
100
AcDbCircle
 10
-26.2664445218943
 20
80.83980388511008
 30
0.0
 40
7.0
  0
CIRCLE
  5
59F6
330
58F9
100
AcDbEntity
  8
0
100
AcDbCircle
 10
26.26644452185792
 20
80.83980388510008
 30
0.0
 40
7.0
  0
CIRCLE
  5
59F7
330
58F9
100
AcDbEntity
  8
0
100
AcDbCircle
 10
-68.76644452192341
 20
-49.961746444852
 30
0.0
 40
7.0
  0
CIRCLE
  5
59F8
330
58F9
100
AcDbEntity
  8
0
100
AcDbCircle
 10
68.76644452183973
 20
-49.96174644487564
 30
0.0
 40
7.0
  0
CIRCLE
  5
59F9
330
58F9
100
AcDbEntity
  8
0
100
AcDbCircle
 10
68.76644452185428
 20
49.96174644486109
 30
0.0
 40
7.0
  0
CIRCLE
  5
59FA
330
58F9
100
AcDbEntity
  8
0
100
AcDbCircle
 10
-68.76644452190885
 20
49.96174644488291
 30
0.0
 40
7.0
  0
CIRCLE
  5
59FB
330
58F9
100
AcDbEntity
  8
0
100
AcDbCircle
 10
-26.26644452191977
 20
-80.83980388509189
 30
0.0
 40
7.0
  0
CIRCLE
  5
59FC
330
58F9
100
AcDbEntity
  8
0
100
AcDbCircle
 10
26.26644452182882
 20
-80.83980388510189
 30
0.0
 40
7.0
  0
CIRCLE
  5
59FD
330
58F9
100
AcDbEntity
  8
0
  6
CENTER
100
AcDbCircle
 10
0.0
 20
0.0
 30
0.0
 40
85.0
  0
CIRCLE
  5
59FE
330
58F9
100
AcDbEntity
  8
0
100
AcDbCircle
 10
84.99999999998181
 20
-0.0000000000100044
 30
0.0
 40
7.0
  0
CIRCLE
  5
59FF
330
58F9
100
AcDbEntity
  8
0
100
AcDbCircle
 10
-85.0000000000473
 20
0.0000000000181899
 30
0.0
 40
7.0
  0
CIRCLE
  5
5A00
330
58F9
100
AcDbEntity
  8
0
100
AcDbCircle
 10
0.0
 20
0.0
 30
0.0
 40
97.50000000000092
  0
CIRCLE
  5
5A01
330
58F9
100
AcDbEntity
  8
0
100
AcDbCircle
 10
2244.956966868842
 20
758.4132838053364
 30
0.0
 40
87.5
  0
CIRCLE
  5
5A02
330
58F9
100
AcDbEntity
  8
0
  6
CENTER
100
AcDbCircle
 10
2244.956966868842
 20
758.4132838053364
 30
0.0
 40
70.0
  0
CIRCLE
  5
5A03
330
58F9
100
AcDbEntity
  8
0
100
AcDbCircle
 10
2195.459492185783
 20
807.9107584883958
 30
0.0
 40
9.5
  0
CIRCLE
  5
5A04
330
58F9
100
AcDbEntity
  8
0
100
AcDbCircle
 10
2195.459492185783
 20
708.915809122277
 30
0.0
 40
9.5
  0
CIRCLE
  5
5A05
330
58F9
100
AcDbEntity
  8
0
100
AcDbCircle
 10
2294.454441551898
 20
807.9107584883958
 30
0.0
 40
9.5
  0
CIRCLE
  5
5A06
330
58F9
100
AcDbEntity
  8
0
100
AcDbCircle
 10
2294.454441551898
 20
708.915809122277
 30
0.0
 40
9.5
  0
CIRCLE
  5
5A07
330
58F9
100
AcDbEntity
  8
0
100
AcDbCircle
 10
2244.956966868842
 20
758.4132838053364
 30
0.0
 40
39.49578628264485
  0
CIRCLE
  5
5A08
330
58F9
100
AcDbEntity
  8
0
100
AcDbCircle
 10
-0.000000000003638
 20
-40.85000000000036
 30
0.0
 40
25.25
  0
CIRCLE
  5
5A09
330
58F9
100
AcDbEntity
  8
0
100
AcDbCircle
 10
-0.000000000003638
 20
-40.85000000000036
 30
0.0
 40
19.05000000000018
  0
ENDBLK
  5
5A0D
330
58F9
100
AcDbEntity
  8
0
100
AcDbBlockEnd
  0
ENDSEC
  0
SECTION
  2
ENTITIES
  0
ARC
  5
466C
330
1F
100
AcDbEntity
  8
0
100
AcDbCircle
 10
334.9569668688491
 20
-69.70000000004984
 30
0.0
 40
5.0
100
AcDbArc
 50
0.0
 51
90.0
  0
ARC
  5
466D
330
1F
100
AcDbEntity
  8
0
100
AcDbCircle
 10
383.4569668688491
 20
-70.40000000004965
 30
0.0
 40
0.5
100
AcDbArc
 50
90.0
 51
180.0
  0
ARC
  5
466E
330
1F
100
AcDbEntity
  8
0
100
AcDbCircle
 10
334.9569668688491
 20
69.69999999995071
 30
0.0
 40
5.0
100
AcDbArc
 50
270.0
 51
0.0
  0
LINE
  5
466F
330
1F
100
AcDbEntity
  8
0
  6
CENTER
100
AcDbLine
 10
-22.86725758376997
 20
70.37818220586178
 30
0.0
 11
-29.66563146001863
 21
91.30142556435748
 31
0.0
  0
LINE
  5
4670
330
1F
100
AcDbEntity
  8
0
  6
CENTER
100
AcDbLine
 10
22.86725758372995
 20
70.3781822058545
 30
0.0
 11
29.66563145997861
 21
91.30142556434748
 31
0.0
  0
LINE
  5
4671
330
1F
100
AcDbEntity
  8
0
100
AcDbLine
 10
-59.86725758379908
 20
-43.49610866963575
 30
0.0
 11
-77.66563146005137
 21
-56.42738422006914
 31
0.0
  0
LINE
  5
4672
330
1F
100
AcDbEntity
  8
0
  6
CENTER
100
AcDbLine
 10
59.8672575837154
 20
-43.49610866965849
 30
0.0
 11
77.66563145996406
 21
-56.42738422009461
 31
0.0
  0
LINE
  5
4673
330
1F
100
AcDbEntity
  8
0
  6
CENTER
100
AcDbLine
 10
59.86725758372995
 20
43.49610866964394
 30
0.0
 11
77.66563145997861
 21
56.42738422007642
 31
0.0
  0
LINE
  5
4674
330
1F
100
AcDbEntity
  8
0
  6
CENTER
100
AcDbLine
 10
-59.86725758378452
 20
43.49610866966577
 30
0.0
 11
-77.66563146003318
 21
56.42738422010189
 31
0.0
  0
LINE
  5
4675
330
1F
100
AcDbEntity
  8
0
  6
CENTER
100
AcDbLine
 10
-22.86725758379544
 20
-70.37818220584722
 30
0.0
 11
-29.6656314600441
 21
-91.30142556433929
 31
0.0
  0
LINE
  5
4676
330
1F
100
AcDbEntity
  8
0
  6
CENTER
100
AcDbLine
 10
22.86725758370449
 20
-70.3781822058545
 30
0.0
 11
29.66563145995315
 21
-91.30142556434838
 31
0.0
  0
LINE
  5
4677
330
1F
100
AcDbEntity
  8
0
100
AcDbLine
 10
1332.686119514372
 20
-80.00000000006094
 30
0.0
 11
1397.227814223304
 21
-80.00000000004092
 31
0.0
  0
LINE
  5
4678
330
1F
100
AcDbEntity
  8
0
100
AcDbLine
 10
1344.706966868838
 20
-80.00000000005821
 30
0.0
 11
1344.706966868834
 21
79.99999999993633
 31
0.0
  0
LINE
  5
4679
330
1F
100
AcDbEntity
  8
0
100
AcDbLine
 10
1340.206966868838
 20
-80.00000000005911
 30
0.0
 11
1340.206966868838
 21
79.99999999993725
 31
0.0
  0
LINE
  5
467A
330
1F
100
AcDbEntity
  8
0
100
AcDbLine
 10
1349.206966868838
 20
-80.00000000005547
 30
0.0
 11
1349.206966868834
 21
79.99999999993452
 31
0.0
  0
LINE
  5
467B
330
1F
100
AcDbEntity
  8
0
100
AcDbLine
 10
1335.706966868838
 20
-80.00000000006002
 30
0.0
 11
1335.706966868838
 21
79.99999999993907
 31
0.0
  0
LINE
  5
467C
330
1F
100
AcDbEntity
  8
0
100
AcDbLine
 10
1358.206966868838
 20
-80.00000000005366
 30
0.0
 11
1358.206966868838
 21
79.9999999999327
 31
0.0
  0
LINE
  5
467D
330
1F
100
AcDbEntity
  8
0
100
AcDbLine
 10
1353.706966868834
 20
-80.00000000005456
 30
0.0
 11
1353.706966868838
 21
79.9999999999336
 31
0.0
  0
LINE
  5
467E
330
1F
100
AcDbEntity
  8
0
100
AcDbLine
 10
1328.956966868838
 20
-73.54091814882031
 30
0.0
 11
1328.956966868838
 21
73.54091814869935
 31
0.0
  0
LINE
  5
467F
330
1F
100
AcDbEntity
  8
0
100
AcDbLine
 10
1385.206966868842
 20
-80.00000000004547
 30
0.0
 11
1385.206966868834
 21
79.9999999999236
 31
0.0
  0
LINE
  5
4680
330
1F
100
AcDbEntity
  8
0
100
AcDbLine
 10
1389.706966868838
 20
-80.00000000004456
 30
0.0
 11
1389.706966868838
 21
79.99999999992178
 31
0.0
  0
LINE
  5
4681
330
1F
100
AcDbEntity
  8
0
100
AcDbLine
 10
1367.206966868838
 20
-80.00000000005185
 30
0.0
 11
1367.206966868834
 21
79.99999999992906
 31
0.0
  0
LINE
  5
4682
330
1F
100
AcDbEntity
  8
0
100
AcDbLine
 10
1362.706966868838
 20
-80.00000000005275
 30
0.0
 11
1362.706966868834
 21
79.99999999993088
 31
0.0
  0
LINE
  5
4683
330
1F
100
AcDbEntity
  8
0
100
AcDbLine
 10
1371.706966868842
 20
-80.00000000004911
 30
0.0
 11
1371.706966868838
 21
79.99999999992815
 31
0.0
  0
LINE
  5
4684
330
1F
100
AcDbEntity
  8
0
100
AcDbLine
 10
1376.206966868838
 20
-80.00000000004821
 30
0.0
 11
1376.206966868838
 21
79.99999999992633
 31
0.0
  0
LINE
  5
4685
330
1F
100
AcDbEntity
  8
0
100
AcDbLine
 10
1380.706966868838
 20
-80.00000000004638
 30
0.0
 11
1380.706966868834
 21
79.99999999992542
 31
0.0
  0
LINE
  5
4686
330
1F
100
AcDbEntity
  8
0
100
AcDbLine
 10
1394.206966868838
 20
-80.00000000006002
 30
0.0
 11
1394.206966868838
 21
79.99999999993907
 31
0.0
  0
LINE
  5
4687
330
1F
100
AcDbEntity
  8
0
100
AcDbLine
 10
1332.686119514372
 20
79.99999999993907
 30
0.0
 11
1397.227814223315
 21
79.99999999991996
 31
0.0
  0
LINE
  5
4688
330
1F
100
AcDbEntity
  8
0
100
AcDbLine
 10
1328.956966868838
 20
73.54091814869935
 30
0.0
 11
1332.686119514372
 21
79.99999999993907
 31
0.0
  0
LINE
  5
4689
330
1F
100
AcDbEntity
  8
0
100
AcDbLine
 10
1400.956966868834
 20
73.54091814869935
 30
0.0
 11
1397.227814223315
 21
79.99999999991996
 31
0.0
  0
LINE
  5
468A
330
1F
100
AcDbEntity
  8
0
100
AcDbLine
 10
1400.956966868834
 20
69.89999999993961
 30
0.0
 11
1400.956966868834
 21
73.54091814869935
 31
0.0
  0
LINE
  5
468B
330
1F
100
AcDbEntity
  8
0
100
AcDbLine
 10
1400.956966868834
 20
69.8499999996211
 30
0.0
 11
1400.956966868834
 21
-73.54091814880939
 31
0.0
  0
ARC
  5
468C
330
1F
100
AcDbEntity
  8
0
100
AcDbCircle
 10
383.4569668688528
 20
70.39999999995143
 30
0.0
 40
0.5
100
AcDbArc
 50
180.0
 51
270.0
  0
LINE
  5
4695
330
1F
100
AcDbEntity
  8
0
100
AcDbLine
 10
1328.956966868834
 20
-73.5409181488103
 30
0.0
 11
1332.686119514372
 21
-80.00000000005002
 31
0.0
  0
LINE
  5
4696
330
1F
100
AcDbEntity
  8
0
100
AcDbLine
 10
1400.956966868834
 20
-73.54091814880939
 30
0.0
 11
1397.227814223304
 21
-80.00000000004092
 31
0.0
  0
LINE
  5
4697
330
1F
100
AcDbEntity
  8
0
100
AcDbLine
 10
1397.227814223304
 20
-80.00000000004092
 30
0.0
 11
1397.227814223304
 21
79.99999999993542
 31
0.0
  0
LINE
  5
4698
330
1F
100
AcDbEntity
  8
0
100
AcDbLine
 10
1332.686119514372
 20
79.99999999993907
 30
0.0
 11
1332.686119514375
 21
-80.00000000006094
 31
0.0
  0
LINE
  5
4699
330
1F
100
AcDbEntity
  8
0
  6
CENTER
100
AcDbLine
 10
319.9569668688491
 20
-0.0000000000500222
 30
0.0
 11
2409.956966868842
 21
-0.0000000000609361
 31
0.0
  0
LINE
  5
469A
330
1F
100
AcDbEntity
  8
0
100
AcDbLine
 10
339.9569668688528
 20
-97.50000000005094
 30
0.0
 11
339.9569668688128
 21
97.4999999999509
 31
0.0
  0
LINE
  5
469B
330
1F
100
AcDbEntity
  8
0
100
AcDbLine
 10
331.9569668688491
 20
-64.70000000004984
 30
0.0
 11
331.95696686882
 21
64.69999999994979
 31
0.0
  0
LINE
  5
469C
330
1F
100
AcDbEntity
  8
0
100
AcDbLine
 10
357.9569668688419
 20
-97.50000000005002
 30
0.0
 11
357.9569668689146
 21
97.4999999999509
 31
0.0
  0
LINE
  5
469D
330
1F
100
AcDbEntity
  8
0
  6
CENTER
100
AcDbLine
 10
335.9569668688491
 20
-85.00000000004911
 30
0.0
 11
386.9569668688491
 21
-85.00000000004911
 31
0.0
  0
LINE
  5
469E
330
1F
100
AcDbEntity
  8
0
100
AcDbLine
 10
339.9569668688491
 20
-97.50000000005002
 30
0.0
 11
357.9569668688491
 21
-97.50000000004911
 31
0.0
  0
LINE
  5
469F
330
1F
100
AcDbEntity
  8
0
100
AcDbLine
 10
357.9569668688491
 20
-75.50000000004911
 30
0.0
 11
360.9569668688491
 21
-75.50000000004911
 31
0.0
  0
LINE
  5
46A0
330
1F
100
AcDbEntity
  8
0
100
AcDbLine
 10
331.9569668688491
 20
-64.70000000004984
 30
0.0
 11
334.9569668688491
 21
-64.70000000004984
 31
0.0
  0
LINE
  5
46A1
330
1F
100
AcDbEntity
  8
0
100
AcDbLine
 10
382.9569668688528
 20
-97.50000000004911
 30
0.0
 11
382.9569668688273
 21
97.4999999999509
 31
0.0
  0
LINE
  5
46A2
330
1F
100
AcDbEntity
  8
0
100
AcDbLine
 10
360.9569668688491
 20
-97.50000000004911
 30
0.0
 11
360.9569668688491
 21
97.4999999999509
 31
0.0
  0
LINE
  5
46A3
330
1F
100
AcDbEntity
  8
0
100
AcDbLine
 10
360.9569668688491
 20
-97.50000000004911
 30
0.0
 11
382.9569668688492
 21
-97.50000000004911
 31
0.0
  0
LINE
  5
46A4
330
1F
100
AcDbEntity
  8
0
  6
CENTER
100
AcDbLine
 10
335.9569668688491
 20
84.99999999995088
 30
0.0
 11
386.9569668688491
 21
84.99999999994997
 31
0.0
  0
LINE
  5
46A5
330
1F
100
AcDbEntity
  8
0
100
AcDbLine
 10
339.9569668688491
 20
97.4999999999509
 30
0.0
 11
357.9569668688491
 21
97.4999999999509
 31
0.0
  0
LINE
  5
46A6
330
1F
100
AcDbEntity
  8
0
100
AcDbLine
 10
331.95696686882
 20
64.69999999994979
 30
0.0
 11
334.9569668688491
 21
64.69999999995071
 31
0.0
  0
LINE
  5
46A7
330
1F
100
AcDbEntity
  8
0
100
AcDbLine
 10
360.9569668688491
 20
97.4999999999509
 30
0.0
 11
382.9569668688492
 21
97.4999999999509
 31
0.0
  0
LINE
  5
46A8
330
1F
100
AcDbEntity
  8
0
100
AcDbLine
 10
1328.956966868853
 20
69.8999999999487
 30
0.0
 11
383.4569668688528
 21
69.89999999995143
 31
0.0
  0
LINE
  5
46A9
330
1F
100
AcDbEntity
  8
0
100
AcDbLine
 10
382.9569668688492
 20
-69.90000000005966
 30
0.0
 11
464.7850267802505
 21
-69.90000000005875
 31
0.0
  0
LINE
  5
46AA
330
1F
100
AcDbEntity
  8
0
100
AcDbLine
 10
543.1069668688433
 20
-69.9000000000966
 30
0.0
 11
1328.956966868853
 21
-69.90000000005057
 31
0.0
  0
LINE
  5
46AB
330
1F
100
AcDbEntity
  8
0
100
AcDbLine
 10
357.9569668688309
 20
75.49999999995361
 30
0.0
 11
360.9569668688491
 21
75.49999999995453
 31
0.0
  0
ARC
  5
46AC
330
1F
100
AcDbEntity
  8
0
100
AcDbCircle
 10
2394.956966868842
 20
69.69999999993888
 30
0.0
 40
5.0
100
AcDbArc
 50
180.0
 51
270.0
  0
ARC
  5
46AD
330
1F
100
AcDbEntity
  8
0
100
AcDbCircle
 10
2346.456966868839
 20
70.3999999999387
 30
0.0
 40
0.5
100
AcDbArc
 50
270.0
 51
0.0
  0
ARC
  5
46AE
330
1F
100
AcDbEntity
  8
0
100
AcDbCircle
 10
2394.956966868842
 20
-69.70000000006166
 30
0.0
 40
5.0
100
AcDbArc
 50
90.0
 51
180.0
  0
ARC
  5
46AF
330
1F
100
AcDbEntity
  8
0
100
AcDbCircle
 10
2346.456966868835
 20
-70.40000000006239
 30
0.0
 40
0.5
100
AcDbArc
 50
0.0
 51
90.0
  0
LINE
  5
46B0
330
1F
100
AcDbEntity
  8
0
100
AcDbLine
 10
2389.956966868835
 20
97.49999999993997
 30
0.0
 11
2389.956966868874
 21
-97.50000000006185
 31
0.0
  0
LINE
  5
46B1
330
1F
100
AcDbEntity
  8
0
100
AcDbLine
 10
2397.956966868842
 20
64.69999999993888
 30
0.0
 11
2397.956966868871
 21
-64.70000000006075
 31
0.0
  0
LINE
  5
46B2
330
1F
100
AcDbEntity
  8
0
100
AcDbLine
 10
2371.956966868849
 20
97.49999999993907
 30
0.0
 11
2371.956966868776
 21
-97.50000000006185
 31
0.0
  0
LINE
  5
46B3
330
1F
100
AcDbEntity
  8
0
  6
CENTER
100
AcDbLine
 10
2393.956966868842
 20
84.99999999993816
 30
0.0
 11
2342.956966868838
 21
84.99999999993816
 31
0.0
  0
LINE
  5
46B4
330
1F
100
AcDbEntity
  8
0
100
AcDbLine
 10
2389.956966868838
 20
97.49999999993907
 30
0.0
 11
2371.956966868842
 21
97.49999999993816
 31
0.0
  0
LINE
  5
46B5
330
1F
100
AcDbEntity
  8
0
100
AcDbLine
 10
2371.956966868838
 20
75.49999999993815
 30
0.0
 11
2368.956966868835
 21
75.49999999993815
 31
0.0
  0
LINE
  5
46B6
330
1F
100
AcDbEntity
  8
0
100
AcDbLine
 10
2397.956966868842
 20
64.69999999993888
 30
0.0
 11
2394.956966868842
 21
64.69999999993888
 31
0.0
  0
LINE
  5
46B7
330
1F
100
AcDbEntity
  8
0
100
AcDbLine
 10
2346.956966868835
 20
97.49999999993816
 30
0.0
 11
2346.956966868857
 21
-97.50000000006185
 31
0.0
  0
LINE
  5
46B8
330
1F
100
AcDbEntity
  8
0
100
AcDbLine
 10
2368.956966868835
 20
97.49999999993816
 30
0.0
 11
2368.956966868835
 21
-97.50000000006185
 31
0.0
  0
LINE
  5
46B9
330
1F
100
AcDbEntity
  8
0
100
AcDbLine
 10
2368.956966868835
 20
97.49999999993816
 30
0.0
 11
2346.956966868835
 21
97.49999999993816
 31
0.0
  0
LINE
  5
46BA
330
1F
100
AcDbEntity
  8
0
  6
CENTER
100
AcDbLine
 10
2393.956966868842
 20
-85.00000000006185
 30
0.0
 11
2342.956966868838
 21
-85.00000000006094
 31
0.0
  0
LINE
  5
46BB
330
1F
100
AcDbEntity
  8
0
100
AcDbLine
 10
2389.956966868842
 20
-97.50000000006185
 30
0.0
 11
2371.956966868842
 21
-97.50000000006185
 31
0.0
  0
LINE
  5
46BC
330
1F
100
AcDbEntity
  8
0
100
AcDbLine
 10
2397.956966868871
 20
-64.70000000006075
 30
0.0
 11
2394.956966868842
 21
-64.70000000006166
 31
0.0
  0
LINE
  5
46BD
330
1F
100
AcDbEntity
  8
0
100
AcDbLine
 10
2368.956966868835
 20
-97.50000000006185
 30
0.0
 11
2346.956966868835
 21
-97.50000000006185
 31
0.0
  0
LINE
  5
46BE
330
1F
100
AcDbEntity
  8
0
100
AcDbLine
 10
1400.956966868834
 20
-69.90000000006057
 30
0.0
 11
2346.456966868835
 21
-69.90000000006239
 31
0.0
  0
LINE
  5
46BF
330
1F
100
AcDbEntity
  8
0
100
AcDbLine
 10
2346.956966868835
 20
69.8999999999487
 30
0.0
 11
2263.106966868844
 21
69.89999999994833
 31
0.0
  0
LINE
  5
46C0
330
1F
100
AcDbEntity
  8
0
100
AcDbLine
 10
2186.806966868865
 20
69.89999999993199
 30
0.0
 11
1400.956966868834
 21
69.8999999999387
 31
0.0
  0
LINE
  5
46C1
330
1F
100
AcDbEntity
  8
0
100
AcDbLine
 10
2371.956966868856
 20
-75.50000000006457
 30
0.0
 11
2368.956966868835
 21
-75.50000000006548
 31
0.0
  0
LINE
  5
46C2
330
1F
100
AcDbEntity
  8
0
  6
CENTER
100
AcDbLine
 10
112.6236656295004
 20
-0.0000000000045475
 30
0.0
 11
-112.6236656295004
 21
0.000000000005457
 31
0.0
  0
LINE
  5
46C3
330
1F
100
AcDbEntity
  8
0
  6
CENTER
100
AcDbLine
 10
504.9569668688454
 20
-160.0000000000718
 30
0.0
 11
504.9569668688454
 21
-0.0000000000554792
 31
0.0
  0
LINE
  5
46C4
330
1F
100
AcDbEntity
  8
0
  6
CENTER
100
AcDbLine
 10
0.000000000007276
 20
158.0000000000054
 30
0.0
 11
-0.000000000007276
 21
-158.0000000000054
 31
0.0
  0
ARC
  5
46C8
330
1F
100
AcDbEntity
  8
0
100
AcDbCircle
 10
0.0
 20
0.0
 30
0.0
 40
64.69999999999981
100
AcDbArc
 50
279.2501971469501
 51
260.7498028530498
  0
ARC
  5
46CA
330
1F
100
AcDbEntity
  8
0
100
AcDbCircle
 10
334.9569668688491
 20
688.7132838053421
 30
0.0
 40
5.0
100
AcDbArc
 50
0.0
 51
90.0
  0
ARC
  5
46CB
330
1F
100
AcDbEntity
  8
0
100
AcDbCircle
 10
383.4569668688491
 20
688.0132838053423
 30
0.0
 40
0.5
100
AcDbArc
 50
90.0
 51
180.0
  0
ARC
  5
46CC
330
1F
100
AcDbEntity
  8
0
100
AcDbCircle
 10
334.9569668688491
 20
828.1132838053427
 30
0.0
 40
5.0
100
AcDbArc
 50
270.0
 51
0.0
  0
LINE
  5
46CD
330
1F
100
AcDbEntity
  8
0
100
AcDbLine
 10
1332.686119514372
 20
678.413283805331
 30
0.0
 11
1397.227814223304
 21
678.413283805351
 31
0.0
  0
LINE
  5
46CE
330
1F
100
AcDbEntity
  8
0
100
AcDbLine
 10
1344.706966868838
 20
678.4132838053338
 30
0.0
 11
1344.706966868834
 21
838.4132838053282
 31
0.0
  0
LINE
  5
46CF
330
1F
100
AcDbEntity
  8
0
100
AcDbLine
 10
1340.206966868838
 20
678.4132838053328
 30
0.0
 11
1340.206966868838
 21
838.4132838053291
 31
0.0
  0
LINE
  5
46D0
330
1F
100
AcDbEntity
  8
0
100
AcDbLine
 10
1349.206966868838
 20
678.4132838053364
 30
0.0
 11
1349.206966868834
 21
838.4132838053265
 31
0.0
  0
LINE
  5
46D1
330
1F
100
AcDbEntity
  8
0
100
AcDbLine
 10
1335.706966868838
 20
678.4132838053319
 30
0.0
 11
1335.706966868838
 21
838.4132838053311
 31
0.0
  0
LINE
  5
46D2
330
1F
100
AcDbEntity
  8
0
100
AcDbLine
 10
1358.206966868838
 20
678.4132838053383
 30
0.0
 11
1358.206966868838
 21
838.4132838053247
 31
0.0
  0
LINE
  5
46D3
330
1F
100
AcDbEntity
  8
0
100
AcDbLine
 10
1353.706966868834
 20
678.4132838053373
 30
0.0
 11
1353.706966868838
 21
838.4132838053256
 31
0.0
  0
LINE
  5
46D4
330
1F
100
AcDbEntity
  8
0
100
AcDbLine
 10
1328.956966868838
 20
684.8723656565717
 30
0.0
 11
1328.956966868838
 21
831.9542019540913
 31
0.0
  0
LINE
  5
46D5
330
1F
100
AcDbEntity
  8
0
100
AcDbLine
 10
1385.206966868842
 20
678.4132838053465
 30
0.0
 11
1385.206966868834
 21
838.4132838053156
 31
0.0
  0
LINE
  5
46D6
330
1F
100
AcDbEntity
  8
0
100
AcDbLine
 10
1389.706966868838
 20
678.4132838053474
 30
0.0
 11
1389.706966868838
 21
838.4132838053137
 31
0.0
  0
LINE
  5
46D7
330
1F
100
AcDbEntity
  8
0
100
AcDbLine
 10
1367.206966868838
 20
678.4132838053401
 30
0.0
 11
1367.206966868834
 21
838.413283805321
 31
0.0
  0
LINE
  5
46D8
330
1F
100
AcDbEntity
  8
0
100
AcDbLine
 10
1362.706966868838
 20
678.4132838053392
 30
0.0
 11
1362.706966868834
 21
838.4132838053229
 31
0.0
  0
LINE
  5
46D9
330
1F
100
AcDbEntity
  8
0
100
AcDbLine
 10
1371.706966868842
 20
678.4132838053428
 30
0.0
 11
1371.706966868838
 21
838.4132838053201
 31
0.0
  0
LINE
  5
46DA
330
1F
100
AcDbEntity
  8
0
100
AcDbLine
 10
1376.206966868838
 20
678.4132838053437
 30
0.0
 11
1376.206966868838
 21
838.4132838053183
 31
0.0
  0
LINE
  5
46DB
330
1F
100
AcDbEntity
  8
0
100
AcDbLine
 10
1380.706966868838
 20
678.4132838053456
 30
0.0
 11
1380.706966868834
 21
838.4132838053174
 31
0.0
  0
LINE
  5
46DC
330
1F
100
AcDbEntity
  8
0
100
AcDbLine
 10
1394.206966868838
 20
678.4132838053319
 30
0.0
 11
1394.206966868838
 21
838.4132838053311
 31
0.0
  0
LINE
  5
46DD
330
1F
100
AcDbEntity
  8
0
100
AcDbLine
 10
1332.686119514372
 20
838.4132838053311
 30
0.0
 11
1397.227814223315
 21
838.4132838053119
 31
0.0
  0
LINE
  5
46DE
330
1F
100
AcDbEntity
  8
0
100
AcDbLine
 10
1328.956966868838
 20
831.9542019540913
 30
0.0
 11
1332.686119514372
 21
838.4132838053311
 31
0.0
  0
LINE
  5
46DF
330
1F
100
AcDbEntity
  8
0
100
AcDbLine
 10
1400.956966868834
 20
831.9542019540913
 30
0.0
 11
1397.227814223315
 21
838.4132838053119
 31
0.0
  0
LINE
  5
46E0
330
1F
100
AcDbEntity
  8
0
100
AcDbLine
 10
1400.956966868834
 20
828.3132838053315
 30
0.0
 11
1400.956966868834
 21
831.9542019540913
 31
0.0
  0
LINE
  5
46E1
330
1F
100
AcDbEntity
  8
0
100
AcDbLine
 10
1400.956966868834
 20
828.263283805013
 30
0.0
 11
1400.956966868834
 21
684.8723656565826
 31
0.0
  0
ARC
  5
46E2
330
1F
100
AcDbEntity
  8
0
100
AcDbCircle
 10
383.4569668688528
 20
828.8132838053433
 30
0.0
 40
0.5
100
AcDbArc
 50
180.0
 51
270.0
  0
LINE
  5
46E3
330
1F
100
AcDbEntity
  8
0
100
AcDbLine
 10
1328.956966868834
 20
684.8723656565816
 30
0.0
 11
1332.686119514372
 21
678.413283805342
 31
0.0
  0
LINE
  5
46E4
330
1F
100
AcDbEntity
  8
0
100
AcDbLine
 10
1400.956966868834
 20
684.8723656565826
 30
0.0
 11
1397.227814223304
 21
678.413283805351
 31
0.0
  0
LINE
  5
46E5
330
1F
100
AcDbEntity
  8
0
100
AcDbLine
 10
1397.227814223304
 20
678.413283805351
 30
0.0
 11
1397.227814223304
 21
838.4132838053274
 31
0.0
  0
LINE
  5
46E6
330
1F
100
AcDbEntity
  8
0
100
AcDbLine
 10
1332.686119514372
 20
838.4132838053311
 30
0.0
 11
1332.686119514375
 21
678.413283805331
 31
0.0
  0
LINE
  5
46E8
330
1F
100
AcDbEntity
  8
0
100
AcDbLine
 10
339.9569668688528
 20
660.913283805341
 30
0.0
 11
339.9569668688128
 21
855.9132838053429
 31
0.0
  0
LINE
  5
46E9
330
1F
100
AcDbEntity
  8
0
100
AcDbLine
 10
331.9569668688491
 20
693.7132838053421
 30
0.0
 11
331.95696686882
 21
823.1132838053417
 31
0.0
  0
LINE
  5
46EA
330
1F
100
AcDbEntity
  8
0
100
AcDbLine
 10
357.9569668688419
 20
660.9132838053419
 30
0.0
 11
357.9569668689146
 21
855.9132838053429
 31
0.0
  0
LINE
  5
46EB
330
1F
100
AcDbEntity
  8
0
  6
CENTER
100
AcDbLine
 10
335.9569668688491
 20
673.4132838053429
 30
0.0
 11
386.9569668688491
 21
673.4132838053429
 31
0.0
  0
LINE
  5
46EC
330
1F
100
AcDbEntity
  8
0
100
AcDbLine
 10
339.9569668688491
 20
660.9132838053419
 30
0.0
 11
357.9569668688491
 21
660.9132838053429
 31
0.0
  0
LINE
  5
46ED
330
1F
100
AcDbEntity
  8
0
100
AcDbLine
 10
357.9569668688491
 20
682.9132838053428
 30
0.0
 11
360.9569668688491
 21
682.9132838053428
 31
0.0
  0
LINE
  5
46EE
330
1F
100
AcDbEntity
  8
0
100
AcDbLine
 10
331.9569668688491
 20
693.7132838053421
 30
0.0
 11
334.9569668688491
 21
693.7132838053421
 31
0.0
  0
LINE
  5
46EF
330
1F
100
AcDbEntity
  8
0
100
AcDbLine
 10
382.9569668688528
 20
660.9132838053429
 30
0.0
 11
382.9569668688273
 21
855.9132838053429
 31
0.0
  0
LINE
  5
46F0
330
1F
100
AcDbEntity
  8
0
100
AcDbLine
 10
360.9569668688491
 20
660.9132838053429
 30
0.0
 11
360.9569668688491
 21
855.9132838053429
 31
0.0
  0
LINE
  5
46F1
330
1F
100
AcDbEntity
  8
0
100
AcDbLine
 10
360.9569668688491
 20
660.9132838053429
 30
0.0
 11
382.9569668688492
 21
660.9132838053429
 31
0.0
  0
LINE
  5
46F2
330
1F
100
AcDbEntity
  8
0
  6
CENTER
100
AcDbLine
 10
335.9569668688491
 20
843.4132838053429
 30
0.0
 11
386.9569668688491
 21
843.413283805342
 31
0.0
  0
LINE
  5
46F3
330
1F
100
AcDbEntity
  8
0
100
AcDbLine
 10
339.9569668688491
 20
855.9132838053429
 30
0.0
 11
357.9569668688491
 21
855.9132838053429
 31
0.0
  0
LINE
  5
46F4
330
1F
100
AcDbEntity
  8
0
100
AcDbLine
 10
331.95696686882
 20
823.1132838053417
 30
0.0
 11
334.9569668688491
 21
823.1132838053426
 31
0.0
  0
LINE
  5
46F5
330
1F
100
AcDbEntity
  8
0
100
AcDbLine
 10
360.9569668688491
 20
855.9132838053429
 30
0.0
 11
382.9569668688492
 21
855.9132838053429
 31
0.0
  0
LINE
  5
46F6
330
1F
100
AcDbEntity
  8
0
100
AcDbLine
 10
1328.956966868853
 20
828.3132838053406
 30
0.0
 11
383.4569668688528
 21
828.3132838053434
 31
0.0
  0
LINE
  5
46F7
330
1F
100
AcDbEntity
  8
0
100
AcDbLine
 10
382.9569668688492
 20
688.5132838053323
 30
0.0
 11
1328.956966868853
 21
688.5132838053414
 31
0.0
  0
LINE
  5
46F8
330
1F
100
AcDbEntity
  8
0
100
AcDbLine
 10
357.9569668688309
 20
833.9132838053455
 30
0.0
 11
360.9569668688491
 21
833.9132838053465
 31
0.0
  0
ARC
  5
46F9
330
1F
100
AcDbEntity
  8
0
100
AcDbCircle
 10
2394.956966868842
 20
828.1132838053308
 30
0.0
 40
5.0
100
AcDbArc
 50
180.0
 51
270.0
  0
ARC
  5
46FA
330
1F
100
AcDbEntity
  8
0
100
AcDbCircle
 10
2346.456966868839
 20
828.8132838053307
 30
0.0
 40
0.5
100
AcDbArc
 50
270.0
 51
0.0
  0
ARC
  5
46FB
330
1F
100
AcDbEntity
  8
0
100
AcDbCircle
 10
2394.956966868842
 20
688.7132838053303
 30
0.0
 40
5.0
100
AcDbArc
 50
90.0
 51
180.0
  0
ARC
  5
46FC
330
1F
100
AcDbEntity
  8
0
100
AcDbCircle
 10
2346.456966868835
 20
688.0132838053295
 30
0.0
 40
0.5
100
AcDbArc
 50
0.0
 51
90.0
  0
LINE
  5
46FD
330
1F
100
AcDbEntity
  8
0
100
AcDbLine
 10
2389.956966868835
 20
855.9132838053319
 30
0.0
 11
2389.956966868874
 21
660.9132838053301
 31
0.0
  0
LINE
  5
46FE
330
1F
100
AcDbEntity
  8
0
100
AcDbLine
 10
2397.956966868842
 20
823.1132838053309
 30
0.0
 11
2397.956966868871
 21
693.7132838053312
 31
0.0
  0
LINE
  5
46FF
330
1F
100
AcDbEntity
  8
0
100
AcDbLine
 10
2371.956966868849
 20
855.913283805331
 30
0.0
 11
2371.956966868776
 21
660.9132838053301
 31
0.0
  0
LINE
  5
4700
330
1F
100
AcDbEntity
  8
0
  6
CENTER
100
AcDbLine
 10
2393.956966868842
 20
843.4132838053301
 30
0.0
 11
2342.956966868838
 21
843.4132838053301
 31
0.0
  0
LINE
  5
4701
330
1F
100
AcDbEntity
  8
0
100
AcDbLine
 10
2389.956966868838
 20
855.913283805331
 30
0.0
 11
2371.956966868842
 21
855.9132838053301
 31
0.0
  0
LINE
  5
4702
330
1F
100
AcDbEntity
  8
0
100
AcDbLine
 10
2371.956966868838
 20
833.91328380533
 30
0.0
 11
2368.956966868835
 21
833.91328380533
 31
0.0
  0
LINE
  5
4703
330
1F
100
AcDbEntity
  8
0
100
AcDbLine
 10
2397.956966868842
 20
823.1132838053309
 30
0.0
 11
2394.956966868842
 21
823.1132838053309
 31
0.0
  0
LINE
  5
4704
330
1F
100
AcDbEntity
  8
0
100
AcDbLine
 10
2346.956966868835
 20
855.9132838053301
 30
0.0
 11
2346.956966868857
 21
660.9132838053301
 31
0.0
  0
LINE
  5
4705
330
1F
100
AcDbEntity
  8
0
100
AcDbLine
 10
2368.956966868835
 20
855.9132838053301
 30
0.0
 11
2368.956966868835
 21
660.9132838053301
 31
0.0
  0
LINE
  5
4706
330
1F
100
AcDbEntity
  8
0
100
AcDbLine
 10
2368.956966868835
 20
855.9132838053301
 30
0.0
 11
2346.956966868835
 21
855.9132838053301
 31
0.0
  0
LINE
  5
4707
330
1F
100
AcDbEntity
  8
0
  6
CENTER
100
AcDbLine
 10
2393.956966868842
 20
673.4132838053301
 30
0.0
 11
2342.956966868838
 21
673.413283805331
 31
0.0
  0
LINE
  5
4708
330
1F
100
AcDbEntity
  8
0
100
AcDbLine
 10
2389.956966868842
 20
660.9132838053301
 30
0.0
 11
2371.956966868842
 21
660.9132838053301
 31
0.0
  0
LINE
  5
4709
330
1F
100
AcDbEntity
  8
0
100
AcDbLine
 10
2397.956966868871
 20
693.7132838053312
 30
0.0
 11
2394.956966868842
 21
693.7132838053303
 31
0.0
  0
LINE
  5
470A
330
1F
100
AcDbEntity
  8
0
100
AcDbLine
 10
2368.956966868835
 20
660.9132838053301
 30
0.0
 11
2346.956966868835
 21
660.9132838053301
 31
0.0
  0
LINE
  5
470B
330
1F
100
AcDbEntity
  8
0
100
AcDbLine
 10
1400.956966868834
 20
688.5132838053314
 30
0.0
 11
2172.323897416271
 21
688.5132838053306
 31
0.0
  0
LINE
  5
470C
330
1F
100
AcDbEntity
  8
0
100
AcDbLine
 10
2280.385792019636
 20
688.5132838053302
 30
0.0
 11
2346.456966868835
 21
688.5132838053295
 31
0.0
  0
LINE
  5
470D
330
1F
100
AcDbEntity
  8
0
100
AcDbLine
 10
2346.956966868835
 20
828.3132838053406
 30
0.0
 11
2278.353473933493
 21
828.3132838053406
 31
0.0
  0
LINE
  5
470E
330
1F
100
AcDbEntity
  8
0
100
AcDbLine
 10
2172.323897416266
 20
828.3132838053386
 30
0.0
 11
1400.956966868834
 21
828.3132838053306
 31
0.0
  0
LINE
  5
470F
330
1F
100
AcDbEntity
  8
0
100
AcDbLine
 10
2371.956966868856
 20
682.9132838053274
 30
0.0
 11
2368.956966868835
 21
682.9132838053265
 31
0.0
  0
LINE
  5
4846
330
1F
100
AcDbEntity
  8
0
100
AcDbLine
 10
466.8069668688477
 20
-132.0000000000554
 30
0.0
 11
466.8069668688477
 21
-69.90000000005875
 31
0.0
  0
LINE
  5
4847
330
1F
100
AcDbEntity
  8
0
100
AcDbLine
 10
543.1069668688469
 20
-132.0000000000554
 30
0.0
 11
543.1069668688433
 21
-69.90000000005784
 31
0.0
  0
LINE
  5
4848
330
1F
100
AcDbEntity
  8
0
100
AcDbLine
 10
417.4569668688454
 20
-132.0000000000554
 30
0.0
 11
592.4569668688454
 21
-132.0000000000554
 31
0.0
  0
LINE
  5
4849
330
1F
100
AcDbEntity
  8
0
100
AcDbLine
 10
592.4569668688454
 20
-150.0000000000555
 30
0.0
 11
417.4569668688454
 21
-150.0000000000555
 31
0.0
  0
LINE
  5
484A
330
1F
100
AcDbEntity
  8
0
100
AcDbLine
 10
592.4569668688454
 20
-132.0000000000554
 30
0.0
 11
592.4569668688454
 21
-150.0000000000555
 31
0.0
  0
LINE
  5
484B
330
1F
100
AcDbEntity
  8
0
  6
CENTER
100
AcDbLine
 10
574.9569668688454
 20
-158.0000000000555
 30
0.0
 11
574.9569668688454
 21
-122.0000000000555
 31
0.0
  0
LINE
  5
484E
330
1F
100
AcDbEntity
  8
0
100
AcDbLine
 10
417.4569668688454
 20
-150.0000000000555
 30
0.0
 11
417.4569668688454
 21
-132.0000000000554
 31
0.0
  0
LINE
  5
484F
330
1F
100
AcDbEntity
  8
0
  6
CENTER
100
AcDbLine
 10
434.9569668688454
 20
-158.0000000000555
 30
0.0
 11
434.9569668688454
 21
-122.0000000000555
 31
0.0
  0
ARC
  5
4852
330
1F
100
AcDbEntity
  8
0
100
AcDbCircle
 10
504.9569668688454
 20
-128.4712173341831
 30
0.0
 40
69.90000000000939
100
AcDbArc
 50
56.92203929027501
 51
123.077960709725
  0
LINE
  5
4853
330
1F
100
AcDbEntity
  8
0
  6
CENTER
100
AcDbLine
 10
2224.956966868842
 20
159.9999999999609
 30
0.0
 11
2224.956966868842
 21
-0.0000000000554792
 31
0.0
  0
LINE
  5
4854
330
1F
100
AcDbEntity
  8
0
100
AcDbLine
 10
2263.106966868843
 20
131.9999999999445
 30
0.0
 11
2263.106966868843
 21
69.89999999994779
 31
0.0
  0
LINE
  5
4855
330
1F
100
AcDbEntity
  8
0
100
AcDbLine
 10
2186.80696686884
 20
131.9999999999445
 30
0.0
 11
2186.80696686884
 21
69.89999999994688
 31
0.0
  0
LINE
  5
4856
330
1F
100
AcDbEntity
  8
0
100
AcDbLine
 10
2312.456966868842
 20
131.9999999999445
 30
0.0
 11
2137.456966868842
 21
131.9999999999445
 31
0.0
  0
LINE
  5
4857
330
1F
100
AcDbEntity
  8
0
100
AcDbLine
 10
2137.456966868842
 20
149.9999999999445
 30
0.0
 11
2312.456966868842
 21
149.9999999999445
 31
0.0
  0
LINE
  5
4858
330
1F
100
AcDbEntity
  8
0
100
AcDbLine
 10
2137.456966868842
 20
131.9999999999445
 30
0.0
 11
2137.456966868842
 21
149.9999999999445
 31
0.0
  0
LINE
  5
4859
330
1F
100
AcDbEntity
  8
0
  6
CENTER
100
AcDbLine
 10
2154.956966868842
 20
157.9999999999445
 30
0.0
 11
2154.956966868842
 21
121.9999999999445
 31
0.0
  0
LINE
  5
485C
330
1F
100
AcDbEntity
  8
0
100
AcDbLine
 10
2312.456966868842
 20
149.9999999999445
 30
0.0
 11
2312.456966868842
 21
131.9999999999445
 31
0.0
  0
LINE
  5
485D
330
1F
100
AcDbEntity
  8
0
  6
CENTER
100
AcDbLine
 10
2294.956966868842
 20
157.9999999999445
 30
0.0
 11
2294.956966868842
 21
121.9999999999445
 31
0.0
  0
ARC
  5
4860
330
1F
100
AcDbEntity
  8
0
100
AcDbCircle
 10
2224.956966868842
 20
128.4712173340722
 30
0.0
 40
69.90000000000939
100
AcDbArc
 50
236.922039290275
 51
303.077960709725
  0
LINE
  5
4861
330
1F
100
AcDbEntity
  8
0
  6
CENTER
100
AcDbLine
 10
2224.956966868842
 20
862.0787737447944
 30
0.0
 11
2224.956966868842
 21
654.7477938658694
 31
0.0
  0
LINE
  5
4862
330
1F
100
AcDbEntity
  8
0
  6
CENTER
100
AcDbLine
 10
2189.248074418919
 20
794.1221762552568
 30
0.0
 11
2161.670909952645
 21
821.6993407215332
 31
0.0
  0
LINE
  5
4863
330
1F
100
AcDbEntity
  8
0
  6
CENTER
100
AcDbLine
 10
2189.248074418919
 20
722.7043913554162
 30
0.0
 11
2161.670909952645
 21
695.1272268891398
 31
0.0
  0
LINE
  5
4864
330
1F
100
AcDbEntity
  8
0
  6
CENTER
100
AcDbLine
 10
2260.66585931876
 20
794.1221762552568
 30
0.0
 11
2288.243023785039
 21
821.6993407215332
 31
0.0
  0
LINE
  5
4865
330
1F
100
AcDbEntity
  8
0
  6
CENTER
100
AcDbLine
 10
2260.66585931876
 20
722.7043913554162
 30
0.0
 11
2288.243023785039
 21
695.1272268891398
 31
0.0
  0
LINE
  5
4866
330
1F
100
AcDbEntity
  8
0
  6
CENTER
100
AcDbLine
 10
504.9569668688454
 20
862.0787737447944
 30
0.0
 11
504.9569668688454
 21
654.7477938658694
 31
0.0
  0
ARC
  5
4867
330
1F
100
AcDbEntity
  8
0
100
AcDbCircle
 10
504.9569668688454
 20
758.4132838053364
 30
0.0
 40
87.5
100
AcDbArc
 50
53.02110570341922
 51
126.9788942965808
  0
ARC
  5
4868
330
1F
100
AcDbEntity
  8
0
100
AcDbCircle
 10
504.9569668688454
 20
758.4132838053364
 30
0.0
 40
87.5
100
AcDbArc
 50
233.0211057034192
 51
306.9788942965808
  0
LINE
  5
48AF
330
1F
100
AcDbEntity
  8
0
100
AcDbLine
 10
-38.15000000000873
 20
-132.0000000000036
 30
0.0
 11
-38.15000000000509
 21
-89.72640358333682
 31
0.0
  0
LINE
  5
48B0
330
1F
100
AcDbEntity
  8
0
100
AcDbLine
 10
38.14999999999418
 20
-132.0000000000073
 30
0.0
 11
38.14999999999782
 21
-89.72640358334047
 31
0.0
  0
LINE
  5
48B1
330
1F
100
AcDbEntity
  8
0
100
AcDbLine
 10
-87.50000000000728
 20
-132.0000000000009
 30
0.0
 11
87.49999999999273
 21
-132.0000000000091
 31
0.0
  0
LINE
  5
48B2
330
1F
100
AcDbEntity
  8
0
100
AcDbLine
 10
87.49999999999273
 20
-150.0000000000091
 30
0.0
 11
-87.50000000000728
 21
-150.0000000000009
 31
0.0
  0
LINE
  5
48B3
330
1F
100
AcDbEntity
  8
0
100
AcDbLine
 10
87.49999999999273
 20
-132.0000000000091
 30
0.0
 11
87.49999999999273
 21
-150.0000000000091
 31
0.0
  0
LINE
  5
48B4
330
1F
100
AcDbEntity
  8
0
  6
CENTER
100
AcDbLine
 10
69.99999999999272
 20
-158.0000000000081
 30
0.0
 11
69.99999999999272
 21
-122.0000000000082
 31
0.0
  0
LINE
  5
48B7
330
1F
100
AcDbEntity
  8
0
100
AcDbLine
 10
-87.50000000000728
 20
-150.0000000000009
 30
0.0
 11
-87.50000000000728
 21
-132.0000000000009
 31
0.0
  0
LINE
  5
48B8
330
1F
100
AcDbEntity
  8
0
  6
CENTER
100
AcDbLine
 10
-70.00000000000728
 20
-158.0000000000018
 30
0.0
 11
-70.00000000000728
 21
-122.0000000000018
 31
0.0
  0
LINE
  5
48BB
330
1F
100
AcDbEntity
  8
0
100
AcDbLine
 10
-38.14999999999782
 20
132.0000000000073
 30
0.0
 11
-38.14999999999782
 21
89.72640358334047
 31
0.0
  0
LINE
  5
48BC
330
1F
100
AcDbEntity
  8
0
100
AcDbLine
 10
38.15000000000509
 20
132.0000000000036
 30
0.0
 11
38.15000000000509
 21
89.72640358333682
 31
0.0
  0
LINE
  5
48BD
330
1F
100
AcDbEntity
  8
0
100
AcDbLine
 10
-87.49999999999635
 20
132.00000000001
 30
0.0
 11
87.50000000000364
 21
132.0000000000018
 31
0.0
  0
LINE
  5
48BE
330
1F
100
AcDbEntity
  8
0
100
AcDbLine
 10
87.50000000000728
 20
150.0000000000018
 30
0.0
 11
-87.49999999999273
 21
150.00000000001
 31
0.0
  0
LINE
  5
48BF
330
1F
100
AcDbEntity
  8
0
100
AcDbLine
 10
87.50000000000364
 20
132.0000000000018
 30
0.0
 11
87.50000000000728
 21
150.0000000000018
 31
0.0
  0
LINE
  5
48C0
330
1F
100
AcDbEntity
  8
0
  6
CENTER
100
AcDbLine
 10
70.00000000000728
 20
158.0000000000027
 30
0.0
 11
70.00000000000364
 21
122.0000000000027
 31
0.0
  0
LINE
  5
48C3
330
1F
100
AcDbEntity
  8
0
100
AcDbLine
 10
-87.49999999999273
 20
150.00000000001
 30
0.0
 11
-87.49999999999635
 21
132.00000000001
 31
0.0
  0
LINE
  5
48C4
330
1F
100
AcDbEntity
  8
0
  6
CENTER
100
AcDbLine
 10
-69.99999999999272
 20
158.0000000000091
 30
0.0
 11
-69.99999999999636
 21
122.0000000000091
 31
0.0
  0
TEXT
  5
48C9
330
1F
100
AcDbEntity
  8
0
100
AcDbText
 10
922.0998240117062
 20
926.5632838052507
 30
0.0
 40
50.0
  1
125AX2000L-65AX1.5S
 72
     4
 11
1364.956966868849
 21
951.5632838052507
 31
0.0
100
AcDbText
  0
LINE
  5
5189
330
1F
100
AcDbEntity
  8
0
  6
CENTER
100
AcDbLine
 10
32.60082756530392
 20
-40.85000000000127
 30
0.0
 11
-32.60082756531119
 21
-40.84999999999854
 31
0.0
  0
ARC
  5
518F
330
1F
100
AcDbEntity
  8
0
100
AcDbCircle
 10
316.4639973977064
 20
-19.80000000004929
 30
0.0
 40
2.0
100
AcDbArc
 50
200.0000000001139
 51
270.0
1001
GENIUS_GENOBJ-N-FIL_13
1002
{
1000
OWNER
1000
GEN
1002
}
1001
GENIUS_GENODEF_13
1002
{
1000
HIER
1070
     0
1002
}
1002
{
1000
MANEDIT
1070
     0
1002
}
1002
{
1000
NOSEL
1070
     0
1002
}
1002
{
1000
BEHIND
1070
     0
1002
}
1002
{
1000
OTHER
1070
     0
1002
}
1002
{
1000
REACTOR
1002
}
  0
ARC
  5
5192
330
1F
100
AcDbEntity
  8
0
100
AcDbCircle
 10
312.2468008382711
 20
-16.40000000004966
 30
0.0
 40
0.8
100
AcDbArc
 50
20.00000000011391
 51
90.0
1001
GENIUS_GENOBJ-N-FIL_13
1002
{
1000
OWNER
1000
GEN
1002
}
1001
GENIUS_GENODEF_13
1002
{
1000
HIER
1070
     0
1002
}
1002
{
1000
MANEDIT
1070
     0
1002
}
1002
{
1000
NOSEL
1070
     0
1002
}
1002
{
1000
BEHIND
1070
     0
1002
}
1002
{
1000
OTHER
1070
     0
1002
}
1002
{
1000
REACTOR
1002
}
  0
ARC
  5
5194
330
1F
100
AcDbEntity
  8
0
100
AcDbCircle
 10
316.4639973977064
 20
-61.90000000004966
 30
0.0
 40
2.0
100
AcDbArc
 50
90.0
 51
159.9999999998861
1001
GENIUS_GENOBJ-N-FIL_13
1002
{
1000
OWNER
1000
GEN
1002
}
1001
GENIUS_GENODEF_13
1002
{
1000
HIER
1070
     0
1002
}
1002
{
1000
MANEDIT
1070
     0
1002
}
1002
{
1000
NOSEL
1070
     0
1002
}
1002
{
1000
BEHIND
1070
     0
1002
}
1002
{
1000
OTHER
1070
     0
1002
}
1002
{
1000
REACTOR
1002
}
  0
ARC
  5
5197
330
1F
100
AcDbEntity
  8
0
100
AcDbCircle
 10
312.2468008382711
 20
-65.30000000004929
 30
0.0
 40
0.8
100
AcDbArc
 50
270.0
 51
339.9999999998861
1001
GENIUS_GENOBJ-N-FIL_13
1002
{
1000
OWNER
1000
GEN
1002
}
1001
GENIUS_GENODEF_13
1002
{
1000
HIER
1070
     0
1002
}
1002
{
1000
MANEDIT
1070
     0
1002
}
1002
{
1000
NOSEL
1070
     0
1002
}
1002
{
1000
BEHIND
1070
     0
1002
}
1002
{
1000
OTHER
1070
     0
1002
}
1002
{
1000
REACTOR
1002
}
  0
LINE
  5
5198
330
1F
100
AcDbEntity
  8
0
100
AcDbLine
 10
315.0635824965029
 20
-59.57028584849286
 30
0.0
 11
315.0635824965029
 21
-22.129714151607
 31
0.0
  0
LINE
  5
5199
330
1F
100
AcDbEntity
  8
0
100
AcDbLine
 10
309.9569668688382
 20
-66.10000000004948
 30
0.0
 11
309.9569668688382
 21
-15.60000000004947
 31
0.0
  0
LINE
  5
519A
330
1F
100
AcDbEntity
  8
0
100
AcDbLine
 10
312.8069668688368
 20
-65.29734571804602
 30
0.0
 11
312.8069668688368
 21
-16.40265428205293
 31
0.0
  0
LINE
  5
519B
330
1F
100
AcDbEntity
  8
0
  6
CENTER
100
AcDbLine
 10
306.8082241477823
 20
-40.85000000004948
 30
0.0
 11
337.9119899597208
 21
-40.85000000004948
 31
0.0
  0
LINE
  5
519C
330
1F
100
AcDbEntity
  8
0
100
AcDbLine
 10
316.4639973977064
 20
-21.80000000004929
 30
0.0
 11
331.9569668688418
 21
-21.80000000004929
 31
0.0
  0
LINE
  5
519E
330
1F
100
AcDbEntity
  8
0
100
AcDbLine
 10
309.9569668688382
 20
-15.60000000004947
 30
0.0
 11
312.2468008382711
 21
-15.60000000004947
 31
0.0
  0
LINE
  5
519F
330
1F
100
AcDbEntity
  8
0
100
AcDbLine
 10
312.9985549349003
 20
-16.12638388538926
 30
0.0
 11
314.5846121561372
 21
-20.4840402867012
 31
0.0
  0
LINE
  5
51A1
330
1F
100
AcDbEntity
  8
0
100
AcDbLine
 10
316.4639973977064
 20
-59.90000000004966
 30
0.0
 11
331.9569668688418
 21
-59.90000000004966
 31
0.0
  0
LINE
  5
51A3
330
1F
100
AcDbEntity
  8
0
100
AcDbLine
 10
309.9569668688382
 20
-66.10000000004948
 30
0.0
 11
312.2468008382711
 21
-66.10000000004948
 31
0.0
  0
LINE
  5
51A4
330
1F
100
AcDbEntity
  8
0
100
AcDbLine
 10
312.9985549349003
 20
-65.5736161147097
 30
0.0
 11
314.5846121561372
 21
-61.21595971339775
 31
0.0
  0
ARC
  5
51AB
330
1F
100
AcDbEntity
  8
0
100
AcDbCircle
 10
2413.449936339977
 20
19.79999999993833
 30
0.0
 40
2.0
100
AcDbArc
 50
20.00000000006494
 51
90.0
1001
GENIUS_GENOBJ-N-FIL_13
1002
{
1000
OWNER
1000
GEN
1002
}
1001
GENIUS_GENODEF_13
1002
{
1000
HIER
1070
     0
1002
}
1002
{
1000
MANEDIT
1070
     0
1002
}
1002
{
1000
NOSEL
1070
     0
1002
}
1002
{
1000
BEHIND
1070
     0
1002
}
1002
{
1000
OTHER
1070
     0
1002
}
1002
{
1000
REACTOR
1002
}
  0
ARC
  5
51AE
330
1F
100
AcDbEntity
  8
0
100
AcDbCircle
 10
2417.667132899413
 20
16.3999999999387
 30
0.0
 40
0.8
100
AcDbArc
 50
200.0000000000649
 51
270.0
1001
GENIUS_GENOBJ-N-FIL_13
1002
{
1000
OWNER
1000
GEN
1002
}
1001
GENIUS_GENODEF_13
1002
{
1000
HIER
1070
     0
1002
}
1002
{
1000
MANEDIT
1070
     0
1002
}
1002
{
1000
NOSEL
1070
     0
1002
}
1002
{
1000
BEHIND
1070
     0
1002
}
1002
{
1000
OTHER
1070
     0
1002
}
1002
{
1000
REACTOR
1002
}
  0
ARC
  5
51B0
330
1F
100
AcDbEntity
  8
0
100
AcDbCircle
 10
2413.449936339977
 20
61.8999999999387
 30
0.0
 40
2.0
100
AcDbArc
 50
270.0
 51
339.999999999935
1001
GENIUS_GENOBJ-N-FIL_13
1002
{
1000
OWNER
1000
GEN
1002
}
1001
GENIUS_GENODEF_13
1002
{
1000
HIER
1070
     0
1002
}
1002
{
1000
MANEDIT
1070
     0
1002
}
1002
{
1000
NOSEL
1070
     0
1002
}
1002
{
1000
BEHIND
1070
     0
1002
}
1002
{
1000
OTHER
1070
     0
1002
}
1002
{
1000
REACTOR
1002
}
  0
ARC
  5
51B3
330
1F
100
AcDbEntity
  8
0
100
AcDbCircle
 10
2417.667132899413
 20
65.29999999993833
 30
0.0
 40
0.8
100
AcDbArc
 50
90.0
 51
159.999999999935
1001
GENIUS_GENOBJ-N-FIL_13
1002
{
1000
OWNER
1000
GEN
1002
}
1001
GENIUS_GENODEF_13
1002
{
1000
HIER
1070
     0
1002
}
1002
{
1000
MANEDIT
1070
     0
1002
}
1002
{
1000
NOSEL
1070
     0
1002
}
1002
{
1000
BEHIND
1070
     0
1002
}
1002
{
1000
OTHER
1070
     0
1002
}
1002
{
1000
REACTOR
1002
}
  0
LINE
  5
51B4
330
1F
100
AcDbEntity
  8
0
100
AcDbLine
 10
2414.850351241181
 20
59.5702858483819
 30
0.0
 11
2414.850351241181
 21
22.12971415149604
 31
0.0
  0
LINE
  5
51B5
330
1F
100
AcDbEntity
  8
0
100
AcDbLine
 10
2419.956966868845
 20
66.09999999993942
 30
0.0
 11
2419.956966868845
 21
15.59999999993943
 31
0.0
  0
LINE
  5
51B6
330
1F
100
AcDbEntity
  8
0
100
AcDbLine
 10
2417.106966868847
 20
65.29734571793506
 30
0.0
 11
2417.106966868847
 21
16.40265428194197
 31
0.0
  0
LINE
  5
51B7
330
1F
100
AcDbEntity
  8
0
  6
CENTER
100
AcDbLine
 10
2423.105709589902
 20
40.84999999993942
 30
0.0
 11
2392.001943777963
 21
40.84999999993942
 31
0.0
  0
LINE
  5
51B8
330
1F
100
AcDbEntity
  8
0
100
AcDbLine
 10
2413.449936339977
 20
21.79999999993833
 30
0.0
 11
2397.956966868842
 21
21.79999999993833
 31
0.0
  0
LINE
  5
51BA
330
1F
100
AcDbEntity
  8
0
100
AcDbLine
 10
2419.956966868845
 20
15.59999999993943
 30
0.0
 11
2417.667132899413
 21
15.59999999993943
 31
0.0
  0
LINE
  5
51BB
330
1F
100
AcDbEntity
  8
0
100
AcDbLine
 10
2416.915378802784
 20
16.1263838852783
 30
0.0
 11
2415.329321581547
 21
20.48404028659025
 31
0.0
  0
LINE
  5
51BD
330
1F
100
AcDbEntity
  8
0
100
AcDbLine
 10
2413.449936339977
 20
59.8999999999387
 30
0.0
 11
2397.956966868842
 21
59.8999999999387
 31
0.0
  0
LINE
  5
51BF
330
1F
100
AcDbEntity
  8
0
100
AcDbLine
 10
2419.956966868845
 20
66.09999999993942
 30
0.0
 11
2417.667132899413
 21
66.09999999993942
 31
0.0
  0
LINE
  5
51C0
330
1F
100
AcDbEntity
  8
0
100
AcDbLine
 10
2416.915378802784
 20
65.57361611459874
 30
0.0
 11
2415.329321581547
 21
61.2159597132877
 31
0.0
  0
ARC
  5
51C6
330
1F
100
AcDbEntity
  8
0
100
AcDbCircle
 10
2413.449936339989
 20
737.3632838053309
 30
0.0
 40
2.0
100
AcDbArc
 50
20.00000000006494
 51
90.0
1001
GENIUS_GENOBJ-N-FIL_13
1002
{
1000
OWNER
1000
GEN
1002
}
1001
GENIUS_GENODEF_13
1002
{
1000
HIER
1070
     0
1002
}
1002
{
1000
MANEDIT
1070
     0
1002
}
1002
{
1000
NOSEL
1070
     0
1002
}
1002
{
1000
BEHIND
1070
     0
1002
}
1002
{
1000
OTHER
1070
     0
1002
}
1002
{
1000
REACTOR
1002
}
  0
ARC
  5
51C9
330
1F
100
AcDbEntity
  8
0
100
AcDbCircle
 10
2417.667132899424
 20
733.9632838053312
 30
0.0
 40
0.8
100
AcDbArc
 50
200.0000000000649
 51
270.0
1001
GENIUS_GENOBJ-N-FIL_13
1002
{
1000
OWNER
1000
GEN
1002
}
1001
GENIUS_GENODEF_13
1002
{
1000
HIER
1070
     0
1002
}
1002
{
1000
MANEDIT
1070
     0
1002
}
1002
{
1000
NOSEL
1070
     0
1002
}
1002
{
1000
BEHIND
1070
     0
1002
}
1002
{
1000
OTHER
1070
     0
1002
}
1002
{
1000
REACTOR
1002
}
  0
ARC
  5
51CB
330
1F
100
AcDbEntity
  8
0
100
AcDbCircle
 10
2413.449936339989
 20
779.4632838053303
 30
0.0
 40
2.0
100
AcDbArc
 50
270.0
 51
339.999999999935
1001
GENIUS_GENOBJ-N-FIL_13
1002
{
1000
OWNER
1000
GEN
1002
}
1001
GENIUS_GENODEF_13
1002
{
1000
HIER
1070
     0
1002
}
1002
{
1000
MANEDIT
1070
     0
1002
}
1002
{
1000
NOSEL
1070
     0
1002
}
1002
{
1000
BEHIND
1070
     0
1002
}
1002
{
1000
OTHER
1070
     0
1002
}
1002
{
1000
REACTOR
1002
}
  0
ARC
  5
51CE
330
1F
100
AcDbEntity
  8
0
100
AcDbCircle
 10
2417.667132899424
 20
782.8632838053309
 30
0.0
 40
0.8
100
AcDbArc
 50
90.0
 51
159.999999999935
1001
GENIUS_GENOBJ-N-FIL_13
1002
{
1000
OWNER
1000
GEN
1002
}
1001
GENIUS_GENODEF_13
1002
{
1000
HIER
1070
     0
1002
}
1002
{
1000
MANEDIT
1070
     0
1002
}
1002
{
1000
NOSEL
1070
     0
1002
}
1002
{
1000
BEHIND
1070
     0
1002
}
1002
{
1000
OTHER
1070
     0
1002
}
1002
{
1000
REACTOR
1002
}
  0
LINE
  5
51CF
330
1F
100
AcDbEntity
  8
0
100
AcDbLine
 10
2414.850351241192
 20
777.1335696537744
 30
0.0
 11
2414.850351241192
 21
739.6929979568876
 31
0.0
  0
LINE
  5
51D0
330
1F
100
AcDbEntity
  8
0
100
AcDbLine
 10
2419.956966868856
 20
783.6632838053311
 30
0.0
 11
2419.956966868856
 21
733.163283805331
 31
0.0
  0
LINE
  5
51D1
330
1F
100
AcDbEntity
  8
0
100
AcDbLine
 10
2417.106966868858
 20
782.8606295233275
 30
0.0
 11
2417.106966868858
 21
733.9659380873345
 31
0.0
  0
LINE
  5
51D2
330
1F
100
AcDbEntity
  8
0
  6
CENTER
100
AcDbLine
 10
2423.105709589913
 20
758.413283805331
 30
0.0
 11
306.8082241477714
 21
758.413283805331
 31
0.0
  0
LINE
  5
51D3
330
1F
100
AcDbEntity
  8
0
100
AcDbLine
 10
2413.449936339989
 20
739.3632838053308
 30
0.0
 11
2397.956966868853
 21
739.3632838053308
 31
0.0
  0
LINE
  5
51D5
330
1F
100
AcDbEntity
  8
0
100
AcDbLine
 10
2419.956966868856
 20
733.163283805331
 30
0.0
 11
2417.667132899424
 21
733.163283805331
 31
0.0
  0
LINE
  5
51D6
330
1F
100
AcDbEntity
  8
0
100
AcDbLine
 10
2416.915378802795
 20
733.6896676906698
 30
0.0
 11
2415.329321581558
 21
738.0473240919827
 31
0.0
  0
LINE
  5
51D8
330
1F
100
AcDbEntity
  8
0
100
AcDbLine
 10
2413.449936339989
 20
777.4632838053303
 30
0.0
 11
2397.956966868853
 21
777.4632838053312
 31
0.0
  0
LINE
  5
51DA
330
1F
100
AcDbEntity
  8
0
100
AcDbLine
 10
2419.956966868856
 20
783.6632838053311
 30
0.0
 11
2417.667132899424
 21
783.6632838053311
 31
0.0
  0
LINE
  5
51DB
330
1F
100
AcDbEntity
  8
0
100
AcDbLine
 10
2416.915378802795
 20
783.1368999199912
 30
0.0
 11
2415.329321581558
 21
778.7792435186793
 31
0.0
  0
ARC
  5
51E1
330
1F
100
AcDbEntity
  8
0
100
AcDbCircle
 10
316.4639973976955
 20
737.3632838053309
 30
0.0
 40
2.0
100
AcDbArc
 50
90.0
 51
159.9999999998861
1001
GENIUS_GENOBJ-N-FIL_13
1002
{
1000
OWNER
1000
GEN
1002
}
1001
GENIUS_GENODEF_13
1002
{
1000
HIER
1070
     0
1002
}
1002
{
1000
MANEDIT
1070
     0
1002
}
1002
{
1000
NOSEL
1070
     0
1002
}
1002
{
1000
BEHIND
1070
     0
1002
}
1002
{
1000
OTHER
1070
     0
1002
}
1002
{
1000
REACTOR
1002
}
  0
ARC
  5
51E4
330
1F
100
AcDbEntity
  8
0
100
AcDbCircle
 10
312.2468008382603
 20
733.9632838053312
 30
0.0
 40
0.8
100
AcDbArc
 50
270.0
 51
339.9999999998861
1001
GENIUS_GENOBJ-N-FIL_13
1002
{
1000
OWNER
1000
GEN
1002
}
1001
GENIUS_GENODEF_13
1002
{
1000
HIER
1070
     0
1002
}
1002
{
1000
MANEDIT
1070
     0
1002
}
1002
{
1000
NOSEL
1070
     0
1002
}
1002
{
1000
BEHIND
1070
     0
1002
}
1002
{
1000
OTHER
1070
     0
1002
}
1002
{
1000
REACTOR
1002
}
  0
ARC
  5
51E6
330
1F
100
AcDbEntity
  8
0
100
AcDbCircle
 10
316.4639973976955
 20
779.4632838053303
 30
0.0
 40
2.0
100
AcDbArc
 50
200.0000000001139
 51
270.0
1001
GENIUS_GENOBJ-N-FIL_13
1002
{
1000
OWNER
1000
GEN
1002
}
1001
GENIUS_GENODEF_13
1002
{
1000
HIER
1070
     0
1002
}
1002
{
1000
MANEDIT
1070
     0
1002
}
1002
{
1000
NOSEL
1070
     0
1002
}
1002
{
1000
BEHIND
1070
     0
1002
}
1002
{
1000
OTHER
1070
     0
1002
}
1002
{
1000
REACTOR
1002
}
  0
ARC
  5
51E9
330
1F
100
AcDbEntity
  8
0
100
AcDbCircle
 10
312.2468008382603
 20
782.8632838053309
 30
0.0
 40
0.8
100
AcDbArc
 50
20.00000000011391
 51
90.0
1001
GENIUS_GENOBJ-N-FIL_13
1002
{
1000
OWNER
1000
GEN
1002
}
1001
GENIUS_GENODEF_13
1002
{
1000
HIER
1070
     0
1002
}
1002
{
1000
MANEDIT
1070
     0
1002
}
1002
{
1000
NOSEL
1070
     0
1002
}
1002
{
1000
BEHIND
1070
     0
1002
}
1002
{
1000
OTHER
1070
     0
1002
}
1002
{
1000
REACTOR
1002
}
  0
LINE
  5
51EA
330
1F
100
AcDbEntity
  8
0
100
AcDbLine
 10
315.063582496492
 20
777.1335696537744
 30
0.0
 11
315.063582496492
 21
739.6929979568876
 31
0.0
  0
LINE
  5
51EB
330
1F
100
AcDbEntity
  8
0
100
AcDbLine
 10
309.9569668688273
 20
783.6632838053311
 30
0.0
 11
309.9569668688273
 21
733.163283805331
 31
0.0
  0
LINE
  5
51EC
330
1F
100
AcDbEntity
  8
0
100
AcDbLine
 10
312.8069668688258
 20
782.8606295233275
 30
0.0
 11
312.8069668688258
 21
733.9659380873345
 31
0.0
  0
LINE
  5
51ED
330
1F
100
AcDbEntity
  8
0
100
AcDbLine
 10
316.4639973976955
 20
739.3632838053308
 30
0.0
 11
331.956966868831
 21
739.3632838053308
 31
0.0
  0
LINE
  5
51EF
330
1F
100
AcDbEntity
  8
0
100
AcDbLine
 10
309.9569668688273
 20
733.163283805331
 30
0.0
 11
312.2468008382603
 21
733.163283805331
 31
0.0
  0
LINE
  5
51F0
330
1F
100
AcDbEntity
  8
0
100
AcDbLine
 10
312.9985549348894
 20
733.6896676906698
 30
0.0
 11
314.5846121561262
 21
738.0473240919827
 31
0.0
  0
LINE
  5
51F2
330
1F
100
AcDbEntity
  8
0
100
AcDbLine
 10
316.4639973976955
 20
777.4632838053303
 30
0.0
 11
331.956966868831
 21
777.4632838053312
 31
0.0
  0
LINE
  5
51F4
330
1F
100
AcDbEntity
  8
0
100
AcDbLine
 10
309.9569668688273
 20
783.6632838053311
 30
0.0
 11
312.2468008382603
 21
783.6632838053311
 31
0.0
  0
LINE
  5
51F5
330
1F
100
AcDbEntity
  8
0
100
AcDbLine
 10
312.9985549348894
 20
783.1368999199912
 30
0.0
 11
314.5846121561262
 21
778.7792435186793
 31
0.0
  0
CIRCLE
  5
56E7
330
1F
100
AcDbEntity
  8
0
100
AcDbCircle
 10
-26.2664445218943
 20
80.83980388511008
 30
0.0
 40
7.0
  0
CIRCLE
  5
56E8
330
1F
100
AcDbEntity
  8
0
100
AcDbCircle
 10
26.26644452185792
 20
80.83980388510008
 30
0.0
 40
7.0
  0
CIRCLE
  5
56E9
330
1F
100
AcDbEntity
  8
0
100
AcDbCircle
 10
-68.76644452192341
 20
-49.961746444852
 30
0.0
 40
7.0
  0
CIRCLE
  5
56EA
330
1F
100
AcDbEntity
  8
0
100
AcDbCircle
 10
68.76644452183973
 20
-49.96174644487564
 30
0.0
 40
7.0
  0
CIRCLE
  5
56EB
330
1F
100
AcDbEntity
  8
0
100
AcDbCircle
 10
68.76644452185428
 20
49.96174644486109
 30
0.0
 40
7.0
  0
CIRCLE
  5
56EC
330
1F
100
AcDbEntity
  8
0
100
AcDbCircle
 10
-68.76644452190885
 20
49.96174644488291
 30
0.0
 40
7.0
  0
CIRCLE
  5
56ED
330
1F
100
AcDbEntity
  8
0
100
AcDbCircle
 10
-26.26644452191977
 20
-80.83980388509189
 30
0.0
 40
7.0
  0
CIRCLE
  5
56EE
330
1F
100
AcDbEntity
  8
0
100
AcDbCircle
 10
26.26644452182882
 20
-80.83980388510189
 30
0.0
 40
7.0
  0
CIRCLE
  5
56EF
330
1F
100
AcDbEntity
  8
0
  6
CENTER
100
AcDbCircle
 10
0.0
 20
0.0
 30
0.0
 40
85.0
  0
CIRCLE
  5
56F0
330
1F
100
AcDbEntity
  8
0
100
AcDbCircle
 10
84.99999999998181
 20
-0.0000000000100044
 30
0.0
 40
7.0
  0
CIRCLE
  5
56F1
330
1F
100
AcDbEntity
  8
0
100
AcDbCircle
 10
-85.0000000000473
 20
0.0000000000181899
 30
0.0
 40
7.0
  0
CIRCLE
  5
56F2
330
1F
100
AcDbEntity
  8
0
100
AcDbCircle
 10
0.0
 20
0.0
 30
0.0
 40
97.50000000000092
  0
CIRCLE
  5
5719
330
1F
100
AcDbEntity
  8
0
100
AcDbCircle
 10
2224.956966868842
 20
758.4132838053364
 30
0.0
 40
87.5
  0
CIRCLE
  5
571A
330
1F
100
AcDbEntity
  8
0
  6
CENTER
100
AcDbCircle
 10
2224.956966868842
 20
758.4132838053364
 30
0.0
 40
70.0
  0
CIRCLE
  5
571B
330
1F
100
AcDbEntity
  8
0
100
AcDbCircle
 10
2175.459492185783
 20
807.9107584883958
 30
0.0
 40
9.5
  0
CIRCLE
  5
571C
330
1F
100
AcDbEntity
  8
0
100
AcDbCircle
 10
2175.459492185783
 20
708.915809122277
 30
0.0
 40
9.5
  0
CIRCLE
  5
571D
330
1F
100
AcDbEntity
  8
0
100
AcDbCircle
 10
2274.454441551898
 20
807.9107584883958
 30
0.0
 40
9.5
  0
CIRCLE
  5
571E
330
1F
100
AcDbEntity
  8
0
100
AcDbCircle
 10
2274.454441551898
 20
708.915809122277
 30
0.0
 40
9.5
  0
CIRCLE
  5
5733
330
1F
100
AcDbEntity
  8
0
100
AcDbCircle
 10
-0.000000000003638
 20
-40.85000000000036
 30
0.0
 40
25.25
  0
CIRCLE
  5
5734
330
1F
100
AcDbEntity
  8
0
100
AcDbCircle
 10
-0.000000000003638
 20
-40.85000000000036
 30
0.0
 40
19.05000000000018
  0
CIRCLE
  5
5A0E
330
1F
100
AcDbEntity
  8
0
100
AcDbCircle
 10
2224.956966868842
 20
758.413283805331
 30
0.0
 40
38.15
  0
ENDSEC
  0
SECTION
  2
OBJECTS
  0
DICTIONARY
  5
C
330
0
100
AcDbDictionary
281
     1
  3
ACAD_2007HEADERVARS_RT
350
5AA0
  3
ACAD_COLOR
350
51E
  3
ACAD_GROUP
350
D
  3
ACAD_LAYOUT
350
1A
  3
ACAD_MATERIAL
350
51D
  3
ACAD_MLEADERSTYLE
350
605
  3
ACAD_MLINESTYLE
350
17
  3
ACAD_PLOTSETTINGS
350
19
  3
ACAD_PLOTSTYLENAME
350
E
  3
ACAD_SCALELIST
350
5E3
  3
ACAD_TABLESTYLE
350
51F
  3
ACAD_VISUALSTYLE
350
5AF
  3
AcadDim
350
414
  3
ACDB_RECOMPOSE_DATA
350
5A9F
  3
ACDBHEADERROUNDTRIPXREC
350
58B0
  3
AcDbVariableDictionary
350
34
  3
AcmDictionary
350
49
  3
AcmSystemVariableManager
350
588D
  3
AMG
350
2B
  3
AMGSNAPSETTINGS
350
E5
  3
ASE_INDEX_DICTIONARY
350
2E7
  0
DICTIONARY
  5
5312
330
8
100
AcDbDictionary
280
     1
281
     1
  0
DICTIONARY
  5
D1
330
2
100
AcDbDictionary
280
     1
281
     1
  3
ACAD_LAYERFILTERS
360
7D3
  3
ACAD_LAYERSTATES
360
88B
  3
ACLYDICTIONARY
360
7D2
  3
AMLAYER_GROUPCOLORS
360
D2
  0
DICTIONARY
  5
789
330
10
100
AcDbDictionary
280
     1
281
     1
  3
ADSK_XREC_LAYER_RECONCILED
360
E7C
  0
DICTIONARY
  5
82
330
1F
100
AcDbDictionary
280
     1
281
     1
  3
ACAD_LAYOUTSELFREF
360
58D8
  3
ACAD_SORTENTS
360
D2A
  0
DICTIONARY
  5
5898
330
1B
100
AcDbDictionary
280
     1
281
     1
  3
ACAD_LAYOUTSELFREF
360
58D7
  0
DICTIONARY
  5
589A
330
23
100
AcDbDictionary
280
     1
281
     1
  3
ACAD_LAYOUTSELFREF
360
58D9
  0
DICTIONARY
  5
5A0A
330
58F9
100
AcDbDictionary
280
     1
281
     1
  3
ACAD_SORTENTS
360
5A0B
  0
DICTIONARY
  5
5AA0
102
{ACAD_REACTORS
330
C
102
}
330
C
100
AcDbDictionary
281
     1
  3
DIMARCSYM
350
5AA1
  3
DIMLTEX1
350
5AA3
  3
DIMLTEX2
350
5AA4
  3
DIMLTYPE
350
5AA2
  0
DICTIONARY
  5
51E
102
{ACAD_REACTORS
330
C
102
}
330
C
100
AcDbDictionary
281
     1
  0
DICTIONARY
  5
D
102
{ACAD_REACTORS
330
C
102
}
330
C
100
AcDbDictionary
281
     1
  0
DICTIONARY
  5
1A
102
{ACAD_REACTORS
330
C
102
}
330
C
100
AcDbDictionary
281
     1
  3
Layout1
350
1E
  3
Layout2
350
26
  3
Model
350
22
  0
DICTIONARY
  5
51D
102
{ACAD_REACTORS
330
C
102
}
330
C
100
AcDbDictionary
281
     1
  3
ByBlock
350
5AD
  3
ByLayer
350
5AC
  3
Global
350
5AE
  0
DICTIONARY
  5
605
102
{ACAD_REACTORS
330
C
102
}
330
C
100
AcDbDictionary
281
     1
  3
Standard
350
606
  3
TSKE
350
719
  0
DICTIONARY
  5
17
102
{ACAD_REACTORS
330
C
102
}
330
C
100
AcDbDictionary
281
     1
  3
Standard
350
18
  0
DICTIONARY
  5
19
102
{ACAD_REACTORS
330
C
102
}
330
C
100
AcDbDictionary
281
     1
  0
ACDBDICTIONARYWDFLT
  5
E
102
{ACAD_REACTORS
330
C
102
}
330
C
100
AcDbDictionary
281
     1
  3
Normal
350
F
100
AcDbDictionaryWithDefault
340
F
  0
DICTIONARY
  5
5E3
102
{ACAD_REACTORS
330
C
102
}
330
C
100
AcDbDictionary
281
     1
  3
A0
350
5E4
  3
A1
350
5E5
  3
A2
350
5E6
  3
A3
350
5E7
  3
A4
350
5E8
  3
A5
350
5E9
  3
A6
350
5EA
  3
A7
350
5EB
  3
A8
350
5EC
  3
A9
350
5ED
  3
B0
350
5EE
  3
B1
350
5EF
  3
B2
350
5F0
  3
B3
350
5F1
  3
B4
350
5F2
  3
B5
350
5F3
  3
B6
350
5F4
  3
B7
350
5F5
  3
B8
350
5F6
  3
B9
350
5F7
  3
C0
350
5F8
  3
C1
350
5F9
  3
C2
350
5FA
  3
C3
350
5FB
  3
C4
350
5FC
  3
C5
350
5FD
  3
C6
350
5FE
  3
C7
350
5FF
  3
C8
350
600
  3
C9
350
601
  3
D0
350
602
  3
D1
350
603
  3
D2
350
604
  0
DICTIONARY
  5
51F
102
{ACAD_REACTORS
330
C
102
}
330
C
100
AcDbDictionary
281
     1
  3
Standard
350
520
  0
DICTIONARY
  5
5AF
102
{ACAD_REACTORS
330
C
102
}
330
C
100
AcDbDictionary
281
     1
  3
2dWireframe
350
5B5
  3
3D Hidden
350
5B7
  3
3dWireframe
350
5B6
  3
Basic
350
5B4
  3
Brighten
350
5BB
  3
ColorChange
350
5BF
  3
Conceptual
350
5B8
  3
Dim
350
5BA
  3
EdgeColorOff
350
58F4
  3
Facepattern
350
5BE
  3
Flat
350
5B0
  3
FlatWithEdges
350
5B1
  3
Gouraud
350
5B2
  3
GouraudWithEdges
350
5B3
  3
Hidden
350
58EC
  3
JitterOff
350
58F2
  3
Linepattern
350
5BD
  3
OverhangOff
350
58F3
  3
Realistic
350
5B9
  3
Shaded
350
58F1
  3
Shaded with edges
350
58F0
  3
Shades of Gray
350
58ED
  3
Sketchy
350
58EE
  3
Thicken
350
5BC
  3
Wireframe
350
58EB
  3
X-Ray
350
58EF
  0
XRECORD
  5
414
102
{ACAD_REACTORS
330
C
102
}
330
C
100
AcDbXrecord
280
     1
 90
   990106
  3

 60
     0
 61
     0
 62
     4
 63
     4
 64
     1
 65
     0
 66
     0
 67
     3
 68
     1
 69
     0
 70
     0
 71
     0
 72
     0
 40
0.0
170
     2
  0
XRECORD
  5
5A9F
102
{ACAD_REACTORS
330
C
102
}
330
C
100
AcDbXrecord
280
     1
 90
        1
330
520
  0
DICTIONARY
  5
58B0
102
{ACAD_REACTORS
330
C
102
}
330
C
100
AcDbDictionary
281
     1
  3
CEPSNTYPE
350
58BA
  3
DIMSTYLEDATA
350
58BE
  3
FINGERPRINTGUID
350
58BB
  3
HYPERLINKBASE
350
58B3
  3
INSUNITS
350
58B9
  3
LAYOUTDICT
350
58B5
  3
LWETCUNION
350
58B8
  3
PLOTSETDICT
350
58B6
  3
PLOTSTYLNAMDICT
350
58B7
  3
PSVPSCALE
350
58BD
  3
PUCSBASE
350
58C1
  3
PUCSORGBACK
350
58C7
  3
PUCSORGBOTTOM
350
58C3
  3
PUCSORGFRONT
350
58C6
  3
PUCSORGLEFT
350
58C4
  3
PUCSORGRIGHT
350
58C5
  3
PUCSORGTOP
350
58C2
  3
PUCSORTHOREF
350
58BF
  3
PUCSORTHOVIEW
350
58C0
  3
STYLESHEET
350
58B4
  3
TSTACKALIGN
350
58B1
  3
TSTACKSIZE
350
58B2
  3
UCSBASE
350
58CA
  3
UCSORGBACK
350
58D0
  3
UCSORGBOTTOM
350
58CC
  3
UCSORGFRONT
350
58CF
  3
UCSORGLEFT
350
58CD
  3
UCSORGRIGHT
350
58CE
  3
UCSORGTOP
350
58CB
  3
UCSORTHOREF
350
58C8
  3
UCSORTHOVIEW
350
58C9
  3
VERSIONGUID
350
58BC
  0
DICTIONARY
  5
34
102
{ACAD_REACTORS
330
C
102
}
330
C
100
AcDbDictionary
281
     1
  3
CANNOSCALE
350
629
  3
CMLEADERSTYLE
350
627
  3
CTABLESTYLE
350
5AA
  3
DIMASSOC
350
AC
  3
INDEXCTL
350
35
  3
LAYEREVAL
350
6C0
  3
LAYERNOTIFY
350
6C1
  3
LIGHTINGUNITS
350
62A
  3
MSLTSCALE
350
628
  3
SORTENTS
350
5326
  3
XCLIPFRAME
350
5A9D
  0
DICTIONARY
  5
49
102
{ACAD_REACTORS
330
C
102
}
330
C
100
AcDbDictionary
281
     1
  3
AcmStdDictionary
350
4A
  3
AMDTSECTSYM_ARROWCOLOR
350
56E
  0
ACAD_PROXY_OBJECT
  5
588D
102
{ACAD_REACTORS
330
C
102
}
330
C
100
AcDbProxyObject
 90
      499
 91
      508
 95
   851991
 70
     0
 93
       32
310
9014220000
330
0
 94
        0
  0
DICTIONARY
  5
2B
102
{ACAD_REACTORS
330
C
102
}
330
C
100
AcDbDictionary
281
     1
  0
DICTIONARY
  5
E5
102
{ACAD_REACTORS
330
C
102
}
330
C
100
AcDbDictionary
281
     1
  0
DICTIONARY
  5
2E7
102
{ACAD_REACTORS
330
C
102
}
330
C
100
AcDbDictionary
281
     1
  3
ASEBlockHierarchyIndexRecord
350
2E9
1001
DCO15
1040
1468142506.343
  0
DICTIONARY
  5
7D3
102
{ACAD_REACTORS
330
D1
102
}
330
D1
100
AcDbDictionary
281
     1
  0
DICTIONARY
  5
88B
102
{ACAD_REACTORS
330
D1
102
}
330
D1
100
AcDbDictionary
281
     1
  0
DICTIONARY
  5
7D2
102
{ACAD_REACTORS
330
D1
102
}
330
D1
100
AcDbDictionary
281
     1
1001
ACAD
1000
<All
  0
DICTIONARY
  5
D2
102
{ACAD_REACTORS
330
D1
102
}
330
D1
100
AcDbDictionary
280
     1
281
     1
  0
XRECORD
  5
E7C
102
{ACAD_REACTORS
330
789
102
}
330
789
100
AcDbXrecord
280
     1
290
     1
  0
XRECORD
  5
58D8
102
{ACAD_REACTORS
330
82
102
}
330
82
100
AcDbXrecord
280
     1
340
1F
  0
SORTENTSTABLE
  5
D2A
102
{ACAD_REACTORS
330
82
102
}
330
82
100
AcDbSortentsTable
330
1F
331
466E
  5
4671
331
46E4
  5
46E7
331
484F
  5
4852
331
46E0
  5
46E3
331
46A5
  5
46A8
331
46A1
  5
46A4
331
484B
  5
484E
331
46DC
  5
46DF
331
48BE
  5
48C1
331
46D8
  5
46DB
331
4847
  5
484A
331
469D
  5
46A0
331
4699
  5
469C
331
46D4
  5
46D7
331
470F
  5
4712
331
46D0
  5
46D3
331
4695
  5
4698
331
470B
  5
470E
331
48B2
  5
48B5
331
46CC
  5
46CF
331
46C8
  5
46CB
331
4707
  5
470A
331
4689
  5
468C
331
4703
  5
4706
331
46C4
  5
46C7
331
46FF
  5
4702
331
46C0
  5
46C3
331
4685
  5
4688
331
4681
  5
4684
331
46FB
  5
46FE
331
46BC
  5
46BF
331
4866
  5
4869
331
46B8
  5
46BB
331
4862
  5
4865
331
46F7
  5
46FA
331
467D
  5
4680
331
4679
  5
467C
331
46F3
  5
46F6
331
46B4
  5
46B7
331
46EF
  5
46F2
331
46B0
  5
46B3
331
4675
  5
4678
331
4671
  5
4674
331
46EB
  5
46EE
331
46AC
  5
46AF
331
4856
  5
4859
331
46A8
  5
46AB
331
48C9
  5
48EA
331
4852
  5
4855
331
466D
  5
4670
331
46E3
  5
46E6
331
484E
  5
4851
331
46DF
  5
46E2
331
46A4
  5
46A7
331
46A0
  5
46A3
331
484A
  5
484D
331
46DB
  5
46DE
331
48BD
  5
48C0
331
46D7
  5
46DA
331
4846
  5
4849
331
469C
  5
469F
331
4698
  5
469B
331
46D3
  5
46D6
331
470E
  5
4711
331
46CF
  5
46D2
331
470A
  5
470D
331
48B1
  5
48B4
331
46CB
  5
46CE
331
4706
  5
4709
331
468C
  5
468F
331
4688
  5
468B
331
4702
  5
4705
331
46C3
  5
46C6
331
46FE
  5
4701
331
46BF
  5
46C2
331
4684
  5
4687
331
4680
  5
4683
331
46FA
  5
46FD
331
46BB
  5
46BE
331
4865
  5
4868
331
4861
  5
4864
331
46F6
  5
46F9
331
46B7
  5
46BA
331
467C
  5
467F
331
4678
  5
467B
331
46F2
  5
46F5
331
46B3
  5
46B6
331
46EE
  5
46F1
331
485D
  5
4860
331
46AF
  5
46B2
331
4674
  5
4677
331
4670
  5
4673
331
46EA
  5
46ED
331
4859
  5
485C
331
46AB
  5
46AE
331
4855
  5
4858
331
46E6
  5
46E9
331
466C
  5
466F
331
46A7
  5
46AA
331
46E2
  5
46E5
331
46DE
  5
46E1
331
48C4
  5
48C7
331
46A3
  5
46A6
331
4849
  5
484C
331
48C0
  5
48C3
331
46DA
  5
46DD
331
48BC
  5
48BF
331
48B8
  5
48BB
331
469F
  5
46A2
331
469B
  5
469E
331
46D6
  5
46D9
331
46D2
  5
46D5
331
4697
  5
469A
331
470D
  5
4710
331
48B4
  5
48B7
331
46CE
  5
46D1
331
4709
  5
470C
331
48B0
  5
48B3
331
46CA
  5
46CD
331
468B
  5
468E
331
4705
  5
4708
331
4701
  5
4704
331
46C2
  5
46C5
331
4687
  5
468A
331
4683
  5
4686
331
46FD
  5
4700
331
46BE
  5
46C1
331
46F9
  5
46FC
331
4868
  5
486B
331
46BA
  5
46BD
331
4864
  5
4867
331
4860
  5
4863
331
467F
  5
4682
331
467B
  5
467E
331
46F5
  5
46F8
331
46B6
  5
46B9
331
46F1
  5
46F4
331
46B2
  5
46B5
331
4677
  5
467A
331
4673
  5
4676
331
46ED
  5
46F0
331
485C
  5
485F
331
46AE
  5
46B1
331
46E9
  5
46EC
331
4858
  5
485B
331
46AA
  5
46AD
331
4854
  5
4857
331
466F
  5
4672
331
46E5
  5
46E8
331
46E1
  5
46E4
331
46A6
  5
46A9
331
46A2
  5
46A5
331
48C3
  5
48C6
331
46DD
  5
46E0
331
4848
  5
484B
331
48BF
  5
48C2
331
46D9
  5
46DC
331
48BB
  5
48BE
331
469E
  5
46A1
331
469A
  5
469D
331
46D5
  5
46D8
331
48B7
  5
48BA
331
46D1
  5
46D4
331
4696
  5
4699
331
470C
  5
470F
331
48B3
  5
48B6
331
46CD
  5
46D0
331
48AF
  5
48B2
331
4708
  5
470B
331
468A
  5
468D
331
4704
  5
4707
331
4700
  5
4703
331
46C1
  5
46C4
331
4686
  5
4689
331
4682
  5
4685
331
46FC
  5
46FF
331
46BD
  5
46C0
331
46F8
  5
46FB
331
4867
  5
486A
331
46B9
  5
46BC
331
4863
  5
4866
331
467E
  5
4681
331
467A
  5
467D
331
46F4
  5
46F7
331
46B5
  5
46B8
331
46F0
  5
46F3
331
46B1
  5
46B4
331
4676
  5
4679
331
4672
  5
4675
331
46EC
  5
46EF
331
46AD
  5
46B0
331
46E8
  5
46EB
331
4857
  5
485A
331
46A9
  5
46AC
331
4853
  5
4856
  0
XRECORD
  5
58D7
102
{ACAD_REACTORS
330
5898
102
}
330
5898
100
AcDbXrecord
280
     1
340
1B
  0
XRECORD
  5
58D9
102
{ACAD_REACTORS
330
589A
102
}
330
589A
100
AcDbXrecord
280
     1
340
23
  0
SORTENTSTABLE
  5
5A0B
102
{ACAD_REACTORS
330
5A0A
102
}
330
5A0A
100
AcDbSortentsTable
330
58F9
  0
XRECORD
  5
5AA1
102
{ACAD_REACTORS
330
5AA0
102
}
330
5AA0
100
AcDbXrecord
280
     1
 70
     1
  0
XRECORD
  5
5AA3
102
{ACAD_REACTORS
330
5AA0
102
}
330
5AA0
100
AcDbXrecord
280
     1
340
14
  0
XRECORD
  5
5AA4
102
{ACAD_REACTORS
330
5AA0
102
}
330
5AA0
100
AcDbXrecord
280
     1
340
14
  0
XRECORD
  5
5AA2
102
{ACAD_REACTORS
330
5AA0
102
}
330
5AA0
100
AcDbXrecord
280
     1
340
14
  0
LAYOUT
  5
1E
102
{ACAD_REACTORS
330
1A
102
}
330
1A
100
AcDbPlotSettings
  1

  2
none_device
  4
Letter_(8.50_x_11.00_Inches)
  6

 40
6.349999904632568
 41
6.349999904632568
 42
6.350006103515625
 43
6.350006103515625
 44
215.8999938964844
 45
279.3999938964844
 46
0.0
 47
0.0
 48
0.0
 49
0.0
140
0.0
141
0.0
142
1.0
143
1.0
 70
 15024
 72
     1
 73
     1
 74
     5
  7
acad.ctb
 75
    16
147
1.0
 76
     0
 77
     2
 78
   300
148
0.0
149
0.0
100
AcDbLayout
  1
Layout1
 70
     1
 71
     1
 10
0.0
 20
0.0
 11
420.0
 21
297.0
 12
0.0
 22
0.0
 32
0.0
 14
1.000000000000000E+20
 24
1.000000000000000E+20
 34
1.000000000000000E+20
 15
-1.000000000000000E+20
 25
-1.000000000000000E+20
 35
-1.000000000000000E+20
146
0.0
 13
0.0
 23
0.0
 33
0.0
 16
1.0
 26
0.0
 36
0.0
 17
0.0
 27
1.0
 37
0.0
 76
     0
330
1B
  0
LAYOUT
  5
26
102
{ACAD_REACTORS
330
1A
102
}
330
1A
100
AcDbPlotSettings
  1

  2
none_device
  4
Letter_(8.50_x_11.00_Inches)
  6

 40
6.349999904632568
 41
6.349999904632568
 42
6.350006103515625
 43
6.350006103515625
 44
215.8999938964844
 45
279.3999938964844
 46
0.0
 47
0.0
 48
0.0
 49
0.0
140
0.0
141
0.0
142
1.0
143
1.0
 70
 15024
 72
     1
 73
     1
 74
     5
  7
acad.ctb
 75
    16
147
1.0
 76
     0
 77
     2
 78
   300
148
0.0
149
0.0
100
AcDbLayout
  1
Layout2
 70
     1
 71
     2
 10
0.0
 20
0.0
 11
12.0
 21
9.0
 12
0.0
 22
0.0
 32
0.0
 14
0.0
 24
0.0
 34
0.0
 15
0.0
 25
0.0
 35
0.0
146
0.0
 13
0.0
 23
0.0
 33
0.0
 16
1.0
 26
0.0
 36
0.0
 17
0.0
 27
1.0
 37
0.0
 76
     0
330
23
  0
LAYOUT
  5
22
102
{ACAD_XDICTIONARY
360
5A35
102
}
102
{ACAD_REACTORS
330
1A
102
}
330
1A
100
AcDbPlotSettings
  1

  2
none_device
  4
none_user_media
  6

 40
3.174999952316284
 41
3.174999952316284
 42
3.17498779296875
 43
3.17498779296875
 44
593.97900390625
 45
840.9939575195313
 46
145.3145080804825
 47
207.3219848871231
 48
0.0
 49
0.0
140
0.0
141
0.0
142
1.0
143
1.0
 70
 11956
 72
     1
 73
     1
 74
     2
  7
monochrome.ctb
 75
    16
147
1.0
 76
     0
 77
     2
 78
   300
148
0.0
149
0.0
100
AcDbLayout
  1
Model
 70
     1
 71
     0
 10
0.0
 20
0.0
 11
12.0
 21
9.0
 12
0.0
 22
0.0
 32
0.0
 14
0.0
 24
0.0
 34
0.0
 15
0.0
 25
0.0
 35
0.0
146
0.0
 13
0.0
 23
0.0
 33
0.0
 16
1.0
 26
0.0
 36
0.0
 17
0.0
 27
1.0
 37
0.0
 76
     0
330
1F
331
5896
1001
ACAD_PSEXT
1000
なし
1000
なし
1000
適切ではありません
1000
新しいプロッタ環境設定名を選択しない限り、レイアウトは印刷されません。
1070
     0
  0
MATERIAL
  5
5AD
102
{ACAD_XDICTIONARY
360
5AA8
102
}
102
{ACAD_REACTORS
330
51D
102
}
330
51D
100
AcDbMaterial
  1
ByBlock
 73
     1
 78
     1
172
     1
176
     1
270
     1
274
     1
  0
MATERIAL
  5
5AC
102
{ACAD_XDICTIONARY
360
5AA6
102
}
102
{ACAD_REACTORS
330
51D
102
}
330
51D
100
AcDbMaterial
  1
ByLayer
 73
     1
 78
     1
172
     1
176
     1
270
     1
274
     1
  0
MATERIAL
  5
5AE
102
{ACAD_XDICTIONARY
360
5AAA
102
}
102
{ACAD_REACTORS
330
51D
102
}
330
51D
100
AcDbMaterial
  1
Global
 73
     1
 78
     1
172
     1
176
     1
270
     1
274
     1
  0
MLEADERSTYLE
  5
606
102
{ACAD_REACTORS
330
605
102
}
330
605
100
AcDbMLeaderStyle
170
     2
171
     1
172
     0
 90
        2
 40
0.0
 41
0.0
173
     1
 91
-1056964608
340
14
 92
       -2
290
     1
 42
2.0
291
     1
 43
0.36
  3
Standard
 44
4.0
300

342
11
174
     1
178
     6
175
     1
176
     0
 93
-1056964608
 45
4.0
292
     0
297
     0
 46
4.0
 94
-1056964608
 47
1.0
 49
1.0
140
1.0
293
     1
141
0.0
294
     1
177
     0
142
1.0
295
     0
296
     0
143
0.125
1001
ACAD_MLEADERVER
1070
     2
  0
MLEADERSTYLE
  5
719
102
{ACAD_REACTORS
330
605
102
}
330
605
100
AcDbMLeaderStyle
170
     2
171
     1
172
     0
 90
        2
 40
0.0
 41
0.0
173
     1
 91
-1056964608
340
14
 92
        9
290
     1
 42
2.0
291
     1
 43
-5.0
  3
Standard
341
159
 44
3.5
300

342
146
174
     5
178
     5
175
     1
176
     0
 93
-1023410174
 45
3.5
292
     0
297
     0
 46
4.0
 94
-1056964608
 47
1.0
 49
1.0
140
1.0
293
     1
141
0.0
294
     1
177
     0
142
1.0
295
     0
296
     0
143
0.0
1001
ACAD_MLEADERVER
1070
     2
  0
MLINESTYLE
  5
18
102
{ACAD_REACTORS
330
17
102
}
330
17
100
AcDbMlineStyle
  2
STANDARD
 70
     0
  3

 62
   256
 51
90.0
 52
90.0
 71
     2
 49
0.5
 62
   256
  6
BYLAYER
 49
-0.5
 62
   256
  6
BYLAYER
  0
ACDBPLACEHOLDER
  5
F
102
{ACAD_REACTORS
330
E
102
}
330
E
  0
SCALE
  5
5E4
102
{ACAD_REACTORS
330
5E3
102
}
330
5E3
100
AcDbScale
 70
     0
300
1:1
140
1.0
141
1.0
290
     1
  0
SCALE
  5
5E5
102
{ACAD_REACTORS
330
5E3
102
}
330
5E3
100
AcDbScale
 70
     0
300
1:2
140
1.0
141
2.0
290
     0
  0
SCALE
  5
5E6
102
{ACAD_REACTORS
330
5E3
102
}
330
5E3
100
AcDbScale
 70
     0
300
1:4
140
1.0
141
4.0
290
     0
  0
SCALE
  5
5E7
102
{ACAD_REACTORS
330
5E3
102
}
330
5E3
100
AcDbScale
 70
     0
300
1:5
140
1.0
141
5.0
290
     0
  0
SCALE
  5
5E8
102
{ACAD_REACTORS
330
5E3
102
}
330
5E3
100
AcDbScale
 70
     0
300
1:8
140
1.0
141
8.0
290
     0
  0
SCALE
  5
5E9
102
{ACAD_REACTORS
330
5E3
102
}
330
5E3
100
AcDbScale
 70
     0
300
1:10
140
1.0
141
10.0
290
     0
  0
SCALE
  5
5EA
102
{ACAD_REACTORS
330
5E3
102
}
330
5E3
100
AcDbScale
 70
     0
300
1:16
140
1.0
141
16.0
290
     0
  0
SCALE
  5
5EB
102
{ACAD_REACTORS
330
5E3
102
}
330
5E3
100
AcDbScale
 70
     0
300
1:20
140
1.0
141
20.0
290
     0
  0
SCALE
  5
5EC
102
{ACAD_REACTORS
330
5E3
102
}
330
5E3
100
AcDbScale
 70
     0
300
1:30
140
1.0
141
30.0
290
     0
  0
SCALE
  5
5ED
102
{ACAD_REACTORS
330
5E3
102
}
330
5E3
100
AcDbScale
 70
     0
300
1:40
140
1.0
141
40.0
290
     0
  0
SCALE
  5
5EE
102
{ACAD_REACTORS
330
5E3
102
}
330
5E3
100
AcDbScale
 70
     0
300
1:50
140
1.0
141
50.0
290
     0
  0
SCALE
  5
5EF
102
{ACAD_REACTORS
330
5E3
102
}
330
5E3
100
AcDbScale
 70
     0
300
1:100
140
1.0
141
100.0
290
     0
  0
SCALE
  5
5F0
102
{ACAD_REACTORS
330
5E3
102
}
330
5E3
100
AcDbScale
 70
     0
300
2:1
140
2.0
141
1.0
290
     0
  0
SCALE
  5
5F1
102
{ACAD_REACTORS
330
5E3
102
}
330
5E3
100
AcDbScale
 70
     0
300
4:1
140
4.0
141
1.0
290
     0
  0
SCALE
  5
5F2
102
{ACAD_REACTORS
330
5E3
102
}
330
5E3
100
AcDbScale
 70
     0
300
8:1
140
8.0
141
1.0
290
     0
  0
SCALE
  5
5F3
102
{ACAD_REACTORS
330
5E3
102
}
330
5E3
100
AcDbScale
 70
     0
300
10:1
140
10.0
141
1.0
290
     0
  0
SCALE
  5
5F4
102
{ACAD_REACTORS
330
5E3
102
}
330
5E3
100
AcDbScale
 70
     0
300
100:1
140
100.0
141
1.0
290
     0
  0
SCALE
  5
5F5
102
{ACAD_REACTORS
330
5E3
102
}
330
5E3
100
AcDbScale
 70
     0
300
1/128" = 1'-0"
140
0.0078125
141
12.0
290
     0
  0
SCALE
  5
5F6
102
{ACAD_REACTORS
330
5E3
102
}
330
5E3
100
AcDbScale
 70
     0
300
1/64" = 1'-0"
140
0.015625
141
12.0
290
     0
  0
SCALE
  5
5F7
102
{ACAD_REACTORS
330
5E3
102
}
330
5E3
100
AcDbScale
 70
     0
300
1/32" = 1'-0"
140
0.03125
141
12.0
290
     0
  0
SCALE
  5
5F8
102
{ACAD_REACTORS
330
5E3
102
}
330
5E3
100
AcDbScale
 70
     0
300
1/16" = 1'-0"
140
0.0625
141
12.0
290
     0
  0
SCALE
  5
5F9
102
{ACAD_REACTORS
330
5E3
102
}
330
5E3
100
AcDbScale
 70
     0
300
3/32" = 1'-0"
140
0.09375
141
12.0
290
     0
  0
SCALE
  5
5FA
102
{ACAD_REACTORS
330
5E3
102
}
330
5E3
100
AcDbScale
 70
     0
300
1/8" = 1'-0"
140
0.125
141
12.0
290
     0
  0
SCALE
  5
5FB
102
{ACAD_REACTORS
330
5E3
102
}
330
5E3
100
AcDbScale
 70
     0
300
3/16" = 1'-0"
140
0.1875
141
12.0
290
     0
  0
SCALE
  5
5FC
102
{ACAD_REACTORS
330
5E3
102
}
330
5E3
100
AcDbScale
 70
     0
300
1/4" = 1'-0"
140
0.25
141
12.0
290
     0
  0
SCALE
  5
5FD
102
{ACAD_REACTORS
330
5E3
102
}
330
5E3
100
AcDbScale
 70
     0
300
3/8" = 1'-0"
140
0.375
141
12.0
290
     0
  0
SCALE
  5
5FE
102
{ACAD_REACTORS
330
5E3
102
}
330
5E3
100
AcDbScale
 70
     0
300
1/2" = 1'-0"
140
0.5
141
12.0
290
     0
  0
SCALE
  5
5FF
102
{ACAD_REACTORS
330
5E3
102
}
330
5E3
100
AcDbScale
 70
     0
300
3/4" = 1'-0"
140
0.75
141
12.0
290
     0
  0
SCALE
  5
600
102
{ACAD_REACTORS
330
5E3
102
}
330
5E3
100
AcDbScale
 70
     0
300
1" = 1'-0"
140
1.0
141
12.0
290
     0
  0
SCALE
  5
601
102
{ACAD_REACTORS
330
5E3
102
}
330
5E3
100
AcDbScale
 70
     0
300
1-1/2" = 1'-0"
140
1.5
141
12.0
290
     0
  0
SCALE
  5
602
102
{ACAD_REACTORS
330
5E3
102
}
330
5E3
100
AcDbScale
 70
     0
300
3" = 1'-0"
140
3.0
141
12.0
290
     0
  0
SCALE
  5
603
102
{ACAD_REACTORS
330
5E3
102
}
330
5E3
100
AcDbScale
 70
     0
300
6" = 1'-0"
140
6.0
141
12.0
290
     0
  0
SCALE
  5
604
102
{ACAD_REACTORS
330
5E3
102
}
330
5E3
100
AcDbScale
 70
     0
300
1'-0" = 1'-0"
140
12.0
141
12.0
290
     0
  0
TABLESTYLE
  5
520
102
{ACAD_XDICTIONARY
360
624
102
}
102
{ACAD_REACTORS
330
51F
102
}
330
51F
100
AcDbTableStyle
  3
Standard
 70
     0
 71
     0
 40
1.5
 41
1.5
280
     0
281
     0
  7
STANDARD
140
4.5
170
     2
 62
     0
 63
     7
283
     0
274
    -2
284
     1
 64
     0
275
    -2
285
     1
 65
     0
276
    -2
286
     1
 66
     0
277
    -2
287
     1
 67
     0
278
    -2
288
     1
 68
     0
279
    -2
289
     1
 69
     0
  7
STANDARD
140
6.0
170
     5
 62
     0
 63
     7
283
     0
274
    -2
284
     1
 64
     0
275
    -2
285
     1
 65
     0
276
    -2
286
     1
 66
     0
277
    -2
287
     1
 67
     0
278
    -2
288
     1
 68
     0
279
    -2
289
     1
 69
     0
  7
STANDARD
140
4.5
170
     5
 62
     0
 63
     7
283
     0
274
    -2
284
     1
 64
     0
275
    -2
285
     1
 65
     0
276
    -2
286
     1
 66
     0
277
    -2
287
     1
 67
     0
278
    -2
288
     1
 68
     0
279
    -2
289
     1
 69
     0
  0
VISUALSTYLE
  5
5B5
102
{ACAD_XDICTIONARY
360
5AB6
102
}
102
{ACAD_REACTORS
330
5AF
102
}
330
5AF
100
AcDbVisualStyle
  2
2dWireframe
 70
     4
 71
     0
 72
     2
 73
     0
 90
        0
 40
-0.6
 41
-30.0
 62
     5
 63
     7
 74
     1
 91
        4
 64
     7
 65
   257
 75
     1
175
     1
 42
1.0
 92
        0
 66
   257
 43
1.0
 76
     1
 77
     6
 78
     2
 67
     7
 79
     5
170
     0
171
     0
290
     0
174
     0
 93
        1
 44
0.0
173
     0
291
     0
 45
0.0
1001
ACAD
1000
AcDbSavedByObjectVersion
1070
     0
  0
VISUALSTYLE
  5
5B7
102
{ACAD_XDICTIONARY
360
5ABA
102
}
102
{ACAD_REACTORS
330
5AF
102
}
330
5AF
100
AcDbVisualStyle
  2
3D Hidden
 70
     6
 71
     1
 72
     2
 73
     2
 90
        0
 40
-0.6
 41
-30.0
 62
     5
 63
     7
 74
     2
 91
        2
 64
     7
 65
   257
 75
     2
175
     1
 42
40.0
 92
        0
 66
   257
 43
1.0
 76
     1
 77
     6
 78
     2
 67
     7
 79
     3
170
     0
171
     0
290
     0
174
     0
 93
        1
 44
0.0
173
     0
291
     0
 45
0.0
1001
ACAD
1000
AcDbSavedByObjectVersion
1070
     0
  0
VISUALSTYLE
  5
5B6
102
{ACAD_XDICTIONARY
360
5AB8
102
}
102
{ACAD_REACTORS
330
5AF
102
}
330
5AF
100
AcDbVisualStyle
  2
3dWireframe
 70
     5
 71
     0
 72
     2
 73
     0
 90
        0
 40
-0.6
 41
-30.0
 62
     5
 63
     7
 74
     1
 91
        4
 64
     7
 65
   257
 75
     1
175
     1
 42
1.0
 92
        0
 66
   257
 43
1.0
 76
     1
 77
     6
 78
     2
 67
     7
 79
     5
170
     0
171
     0
290
     0
174
     0
 93
        1
 44
0.0
173
     0
291
     0
 45
0.0
1001
ACAD
1000
AcDbSavedByObjectVersion
1070
     0
  0
VISUALSTYLE
  5
5B4
102
{ACAD_XDICTIONARY
360
5AB4
102
}
102
{ACAD_REACTORS
330
5AF
102
}
330
5AF
100
AcDbVisualStyle
  2
Basic
 70
     7
 71
     1
 72
     0
 73
     1
 90
        0
 40
-0.6
 41
-30.0
 62
     5
 63
     7
 74
     0
 91
        4
 64
     7
 65
   257
 75
     1
175
     1
 42
1.0
 92
        8
 66
     7
 43
1.0
 76
     1
 77
     6
 78
     2
 67
     7
 79
     5
170
     0
171
     0
290
     0
174
     0
 93
        1
 44
0.0
173
     0
291
     1
 45
0.0
1001
ACAD
1000
AcDbSavedByObjectVersion
1070
     0
  0
VISUALSTYLE
  5
5BB
102
{ACAD_XDICTIONARY
360
5AC2
102
}
102
{ACAD_REACTORS
330
5AF
102
}
330
5AF
100
AcDbVisualStyle
  2
Brighten
 70
    12
 71
     2
 72
     2
 73
     0
 90
        0
 40
-0.6
 41
-30.0
 62
     5
 63
     7
 74
     1
 91
        4
 64
     7
 65
   257
 75
     1
175
     1
 42
1.0
 92
        8
 66
     7
 43
1.0
 76
     1
 77
     6
 78
     2
 67
     7
 79
     5
170
     0
171
     0
290
     0
174
     0
 93
        1
 44
50.0
173
     0
291
     1
 45
0.0
1001
ACAD
1000
AcDbSavedByObjectVersion
1070
     0
  0
VISUALSTYLE
  5
5BF
102
{ACAD_XDICTIONARY
360
5ACA
102
}
102
{ACAD_REACTORS
330
5AF
102
}
330
5AF
100
AcDbVisualStyle
  2
ColorChange
 70
    16
 71
     2
 72
     2
 73
     3
 90
        0
 40
-0.6
 41
-30.0
 62
     5
 63
     8
 74
     1
 91
        4
 64
     7
 65
   257
 75
     1
175
     1
 42
1.0
 92
        8
 66
     8
 43
1.0
 76
     1
 77
     6
 78
     2
 67
     7
 79
     5
170
     0
171
     0
290
     0
174
     0
 93
        1
 44
0.0
173
     0
291
     1
 45
0.0
1001
ACAD
1000
AcDbSavedByObjectVersion
1070
     0
  0
VISUALSTYLE
  5
5B8
102
{ACAD_XDICTIONARY
360
5ABC
102
}
102
{ACAD_REACTORS
330
5AF
102
}
330
5AF
100
AcDbVisualStyle
  2
Conceptual
 70
     9
 71
     3
 72
     2
 73
     0
 90
        0
 40
-0.6
 41
-30.0
 62
     5
 63
     7
 74
     2
 91
        2
 64
     7
 65
   257
 75
     1
175
     1
 42
40.0
 92
        8
 66
     7
 43
1.0
 76
     1
 77
     6
 78
     2
 67
     7
 79
     3
170
     0
171
     0
290
     0
174
     0
 93
        1
 44
0.0
173
     0
291
     0
 45
0.0
1001
ACAD
1000
AcDbSavedByObjectVersion
1070
     0
  0
VISUALSTYLE
  5
5BA
102
{ACAD_XDICTIONARY
360
5AC0
102
}
102
{ACAD_REACTORS
330
5AF
102
}
330
5AF
100
AcDbVisualStyle
  2
Dim
 70
    11
 71
     2
 72
     2
 73
     0
 90
        0
 40
-0.6
 41
-30.0
 62
     5
 63
     7
 74
     1
 91
        4
 64
     7
 65
   257
 75
     1
175
     1
 42
1.0
 92
        8
 66
     7
 43
1.0
 76
     1
 77
     6
 78
     2
 67
     7
 79
     5
170
     0
171
     0
290
     0
174
     0
 93
        1
 44
-50.0
173
     0
291
     1
 45
0.0
1001
ACAD
1000
AcDbSavedByObjectVersion
1070
     0
  0
VISUALSTYLE
  5
58F4
102
{ACAD_XDICTIONARY
360
5ADE
102
}
102
{ACAD_REACTORS
330
5AF
102
}
330
5AF
100
AcDbVisualStyle
  2
EdgeColorOff
 70
    22
 71
     2
 72
     2
 73
     0
 90
        0
 40
-0.6
 41
-30.0
 62
     5
 63
     7
421
 16777215
 74
     1
 91
        4
 64
     7
 65
   257
 75
     1
175
     1
 42
1.0
 92
        8
 66
     7
 43
1.0
 76
     1
 77
     6
 78
     2
 67
     7
 79
     5
170
     0
171
     0
290
     0
174
     0
 93
        1
 44
0.0
173
     0
291
     1
 45
0.0
1001
ACAD
1000
AcDbSavedByObjectVersion
1070
     0
  0
VISUALSTYLE
  5
5BE
102
{ACAD_XDICTIONARY
360
5AC8
102
}
102
{ACAD_REACTORS
330
5AF
102
}
330
5AF
100
AcDbVisualStyle
  2
Facepattern
 70
    15
 71
     2
 72
     2
 73
     0
 90
        0
 40
-0.6
 41
-30.0
 62
     5
 63
     7
 74
     1
 91
        4
 64
     7
 65
   257
 75
     1
175
     1
 42
1.0
 92
        8
 66
     7
 43
1.0
 76
     1
 77
     6
 78
     2
 67
     7
 79
     5
170
     0
171
     0
290
     0
174
     0
 93
        1
 44
0.0
173
     0
291
     1
 45
0.0
1001
ACAD
1000
AcDbSavedByObjectVersion
1070
     0
  0
VISUALSTYLE
  5
5B0
102
{ACAD_XDICTIONARY
360
5AAC
102
}
102
{ACAD_REACTORS
330
5AF
102
}
330
5AF
100
AcDbVisualStyle
  2
Flat
 70
     0
 71
     2
 72
     1
 73
     1
 90
        2
 40
-0.6
 41
30.0
 62
     5
 63
     7
 74
     0
 91
        4
 64
     7
 65
   257
 75
     1
175
     1
 42
1.0
 92
        8
 66
     7
 43
1.0
 76
     1
 77
     6
 78
     2
 67
     7
 79
     5
170
     0
171
     0
290
     0
174
     0
 93
       13
 44
0.0
173
     0
291
     1
 45
0.0
1001
ACAD
1000
AcDbSavedByObjectVersion
1070
     0
  0
VISUALSTYLE
  5
5B1
102
{ACAD_XDICTIONARY
360
5AAE
102
}
102
{ACAD_REACTORS
330
5AF
102
}
330
5AF
100
AcDbVisualStyle
  2
FlatWithEdges
 70
     1
 71
     2
 72
     1
 73
     1
 90
        2
 40
-0.6
 41
30.0
 62
     5
 63
     7
 74
     1
 91
        4
 64
     7
 65
   257
 75
     1
175
     1
 42
1.0
 92
        0
 66
   257
 43
1.0
 76
     1
 77
     6
 78
     2
 67
     7
 79
     5
170
     0
171
     0
290
     0
174
     0
 93
       13
 44
0.0
173
     0
291
     1
 45
0.0
1001
ACAD
1000
AcDbSavedByObjectVersion
1070
     0
  0
VISUALSTYLE
  5
5B2
102
{ACAD_XDICTIONARY
360
5AB0
102
}
102
{ACAD_REACTORS
330
5AF
102
}
330
5AF
100
AcDbVisualStyle
  2
Gouraud
 70
     2
 71
     2
 72
     2
 73
     1
 90
        2
 40
-0.6
 41
30.0
 62
     5
 63
     7
 74
     0
 91
        4
 64
     7
 65
   257
 75
     1
175
     1
 42
1.0
 92
        0
 66
     7
 43
1.0
 76
     1
 77
     6
 78
     2
 67
     7
 79
     5
170
     0
171
     0
290
     0
174
     0
 93
       13
 44
0.0
173
     0
291
     1
 45
0.0
1001
ACAD
1000
AcDbSavedByObjectVersion
1070
     0
  0
VISUALSTYLE
  5
5B3
102
{ACAD_XDICTIONARY
360
5AB2
102
}
102
{ACAD_REACTORS
330
5AF
102
}
330
5AF
100
AcDbVisualStyle
  2
GouraudWithEdges
 70
     3
 71
     2
 72
     2
 73
     1
 90
        2
 40
-0.6
 41
30.0
 62
     5
 63
     7
 74
     1
 91
        4
 64
     7
 65
   257
 75
     1
175
     1
 42
1.0
 92
        0
 66
   257
 43
1.0
 76
     1
 77
     6
 78
     2
 67
     7
 79
     5
170
     0
171
     0
290
     0
174
     0
 93
       13
 44
0.0
173
     0
291
     1
 45
0.0
1001
ACAD
1000
AcDbSavedByObjectVersion
1070
     0
  0
VISUALSTYLE
  5
58EC
102
{ACAD_XDICTIONARY
360
5ACE
102
}
102
{ACAD_REACTORS
330
5AF
102
}
330
5AF
100
AcDbVisualStyle
  2
Hidden
 70
     6
 71
     1
 72
     2
 73
     2
 90
        0
 40
-0.6
 41
-30.0
 62
     5
 63
     7
421
 16777215
 74
     2
 91
        2
 64
     7
 65
   257
 75
     2
175
     1
 42
40.0
 92
        0
 66
   257
 43
1.0
 76
     1
 77
     6
 78
     2
 67
     7
 79
     3
170
     0
171
     0
290
     0
174
     0
 93
        1
 44
0.0
173
     0
291
     0
 45
0.0
1001
ACAD
1000
AcDbSavedByObjectVersion
1070
     0
  0
VISUALSTYLE
  5
58F2
102
{ACAD_XDICTIONARY
360
5ADA
102
}
102
{ACAD_REACTORS
330
5AF
102
}
330
5AF
100
AcDbVisualStyle
  2
JitterOff
 70
    20
 71
     2
 72
     2
 73
     0
 90
        0
 40
-0.6
 41
-30.0
 62
     5
 63
     7
421
 16777215
 74
     1
 91
        4
 64
     7
 65
   257
 75
     1
175
     1
 42
1.0
 92
       10
 66
     7
 43
1.0
 76
     1
 77
     6
 78
     2
 67
     7
 79
     5
170
     0
171
     0
290
     0
174
     0
 93
        1
 44
0.0
173
     0
291
     1
 45
0.0
1001
ACAD
1000
AcDbSavedByObjectVersion
1070
     0
  0
VISUALSTYLE
  5
5BD
102
{ACAD_XDICTIONARY
360
5AC6
102
}
102
{ACAD_REACTORS
330
5AF
102
}
330
5AF
100
AcDbVisualStyle
  2
Linepattern
 70
    14
 71
     2
 72
     2
 73
     0
 90
        0
 40
-0.6
 41
-30.0
 62
     5
 63
     7
 74
     1
 91
        4
 64
     7
 65
   257
 75
     7
175
     7
 42
1.0
 92
        8
 66
     7
 43
1.0
 76
     1
 77
     6
 78
     2
 67
     7
 79
     5
170
     0
171
     0
290
     0
174
     0
 93
        1
 44
0.0
173
     0
291
     1
 45
0.0
1001
ACAD
1000
AcDbSavedByObjectVersion
1070
     0
  0
VISUALSTYLE
  5
58F3
102
{ACAD_XDICTIONARY
360
5ADC
102
}
102
{ACAD_REACTORS
330
5AF
102
}
330
5AF
100
AcDbVisualStyle
  2
OverhangOff
 70
    21
 71
     2
 72
     2
 73
     0
 90
        0
 40
-0.6
 41
-30.0
 62
     5
 63
     7
421
 16777215
 74
     1
 91
        4
 64
     7
 65
   257
 75
     1
175
     1
 42
1.0
 92
        9
 66
     7
 43
1.0
 76
     1
 77
     6
 78
     2
 67
     7
 79
     5
170
     0
171
     0
290
     0
174
     0
 93
        1
 44
0.0
173
     0
291
     1
 45
0.0
1001
ACAD
1000
AcDbSavedByObjectVersion
1070
     0
  0
VISUALSTYLE
  5
5B9
102
{ACAD_XDICTIONARY
360
5ABE
102
}
102
{ACAD_REACTORS
330
5AF
102
}
330
5AF
100
AcDbVisualStyle
  2
Realistic
 70
     8
 71
     2
 72
     2
 73
     0
 90
        0
 40
-0.6
 41
-30.0
 62
     5
 63
     7
 74
     1
 91
        0
 64
     7
 65
   257
 75
     1
175
     1
 42
1.0
 92
        8
 66
     8
 43
1.0
 76
     1
 77
     6
 78
     2
 67
     7
 79
     5
170
     0
171
     0
290
     0
174
     0
 93
       13
 44
0.0
173
     0
291
     0
 45
0.0
1001
ACAD
1000
AcDbSavedByObjectVersion
1070
     0
  0
VISUALSTYLE
  5
58F1
102
{ACAD_XDICTIONARY
360
5AD8
102
}
102
{ACAD_REACTORS
330
5AF
102
}
330
5AF
100
AcDbVisualStyle
  2
Shaded
 70
    27
 71
     2
 72
     2
 73
     1
 90
        2
 40
-0.6
 41
30.0
 62
     5
 63
     7
421
 16777215
 74
     0
 91
        4
 64
     7
 65
   257
 75
     1
175
     1
 42
1.0
 92
        8
 66
   257
 43
1.0
 76
     1
 77
     6
 78
     2
 67
     8
425
  7895160
 79
     3
170
     0
171
     0
290
     0
174
     0
 93
        5
 44
0.0
173
     0
291
     0
 45
0.0
1001
ACAD
1000
AcDbSavedByObjectVersion
1070
     0
  0
VISUALSTYLE
  5
58F0
102
{ACAD_XDICTIONARY
360
5AD6
102
}
102
{ACAD_REACTORS
330
5AF
102
}
330
5AF
100
AcDbVisualStyle
  2
Shaded with edges
 70
    26
 71
     2
 72
     2
 73
     1
 90
        2
 40
-0.6
 41
30.0
 62
     5
 63
     7
421
 16777215
 74
     1
 91
       10
 64
     7
 65
   257
 75
     2
175
     1
 42
1.0
 92
        8
 66
   257
 43
1.0
 76
     1
 77
     6
 78
     2
 67
     7
 79
     3
170
     0
171
     0
290
     0
174
     0
 93
        5
 44
0.0
173
     0
291
     0
 45
0.0
1001
ACAD
1000
AcDbSavedByObjectVersion
1070
     0
  0
VISUALSTYLE
  5
58ED
102
{ACAD_XDICTIONARY
360
5AD0
102
}
102
{ACAD_REACTORS
330
5AF
102
}
330
5AF
100
AcDbVisualStyle
  2
Shades of Gray
 70
    23
 71
     2
 72
     2
 73
     3
 90
        0
 40
-0.6
 41
-30.0
 62
     5
 63
     7
421
 16777215
 74
     2
 91
        2
 64
     7
 65
     7
 75
     1
175
     1
 42
40.0
 92
        8
 66
     7
 43
1.0
 76
     1
 77
     6
 78
     2
 67
     7
 79
     3
170
     0
171
     0
290
     0
174
     0
 93
        1
 44
0.0
173
     0
291
     0
 45
0.0
1001
ACAD
1000
AcDbSavedByObjectVersion
1070
     0
  0
VISUALSTYLE
  5
58EE
102
{ACAD_XDICTIONARY
360
5AD2
102
}
102
{ACAD_REACTORS
330
5AF
102
}
330
5AF
100
AcDbVisualStyle
  2
Sketchy
 70
    24
 71
     1
 72
     2
 73
     2
 90
        0
 40
-0.6
 41
-30.0
 62
     5
 63
     7
421
 16777215
 74
     2
 91
        2
 64
     7
 65
     7
 75
     1
175
     1
 42
40.0
 92
       11
 66
     7
 43
1.0
 76
     1
 77
     6
 78
     2
 67
     7
 79
     6
170
     0
171
     0
290
     0
174
     0
 93
        1
 44
0.0
173
     0
291
     0
 45
0.0
1001
ACAD
1000
AcDbSavedByObjectVersion
1070
     0
  0
VISUALSTYLE
  5
5BC
102
{ACAD_XDICTIONARY
360
5AC4
102
}
102
{ACAD_REACTORS
330
5AF
102
}
330
5AF
100
AcDbVisualStyle
  2
Thicken
 70
    13
 71
     2
 72
     2
 73
     0
 90
        0
 40
-0.6
 41
-30.0
 62
     5
 63
     7
 74
     1
 91
        4
 64
     7
 65
   257
 75
     1
175
     1
 42
1.0
 92
       12
 66
     7
 43
1.0
 76
     1
 77
     6
 78
     2
 67
     7
 79
     5
170
     0
171
     0
290
     0
174
     0
 93
        1
 44
0.0
173
     0
291
     1
 45
0.0
1001
ACAD
1000
AcDbSavedByObjectVersion
1070
     0
  0
VISUALSTYLE
  5
58EB
102
{ACAD_XDICTIONARY
360
5ACC
102
}
102
{ACAD_REACTORS
330
5AF
102
}
330
5AF
100
AcDbVisualStyle
  2
Wireframe
 70
     5
 71
     0
 72
     2
 73
     0
 90
        0
 40
-0.6
 41
-30.0
 62
     5
 63
     7
421
 16777215
 74
     1
 91
        4
 64
     7
 65
   257
 75
     1
175
     1
 42
1.0
 92
        0
 66
   257
 43
1.0
 76
     1
 77
     6
 78
     2
 67
     7
 79
     3
170
     0
171
     0
290
     0
174
     0
 93
        1
 44
0.0
173
     0
291
     0
 45
0.0
1001
ACAD
1000
AcDbSavedByObjectVersion
1070
     0
  0
VISUALSTYLE
  5
58EF
102
{ACAD_XDICTIONARY
360
5AD4
102
}
102
{ACAD_REACTORS
330
5AF
102
}
330
5AF
100
AcDbVisualStyle
  2
X-Ray
 70
    25
 71
     2
 72
     2
 73
     1
 90
        1
 40
0.5
 41
-30.0
 62
     5
 63
     7
421
 16777215
 74
     1
 91
        0
 64
     7
 65
   257
 75
     1
175
     1
 42
1.0
 92
        8
 66
     7
 43
1.0
 76
     1
 77
     6
 78
     2
 67
     7
 79
     3
170
     0
171
     0
290
     0
174
     0
 93
       13
 44
0.0
173
     0
291
     0
 45
0.0
1001
ACAD
1000
AcDbSavedByObjectVersion
1070
     0
  0
XRECORD
  5
58BA
102
{ACAD_REACTORS
330
58B0
102
}
330
58B0
100
AcDbXrecord
280
     1
 90
        0
  0
XRECORD
  5
58BE
102
{ACAD_REACTORS
330
58B0
102
}
330
58B0
100
AcDbXrecord
280
     1
1000
DSTYLE
1002
{
1070
    79
 70
     2
1070
   341
340
159
1070
   342
340
159
1070
   371
 70
     9
1070
   372
 70
     9
1002
}
  0
XRECORD
  5
58BB
102
{ACAD_REACTORS
330
58B0
102
}
330
58B0
100
AcDbXrecord
280
     1
  1
{E2EE2984-40DB-4795-A236-B944694F9C34}
  0
XRECORD
  5
58B3
102
{ACAD_REACTORS
330
58B0
102
}
330
58B0
100
AcDbXrecord
280
     1
  1

  0
XRECORD
  5
58B9
102
{ACAD_REACTORS
330
58B0
102
}
330
58B0
100
AcDbXrecord
280
     1
 90
        4
  0
XRECORD
  5
58B5
102
{ACAD_REACTORS
330
58B0
102
}
330
58B0
100
AcDbXrecord
280
     1
340
1A
  0
XRECORD
  5
58B8
102
{ACAD_REACTORS
330
58B0
102
}
330
58B0
100
AcDbXrecord
280
     1
 90
    10781
  0
XRECORD
  5
58B6
102
{ACAD_REACTORS
330
58B0
102
}
330
58B0
100
AcDbXrecord
280
     1
340
19
  0
XRECORD
  5
58B7
102
{ACAD_REACTORS
330
58B0
102
}
330
58B0
100
AcDbXrecord
280
     1
340
E
  0
XRECORD
  5
58BD
102
{ACAD_REACTORS
330
58B0
102
}
330
58B0
100
AcDbXrecord
280
     1
 40
0.0
  0
XRECORD
  5
58C1
102
{ACAD_REACTORS
330
58B0
102
}
330
58B0
100
AcDbXrecord
280
     1
340
0
  0
XRECORD
  5
58C7
102
{ACAD_REACTORS
330
58B0
102
}
330
58B0
100
AcDbXrecord
280
     1
 10
0.0
 20
0.0
 30
0.0
  0
XRECORD
  5
58C3
102
{ACAD_REACTORS
330
58B0
102
}
330
58B0
100
AcDbXrecord
280
     1
 10
0.0
 20
0.0
 30
0.0
  0
XRECORD
  5
58C6
102
{ACAD_REACTORS
330
58B0
102
}
330
58B0
100
AcDbXrecord
280
     1
 10
0.0
 20
0.0
 30
0.0
  0
XRECORD
  5
58C4
102
{ACAD_REACTORS
330
58B0
102
}
330
58B0
100
AcDbXrecord
280
     1
 10
0.0
 20
0.0
 30
0.0
  0
XRECORD
  5
58C5
102
{ACAD_REACTORS
330
58B0
102
}
330
58B0
100
AcDbXrecord
280
     1
 10
0.0
 20
0.0
 30
0.0
  0
XRECORD
  5
58C2
102
{ACAD_REACTORS
330
58B0
102
}
330
58B0
100
AcDbXrecord
280
     1
 10
0.0
 20
0.0
 30
0.0
  0
XRECORD
  5
58BF
102
{ACAD_REACTORS
330
58B0
102
}
330
58B0
100
AcDbXrecord
280
     1
340
0
  0
XRECORD
  5
58C0
102
{ACAD_REACTORS
330
58B0
102
}
330
58B0
100
AcDbXrecord
280
     1
 70
     0
  0
XRECORD
  5
58B4
102
{ACAD_REACTORS
330
58B0
102
}
330
58B0
100
AcDbXrecord
280
     1
  1
MPP.ctb
  0
XRECORD
  5
58B1
102
{ACAD_REACTORS
330
58B0
102
}
330
58B0
100
AcDbXrecord
280
     1
 90
        1
  0
XRECORD
  5
58B2
102
{ACAD_REACTORS
330
58B0
102
}
330
58B0
100
AcDbXrecord
280
     1
 90
       70
  0
XRECORD
  5
58CA
102
{ACAD_REACTORS
330
58B0
102
}
330
58B0
100
AcDbXrecord
280
     1
340
0
  0
XRECORD
  5
58D0
102
{ACAD_REACTORS
330
58B0
102
}
330
58B0
100
AcDbXrecord
280
     1
 10
0.0
 20
0.0
 30
0.0
  0
XRECORD
  5
58CC
102
{ACAD_REACTORS
330
58B0
102
}
330
58B0
100
AcDbXrecord
280
     1
 10
0.0
 20
0.0
 30
0.0
  0
XRECORD
  5
58CF
102
{ACAD_REACTORS
330
58B0
102
}
330
58B0
100
AcDbXrecord
280
     1
 10
0.0
 20
0.0
 30
0.0
  0
XRECORD
  5
58CD
102
{ACAD_REACTORS
330
58B0
102
}
330
58B0
100
AcDbXrecord
280
     1
 10
0.0
 20
0.0
 30
0.0
  0
XRECORD
  5
58CE
102
{ACAD_REACTORS
330
58B0
102
}
330
58B0
100
AcDbXrecord
280
     1
 10
0.0
 20
0.0
 30
0.0
  0
XRECORD
  5
58CB
102
{ACAD_REACTORS
330
58B0
102
}
330
58B0
100
AcDbXrecord
280
     1
 10
0.0
 20
0.0
 30
0.0
  0
XRECORD
  5
58C8
102
{ACAD_REACTORS
330
58B0
102
}
330
58B0
100
AcDbXrecord
280
     1
340
0
  0
XRECORD
  5
58C9
102
{ACAD_REACTORS
330
58B0
102
}
330
58B0
100
AcDbXrecord
280
     1
 70
     0
  0
XRECORD
  5
58BC
102
{ACAD_REACTORS
330
58B0
102
}
330
58B0
100
AcDbXrecord
280
     1
  1
{1E3BE4FB-275F-4815-9588-89FCF7CB895A}
  0
DICTIONARYVAR
  5
629
102
{ACAD_REACTORS
330
34
102
}
330
34
100
DictionaryVariables
280
     0
  1
1:1
  0
DICTIONARYVAR
  5
627
102
{ACAD_REACTORS
330
34
102
}
330
34
100
DictionaryVariables
280
     0
  1
TSKE
  0
DICTIONARYVAR
  5
5AA
102
{ACAD_REACTORS
330
34
102
}
330
34
100
DictionaryVariables
280
     0
  1
STANDARD
  0
DICTIONARYVAR
  5
AC
102
{ACAD_REACTORS
330
34
102
}
330
34
100
DictionaryVariables
280
     0
  1
2
  0
DICTIONARYVAR
  5
35
102
{ACAD_REACTORS
330
34
102
}
330
34
100
DictionaryVariables
280
     0
  1
0
  0
DICTIONARYVAR
  5
6C0
102
{ACAD_REACTORS
330
34
102
}
330
34
100
DictionaryVariables
280
     0
  1
1
  0
DICTIONARYVAR
  5
6C1
102
{ACAD_REACTORS
330
34
102
}
330
34
100
DictionaryVariables
280
     0
  1
15
  0
DICTIONARYVAR
  5
62A
102
{ACAD_REACTORS
330
34
102
}
330
34
100
DictionaryVariables
280
     0
  1
0
  0
DICTIONARYVAR
  5
628
102
{ACAD_REACTORS
330
34
102
}
330
34
100
DictionaryVariables
280
     0
  1
0
  0
DICTIONARYVAR
  5
5326
102
{ACAD_REACTORS
330
34
102
}
330
34
100
DictionaryVariables
280
     0
  1
127
  0
DICTIONARYVAR
  5
5A9D
102
{ACAD_REACTORS
330
34
102
}
330
34
100
DictionaryVariables
280
     0
  1
2
  0
DICTIONARY
  5
4A
102
{ACAD_REACTORS
330
49
102
}
330
49
100
AcDbDictionary
281
     1
  0
XRECORD
  5
56E
102
{ACAD_REACTORS
330
49
102
}
330
49
100
AcDbXrecord
280
     1
 90
-1023410169
  0
XRECORD
  5
2E9
102
{ACAD_REACTORS
330
2E7
102
}
330
2E7
100
AcDbXrecord
280
     1
330
0
330
0
330
0
330
0
  0
DICTIONARY
  5
5A35
330
22
100
AcDbDictionary
280
     1
281
     1
  3
ADSK_XREC_LAYOUTTHUMBNAIL
360
5A36
  0
DICTIONARY
  5
5AA8
330
5AD
100
AcDbDictionary
280
     1
281
     1
  3
ACAD_XREC_ROUNDTRIP
360
5AA9
  0
DICTIONARY
  5
5AA6
330
5AC
100
AcDbDictionary
280
     1
281
     1
  3
ACAD_XREC_ROUNDTRIP
360
5AA7
  0
DICTIONARY
  5
5AAA
330
5AE
100
AcDbDictionary
280
     1
281
     1
  3
ACAD_XREC_ROUNDTRIP
360
5AAB
  0
DICTIONARY
  5
624
330
520
100
AcDbDictionary
280
     1
281
     1
  3
ACAD_ROUNDTRIP_2008_TABLESTYLE_CELLSTYLEMAP
360
5A9E
  3
ACAD_XREC_ROUNDTRIP
360
5AA5
  0
DICTIONARY
  5
5AB6
330
5B5
100
AcDbDictionary
280
     1
281
     1
  3
ACAD_XREC_ROUNDTRIP
360
5AB7
  0
DICTIONARY
  5
5ABA
330
5B7
100
AcDbDictionary
280
     1
281
     1
  3
ACAD_XREC_ROUNDTRIP
360
5ABB
  0
DICTIONARY
  5
5AB8
330
5B6
100
AcDbDictionary
280
     1
281
     1
  3
ACAD_XREC_ROUNDTRIP
360
5AB9
  0
DICTIONARY
  5
5AB4
330
5B4
100
AcDbDictionary
280
     1
281
     1
  3
ACAD_XREC_ROUNDTRIP
360
5AB5
  0
DICTIONARY
  5
5AC2
330
5BB
100
AcDbDictionary
280
     1
281
     1
  3
ACAD_XREC_ROUNDTRIP
360
5AC3
  0
DICTIONARY
  5
5ACA
330
5BF
100
AcDbDictionary
280
     1
281
     1
  3
ACAD_XREC_ROUNDTRIP
360
5ACB
  0
DICTIONARY
  5
5ABC
330
5B8
100
AcDbDictionary
280
     1
281
     1
  3
ACAD_XREC_ROUNDTRIP
360
5ABD
  0
DICTIONARY
  5
5AC0
330
5BA
100
AcDbDictionary
280
     1
281
     1
  3
ACAD_XREC_ROUNDTRIP
360
5AC1
  0
DICTIONARY
  5
5ADE
330
58F4
100
AcDbDictionary
280
     1
281
     1
  3
ACAD_XREC_ROUNDTRIP
360
5ADF
  0
DICTIONARY
  5
5AC8
330
5BE
100
AcDbDictionary
280
     1
281
     1
  3
ACAD_XREC_ROUNDTRIP
360
5AC9
  0
DICTIONARY
  5
5AAC
330
5B0
100
AcDbDictionary
280
     1
281
     1
  3
ACAD_XREC_ROUNDTRIP
360
5AAD
  0
DICTIONARY
  5
5AAE
330
5B1
100
AcDbDictionary
280
     1
281
     1
  3
ACAD_XREC_ROUNDTRIP
360
5AAF
  0
DICTIONARY
  5
5AB0
330
5B2
100
AcDbDictionary
280
     1
281
     1
  3
ACAD_XREC_ROUNDTRIP
360
5AB1
  0
DICTIONARY
  5
5AB2
330
5B3
100
AcDbDictionary
280
     1
281
     1
  3
ACAD_XREC_ROUNDTRIP
360
5AB3
  0
DICTIONARY
  5
5ACE
330
58EC
100
AcDbDictionary
280
     1
281
     1
  3
ACAD_XREC_ROUNDTRIP
360
5ACF
  0
DICTIONARY
  5
5ADA
330
58F2
100
AcDbDictionary
280
     1
281
     1
  3
ACAD_XREC_ROUNDTRIP
360
5ADB
  0
DICTIONARY
  5
5AC6
330
5BD
100
AcDbDictionary
280
     1
281
     1
  3
ACAD_XREC_ROUNDTRIP
360
5AC7
  0
DICTIONARY
  5
5ADC
330
58F3
100
AcDbDictionary
280
     1
281
     1
  3
ACAD_XREC_ROUNDTRIP
360
5ADD
  0
DICTIONARY
  5
5ABE
330
5B9
100
AcDbDictionary
280
     1
281
     1
  3
ACAD_XREC_ROUNDTRIP
360
5ABF
  0
DICTIONARY
  5
5AD8
330
58F1
100
AcDbDictionary
280
     1
281
     1
  3
ACAD_XREC_ROUNDTRIP
360
5AD9
  0
DICTIONARY
  5
5AD6
330
58F0
100
AcDbDictionary
280
     1
281
     1
  3
ACAD_XREC_ROUNDTRIP
360
5AD7
  0
DICTIONARY
  5
5AD0
330
58ED
100
AcDbDictionary
280
     1
281
     1
  3
ACAD_XREC_ROUNDTRIP
360
5AD1
  0
DICTIONARY
  5
5AD2
330
58EE
100
AcDbDictionary
280
     1
281
     1
  3
ACAD_XREC_ROUNDTRIP
360
5AD3
  0
DICTIONARY
  5
5AC4
330
5BC
100
AcDbDictionary
280
     1
281
     1
  3
ACAD_XREC_ROUNDTRIP
360
5AC5
  0
DICTIONARY
  5
5ACC
330
58EB
100
AcDbDictionary
280
     1
281
     1
  3
ACAD_XREC_ROUNDTRIP
360
5ACD
  0
DICTIONARY
  5
5AD4
330
58EF
100
AcDbDictionary
280
     1
281
     1
  3
ACAD_XREC_ROUNDTRIP
360
5AD5
  0
XRECORD
  5
5A36
102
{ACAD_REACTORS
330
5A35
102
}
330
5A35
100
AcDbXrecord
280
     1
310
280000000001000071000000010008000000000000710000000000000000000000010000000000003028210000000000FFFFFF000000000000000000000000000000000000000000000000000000000000000000330000006600000099000000CC000000FF00000000330000333300006633000099330000CC330000FF3300
310
0000660000336600006666000099660000CC660000FF66000000990000339900006699000099990000CC990000FF99000000CC000033CC000066CC000099CC0000CCCC0000FFCC000000FF000033FF000066FF000099FF0000CCFF0000FFFF000000003300330033006600330099003300CC003300FF003300003333003333
310
33006633330099333300CC333300FF33330000663300336633006666330099663300CC663300FF66330000993300339933006699330099993300CC993300FF99330000CC330033CC330066CC330099CC3300CCCC3300FFCC330000FF330033FF330066FF330099FF3300CCFF3300FFFF330000006600330066006600660099
310
006600CC006600FF00660000336600333366006633660099336600CC336600FF33660000666600336666006666660099666600CC666600FF66660000996600339966006699660099996600CC996600FF99660000CC660033CC660066CC660099CC6600CCCC6600FFCC660000FF660033FF660066FF660099FF6600CCFF6600
310
FFFF660000009900330099006600990099009900CC009900FF00990000339900333399006633990099339900CC339900FF33990000669900336699006666990099669900CC669900FF66990000999900339999006699990099999900CC999900FF99990000CC990033CC990066CC990099CC9900CCCC9900FFCC990000FF99
310
0033FF990066FF990099FF9900CCFF9900FFFF99000000CC003300CC006600CC009900CC00CC00CC00FF00CC000033CC003333CC006633CC009933CC00CC33CC00FF33CC000066CC003366CC006666CC009966CC00CC66CC00FF66CC000099CC003399CC006699CC009999CC00CC99CC00FF99CC0000CCCC0033CCCC0066CC
310
CC0099CCCC00CCCCCC00FFCCCC0000FFCC0033FFCC0066FFCC0099FFCC00CCFFCC00FFFFCC000000FF003300FF006600FF009900FF00CC00FF00FF00FF000033FF003333FF006633FF009933FF00CC33FF00FF33FF000066FF003366FF006666FF009966FF00CC66FF00FF66FF000099FF003399FF006699FF009999FF00CC
310
99FF00FF99FF0000CCFF0033CCFF0066CCFF0099CCFF00CCCCFF00FFCCFF0000FFFF0033FFFF0066FFFF0099FFFF00CCFFFF00FFFFFF00000000000D0D0D001A1A1A00282828003535350043434300505050005D5D5D006B6B6B00787878008686860093939300A1A1A100AEAEAE00BBBBBB00C9C9C900D6D6D600E4E4E400
310
F1F1F100FFFFFF000000000000000000000000000000000000000000000000000000000000000000000000000000000000000000000000000000000000000000000000000000000000000000000000000000000000000000000000000000000000000000000000000000000000000000000000000000000000000000000000
310
00000000000000000000000000000000000000000000000000000000000000000000000000000000000000000000000000000000000000000000000000000000000000000000000000000000000000000000000000000000000000000000000000000000000000000000000000000000000000000000000000000000000000
310
00000000000000000000000000000000000000000000000000000000000000000000000000000000000000000000000000000000000000000000000000000000000000000000000000000000000000000000000000000000000000000000000000000000000000000000000000000000000000000000000000000000000000
310
00000000000000000000000000000000000000000000000000000000000000000000000000000000000000000000000000000000000000000000000000000000000000000000000000000000000000000000000000000000000000000000000000000000000000000000000000000000000000000000000000000000000000
310
00000000000000000000000000000000000000000000000000000000000000000000000000000000000000000000000000000000000000000000000000000000000000000000000000000000000000000000000000000000000000000000000000000000000000000000000000000000000000000000000000000000000000
310
00000000000000000000000000000000000000000000000000000000000000000000000000000000000000000000000000000000000000000000000000000000000000000000000000000000000000000000000000000000000000000000000000000000000000000000000000000000000000000000000000000000000000
310
00000000000000000000000000000000000000000000000000000000000000000000000000000000000000000000000000000000000000000000000000000000000000000000000000000000000000000000000000000000000000000000000000000000000000000000000000000000000000000000000000000000000000
310
00000000000000000000000000000000000000000000000000000000000000000000000000000000000000000000000000000000000000000000000000000000000000000000000000000000000000000000000000000000000000000000000000000000000000000000000000000000000000000000000000000000000000
310
00000000000000000000000000000000000000000000000000000000000000000000000000000000000000000000000000000000000000000000000000000000000000000000000000000000000000000000000000000000000000000000000000000000000000000000000000000000000000000000000000000000000000
310
00000000000000000000000000000000000000000000000000000000000000000000000000000000000000000000000000000000000000000000000000000000000000000000000000000000000000000000000000000000000000000000000000000000000000000000000000000000000000000000000000000000000000
310
00000000000000000000000000000000000000000000000000000000000000000000000000000000000000000000000000000000000000000000000000000000000000000000000000000000000000000000000000000000000000000000000000000000000000000000000000000000000000000000000000000000000000
310
00000000000000000000000000000000000000000000000000000000000000000000000000000000000000000000000000000000000000000000000000000000000000000000000000000000000000000000000000000000000000000000000000000000000000000000000000000000000000000000000000000000000000
310
00000000000000000000000000000000000000000000000000000000000000000000000000000000000000000000000000000000000000000000000000000000000000000000000000000000000000000000000000000000000000000000000000000000000000000000000000000000000000000000000000000000000000
310
00000000000000000000000000000000000000000000000000000000000000000000000000000000000000000000000000000000000000000000000000000000000000000000000000000000000000000000000000000000000000000000000000000000000000000000000000000000000000000000000000000000000000
310
00000000000000000000000000000000000000000000000000000000000000000000000000000000000000000000000000000000000000000000000000000000000000000000000000000000000000000000000000000000000000000000000000000000000000000000000000000000000000000000000000000000000000
310
00000000000000000000000000000000000000000000000000000000000000000000000000000000000000000000000000000000000000000000000000000000000000000000000000000000000000000000000000000000000000000000000000000000000000000000000000000000000000000000000000000000000000
310
00000000000000000000000000000000000000000000000000000000000000000000000000000000000000000000000000000000000000000000000000000000000000000000000000000000000000000000000000000000000000000000000000000000000000000000000000000000000000000000000000000000000000
310
00000000000000000000000000000000000000000000000000000000000000000000000000000000000000000000000000000000000000000000000000000000000000000000000000000000000000000000000000000000000000000000000000000000000000000000000000000000000000000000000000000000000000
310
00000000000000000000000000000000000000000000000000000000000000000000000000000000000000000000000000000000000000000000000000000000000000000000000000000000000000000000000000000000000000000000000000000000000000000000000000000000000000000000000000000000000000
310
00000000000000000000000000000000000000000000000000000000000000000000000000000000000000000000000000000000000000000000000000000000000000000000000000000000000000000000000000000000000000000000000000000000000000000000000000000000000000000000000000000000000000
310
00000000000000000000000000000000000000000000000000000000000000000000000000000000000000000000000000000000000000000000000000000000000000000000000000000000000000000000000000000000000000000000000000000000000000000000000000000000000000000000000000000000000000
310
00000000000000000000000000000000000000000000000000000000000000000000000000000000000000000000000000000000000000000000000000000000000000000000000000000000000000000000000000000000000000000000000000000000000000000000000000000000000000000000000000000000000000
310
00000000000000000000000000000000000000000000000000000000000000000000000000000000000000000000000000000000000000000000000000000000000000000000000000000000000000000000000000000000000000000000000000000000000000000000000000000000000000000000000000000000000000
310
00000000000000000000000000000000000000000000000000000000000000000000000000000000000000000000000000000000000000000000000000000000000000000000000000000000000000000000000000000000000000000000000000000000000000000000000000000000000000000000000000000000000000
310
00000000000000000000000000000000000000000000000000000000000000000000000000000000000000000000000000000000000000000000000000000000000000000000000000000000000000000000000000000000000000000000000000000000000000000000000000000000000000000000000000000000000000
310
00000000000000000000000000000000000000000000000000000000000000000000000000000000000000000000000000000000000000000000000000000000000000000000000000000000000000000000000000000000000000000000000000000000000000000000000000000000000000000000000000000000000000
310
00000000000000000000000000000000000000000000000000000000000000000000000000000000000000000000000000000000000000000000000000000000000000000000000000000000000000000000000000000000000000000000000000000000000000000000000000000000000000000000000000000000000000
310
00000000000000000000000000000000000000000000000000000000000000000000000000000000000000000000000000000000000000000000000000000000000000000000000000000000000000000000000000000000000000000000000000000000000000000000000000000000000000000000000000000000000000
310
00000000000000000000000000000000000000000000000000000000000000000000000000000000000000000000000000000000000000000000000000000000000000000000000000000000000000000000000000000000000000000000000000000000000000000000000000000000000000000000000000000000000000
310
00000000000000000000000000000000000000000000000000000000000000000000000000000000000000000000000000000000000000000000000000000000000000000000000000000000000000000000000000000000000000000000000000000000000000000000000000000000000000000000000000000000000000
310
00000000000000000000000000000000000000000000000000000000000000000000000000000000000000000000000000000000000000000000000000000000000000000000000000000000000000000000000000000000000000000000000000000000000000000000000000000000000000000000000000000000000000
310
00000000000000000000000000000000000000000000000000000000000000000000000000000000000000000000000000000000000000000000000000000000000000000000000000000000000000000000000000000000000000000000000000000000000000000000000000000000000000000000000000000000000000
310
00000000000000000000000000000000000000000000000000000000000000000000000000000000000000000000000000000000000000000000000000000000000000000000000000000000000000000000000000000000000000000000000000000000000000000000000000000000000000000000000000000000000000
310
00000000000000000000000000000000000000000000000000000000000000000000000000000000000000000000000000000000000000000000000000000000000000000000000000000000000000000000000000000000000000000000000000000000000000000000000000000000000000000000000000000000000000
310
00000000000000000000000000000000000000000000000000000000000000000000000000000000000000000000000000000000000000000000000000000000000000000000000000000000000000000000000000000000000000000000000000000000000000000000000000000000000000000000000000000000000000
310
00000000000000000000000000000000000000000000000000000000000000000000000000000000000000000000000000000000000000000000000000000000000000000000000000000000000000000000000000000000000000000000000000000000000000000000000000000000000000000000000000000000000000
310
00000000000000000000000000000000000000000000000000000000000000000000000000000000000000000000000000000000000000000000000000000000000000000000000000000000000000000000000000000000000000000000000000000000000000000000000000000000000000000000000000000000000000
310
00000000000000000000000000000000000000000000000000000000000000000000000000000000000000000000000000000000000000000000000000000000000000000000000000000000000000000000000000000000000000000000000000000000000000000000000000000000000000000000000000000000000000
310
00000000000000000000000000000000000000000000000000000000000000000000000000000000000000000000000000000000000000000000000000000000000000000000000000000000000000000000000000000000000000000000000000000000000000000000000000000000000000000000000000000000000000
310
00000000000000000000000000000000000000000000000000000000000000000000000000000000000000000000000000000000000000000000000000000000000000000000000000000000000000000000000000000000000000000000000000000000000000000000000000000000000000000000000000000000000000
310
00000000000000000000000000000000000000000000000000000000000000000000000000000000000000000000000000000000000000000000000000000000000000000000000000000000000000000000000000000000000000000000000000000000000000000000000000000000000000000000000000000000000000
310
00000000000000000000000000000000000000000000000000000000000000000000000000000000000000000000000000000000000000000000000000000000000000000000000000000000000000000000000000000000000000000000000000000000000000000000000000000000000000000000000000000000000000
310
00000000000000000000000000000000000000000000000000000000000000000000000000000000000000000000000000000000000000000000000000000000000000000000000000000000000000000000000000000000000000000000000000000000000000000000000000000000000000000000000000000000000000
310
00000000000000000000000000000000000000000000000000000000000000000000000000000000000000000000000000000000000000000000000000000000000000000000000000000000000000000000000000000000000000000000000000000000000000000000000000000000000000000000000000000000000000
310
00000000000000000000000000000000000000000000000000000000000000000000000000000000000000000000000000000000000000000000000000000000000000000000000000000000000000000000000000000000000000000000000000000000000000000000000000000000000000000000000000000000000000
310
00000000000000000000000000000000000000000000000000000000000000000000000000000000000000000000000000000000000000000000000000000000000000000000000000000000000000000000000000000000000000000000000000000000000000000000000000000000000000000000000000000000000000
310
00000000000000000000000000000000000000000000000000000000000000000000000000000000000000000000000000000000000000000000000000000000000000000000000000000000000000000000000000000000000000000000000000000000000000000000000000000000000000000000000000000000000000
310
00000000000000000000000000000000000000000000000000000000000000000000000000000000000000000000000000000000000000000000000000000000000000000000000000000000000000000000000000000000000000000000000000000000000000000000000000000000000000000000000000000000000000
310
00000000000000000000000000000000000000000000000000000000000000000000000000000000000000000000000000000000000000000000000000000000000000000000000000000000000000000000000000000000000000000000000000000000000000000000000000000000000000000000000000000000000000
310
00000000000000000000000000000000000000000000000000000000000000000000000000000000000000000000000000000000000000000000000000000000000000000000000000000000000000000000000000000000000000000000000000000000000000000000000000000000000000000000000000000000000000
310
00000000000000000000000000000000000000000000000000000000000000000000000000000000000000000000000000000000000000000000000000000000000000000000000000000000000000000000000000000000000000000000000000000000000000000000000000000000000000000000000000000000000000
310
00000000000000000000000000000000000000000000000000000000000000000000000000000000000000000000000000000000000000000000000000000000000000000000000000000000000000000000000000000000000000000000000000000000000000000000000000000000000000000000000000000000000000
310
00000000000000000000000000000000000000000000000000000000000000000000000000000000000000000000000000000000000000000000000000000000000000000000000000000000000000000000000000000000000000000000000000000000000000000000000000000000000000000000000000000000000000
310
000000000000000000000000000000F5000000F5000000F50000000000000000000000000000000000000000F5000000F5000000F50000000000000000000000000000000000000000000000000000000000000000000000000000000000000000000000000000000000000000000000000000000000000000000000000000
310
00000000000000000000000000000000000000000000000000000000000000000000000000000000000000000000000000000000000000000000000000000000000000000000000000000000000000000000000000000000000000000000000000000000000000000000000000000000000000000000000000000000000000
310
00000000000000000000000000000000F5F5F5F5F5F5F5F5F5F5F5000000000000000000000000000000000000F5F5F5F5F5F5F5F5F5F5F50000000000000000000000000000000000000000000000000000000000000000000000000000000000000000000000000000000000000000000000000000000000000000000000
310
00000000000000000000000000000000000000000000000000000000000000000000000000000000000000000000000000000000000000000000000000000000000000000000000000000000000000000000000000000000000000000000000000000000000000000000000000000000000000000000000000000000000000
310
000000000000000000000000000000000000F5F5F5F5F5F5F5F5F5F5F5000000000000000000000000000000000000F5F5F5F5F5F5F5F5F5F5F5000000000000000000000000000000000000000000000000000000000000000000000000000000000000000000000000000000000000000000000000000000000000000000
310
00000000000000000000000000000000000000000000000000000000000000000000000000000000000000000000000000000000000000000000000000000000000000000000000000000000000000000000000000000000000000000000000000000000000000000000000000000000000000000000000000000000000000
310
0000000000000000000000000000000000000000000000F500F500F5000000000000000000000000000000000000000000000000F500F500F500000000000000000000000000000000000000000000000000000000000000000000000000000000000000000000000000000000000000000000000000000000000000000000
310
00000000000000000000000000000000000000000000000000000000000000000000000000000000000000000000000000000000000000000000000000000000000000000000000000000000000000000000000000000000000000000000000000000000000000000000000000000000000000000000000000000000000000
310
000000000000000000000000000000000000000000000000F5F5F5F5F5F5F5000000000000000000000000000000F5F5F5F500000000F500F500F50000000000000000000000000000000000000000000000000000000000000000000000000000000000000000000000000000000000000000000000000000000000000000
310
0000000000000000000000000000000000000000000000000000000000000000000000F5F5F5F500000000000000000000000000000000000000000000000000000000000000000000000000000000000000000000000000000000000000000000000000000000000000000000000000000000000000000000000000000000
310
00000000000000000000000000000000000000000000000000F5F5F5F5F5F5F5F5F500000000000000000000000000F5F5F5F5F5F5F5F5F5F500F500F5F5F5F5F5F5F5F5F5F5F5F5F5F5F5F5F5F5F5F5F5F5F5F5F5F5F5F5F5F5F5F5F5F5F5F5F5F5F5F5F5F5F5F5F5F5F5F5F5F5F5F5F5F5F5F5F5F5F5F5F5F5F5F5F5F5F5
310
F5F5F5F5F5F5F5F5F5F5F5F5F5F5F5F5F5F5F5F5F5F5F5F5F5F5F5F5F5F5F5F5F5F5F5F5F5F5F5F5F5F500000000000000000000000000000000000000000000000000000000000000000000000000000000000000000000000000000000000000000000000000000000000000000000000000000000000000000000000000
310
0000000000000000000000000000000000000000000000000000F5F5F5F5F5F5F5F5F5F5F5000000000000000000000000F5F5F5F5F50000000000F5F5F5F5000000000000000000000000000000000000000000000000000000000000000000000000000000000000000000F5F5F5F5F50000000000000000000000000000
310
00000000000000000000000000000000000000000000000000000000000000000000000000000000F5F5F5F50000000000000000000000000000000000000000000000000000000000000000000000000000000000000000000000000000000000000000000000000000000000000000000000000000000000000000000000
310
00000000000000000000000000000000000000000000000000000000F5F5F5F5F5F5F5F5F5F5F5000000000000000000000000F5F5F5F5F5000000000000F50000000000000000000000000000000000000000000000000000000000000000000000000000000000000000000000F5F5F5F5F5000000000000000000000000
310
000000000000000000000000000000000000000000000000000000000000000000000000000000000000F5F5F5F5000000000000000000000000000000000000000000000000000000000000000000000000000000000000000000000000000000000000000000000000000000000000000000000000000000000000000000
310
0000000000000000000000000000000000000000000000000000000000F5F500F500F5F5F500F5F5F5000000000000000000000000F5F5F5F5F5000000000000F50000000000000000000000000000000000000000000000000000000000000000000000000000000000000000000000F5F5F5F5F500000000000000000000
310
0000000000000000000000000000000000000000000000000000000000000000000000000000000000000000F5F5F5F500000000000000000000000000000000000000000000000000000000000000000000000000000000000000000000000000000000000000000000000000000000000000000000000000000000000000
310
000000000000000000000000000000000000000000000000000000000000F5F5F5F5F5F5F5F5F5F5F5F5F5F50000000000000000000000F5F5F5F5F5F5F5F5F5F5F5F5F5F5F5F5F5F5F5F5F5F5F5F5F5F5F5F5F5F5F5F5F5F5F5F5F5F5F5F5F5F5F5F5F5F5F5F5F5F5F5F5F5F5F5F5F5F5F5F5F5F5F5F5F5F5F5F5F5F5F5F5
310
F5F5F5F5F5F5F5F5F5F5F5F5F5F5F5F5F5F5F5F5F5F5F5F5F5F5F5F5F5F5F5F5F5F5F5F5F5F5F5F5F5F5F5F5F5F5F5F5F5F50000000000000000000000000000000000000000000000000000000000000000000000000000000000000000000000000000000000000000000000000000000000000000000000000000000000
310
000000000000000000000000000000000000000000000000000000000000000000F5F5F5000000F5000000F5F5F5000000000000000000000000F5F5F5F5000000000000000000000000000000000000000000000000000000000000000000000000000000000000000000000000000000000000F5F5F5F5F5000000000000
310
0000000000000000000000000000000000000000000000000000000000000000000000000000000000F5000000000000F5F5F5F5F50000000000000000000000000000000000000000000000000000000000000000000000000000000000000000000000000000000000000000000000000000000000000000000000000000
310
0000000000000000000000000000000000000000000000000000000000000000000000F5F500F50000F50000F5F5F500000000000000000000000000F5F5F5F5000000000000000000000000000000000000000000000000000000000000000000000000000000000000000000000000000000000000F5F5F5F5F500000000
310
00000000000000000000000000000000000000000000000000000000000000000000000000000000000000F5000000000000F5F5F5F5F5000000000000000000000000000000000000000000000000000000000000000000000000000000000000000000000000000000000000000000000000000000000000000000000000
310
0000000000000000000000000000000000000000000000000000000000000000000000000000F5F5F50000F50000F5F5F500000000000000000000000000F5F5F5F5000000000000000000000000000000000000000000000000000000000000000000000000000000000000000000000000000000000000F5F5F5F5F50000
310
000000000000000000000000000000000000000000000000000000000000000000000000000000000000000000F5000000000000F5F5F5F5F500000000000000000000000000000000000000000000000000000000000000000000000000000000000000000000000000000000000000000000000000000000000000000000
310
0000000000000000000000000000000000000000000000000000000000000000000000000000000000F5F5F5F5F5F5F5F5F50000000000000000000000000000F5F5F5F5F5F5F5F5F5F5F5F5F5F5F5F5F5F5F5F5F5F5F5F5F5F5F5F5F5F5F5F5F5F5F5F5F5F5F5F5F5F5F5F5F5F5F5F5F5F5F5F5F5F5F5F5F5F5F5F5F5F5F5
310
F5F5F5F5F5F5F5F5F5F5F5F5F5F5F5F5F5F5F5F5F5F5F5F5F5F5F5F5F5F5F5F5F5F5F5F5F5F5F5F5F5F5F5F5F5F5F5F5F5F5F5F5F5F5F5F5F5F5F50000000000000000000000000000000000000000000000000000000000000000000000000000000000000000000000000000000000000000000000000000000000000000
310
0000000000000000000000000000000000000000000000000000000000000000000000000000000000000000F5F5F5F5F5F5F5000000000000000000000000000000F5F5F5F5000000000000000000000000000000000000000000000000000000000000000000000000000000000000000000000000000000000000F5F5F5
310
F5F50000000000000000000000000000000000000000000000000000000000000000000000000000000000000000F50000F500F5000000F5F5F5F50000000000000000000000000000000000000000000000000000000000000000000000000000000000000000000000000000000000000000000000000000000000000000
310
0000000000000000000000000000000000000000000000000000000000000000000000000000000000000000000000F5F5F5F5F50000000000000000000000000000000000F5F5F500000000000000000000000000000000000000000000000000000000000000000000000000000000000000000000000000000000000000
310
000000000000000000000000000000000000000000000000000000000000000000000000000000000000000000000000F50000F500F500000000F5F5F5000000000000000000000000000000000000000000000000000000000000000000000000000000000000000000000000000000000000000000000000000000000000
310
0000000000000000000000000000000000000000000000000000000000000000000000000000000000000000000000F500F500F500F500F50000000000000000000000000000000000000000000000000000000000000000000000000000000000000000000000000000000000000000000000000000000000000000000000
310
00000000000000000000000000000000000000000000000000000000000000000000000000000000000000000000000000F5F50000F500F500F5000000000000000000000000000000000000000000000000000000000000000000000000000000000000000000000000000000000000000000000000000000000000000000
310
000000000000000000000000000000000000000000000000000000000000000000000000000000000000000000000000F5F5F5F5F5F5F5F5F5F5F50000000000000000000000000000000000000000000000000000000000000000000000000000000000000000000000000000000000000000000000000000000000000000
310
0000000000000000000000000000000000000000000000000000000000000000000000000000000000000000000000000000F5F5F5F5F5F5F5F5F5F5F5000000000000000000000000000000000000000000000000000000000000000000000000000000000000000000000000000000000000000000000000000000000000
310
0000000000000000000000000000000000000000000000000000000000000000000000000000000000000000000000000000F5F5F5F5F5F5F5F5F5F5F5000000000000000000000000000000000000000000000000000000000000000000000000000000000000000000000000000000000000000000000000000000000000
310
00000000000000000000000000000000000000000000000000000000000000000000000000000000000000000000000000000000F5F5F5F5F5F5F5F5F5F5F500000000000000000000000000000000000000000000000000000000000000000000000000000000000000000000000000000000000000000000000000000000
310
00000000000000000000000000000000000000000000000000000000000000000000000000000000000000000000000000000000000000000000000000000000000000000000000000000000000000000000000000000000000000000000000000000000000000000000000000000000000000000000000000000000000000
310
00000000000000000000000000000000000000000000000000000000000000000000000000000000000000000000000000000000000000000000000000000000000000000000000000000000000000000000000000000000000000000000000000000000000000000000000000000000000000000000000000000000000000
310
00000000000000000000000000000000000000000000000000000000000000000000000000000000000000000000000000000000000000000000000000000000000000000000000000000000000000000000000000000000000000000000000000000000000000000000000000000000000000000000000000000000000000
310
00000000000000000000000000000000000000000000000000000000000000000000000000000000000000000000000000000000000000000000000000000000000000000000000000000000000000000000000000000000000000000000000000000000000000000000000000000000000000000000000000000000000000
310
00000000000000000000000000000000000000000000000000000000000000000000000000000000000000000000000000000000000000000000000000000000000000000000000000000000000000000000000000000000000000000000000000000000000000000000000000000000000000000000000000000000000000
310
00000000000000000000000000000000000000000000000000000000000000000000000000000000000000000000000000000000000000000000000000000000000000000000000000000000000000000000000000000000000000000000000000000000000000000000000000000000000000000000000000000000000000
310
00000000000000000000000000000000000000000000000000000000000000000000000000000000000000000000000000000000000000000000000000000000000000000000000000000000000000000000000000000000000000000000000000000000000000000000000000000000000000000000000000000000000000
310
00000000000000000000000000000000000000000000000000000000000000000000000000000000000000000000000000000000000000000000000000000000000000000000000000000000000000000000000000000000000000000000000000000000000000000000000000000000000000000000000000000000000000
310
00000000000000000000000000000000000000000000000000000000000000000000000000000000000000000000000000000000000000000000000000000000000000000000000000000000000000000000000000000000000000000000000000000000000000000000000000000000000000000000000000000000000000
310
00000000000000000000000000000000000000000000000000000000000000000000000000000000000000000000000000000000000000000000000000000000000000000000000000000000000000000000000000000000000000000000000000000000000000000000000000000000000000000000000000000000000000
310
00000000000000000000000000000000000000000000000000000000000000000000000000000000000000000000000000000000000000000000000000000000000000000000000000000000000000000000000000000000000000000000000000000000000000000000000000000000000000000000000000000000000000
310
00000000000000000000000000000000000000000000000000000000000000000000000000000000000000000000000000000000000000000000000000000000000000000000000000000000000000000000000000000000000000000000000000000000000000000000000000000000000000000000000000000000000000
310
00000000000000000000000000000000000000000000000000000000000000000000000000000000000000000000000000000000000000000000000000000000000000000000000000000000000000000000000000000000000000000000000000000000000000000000000000000000000000000000000000000000000000
310
00000000000000000000000000000000000000000000000000000000000000000000000000000000000000000000000000000000000000000000000000000000000000000000000000000000000000000000000000000000000000000000000000000000000000000000000000000000000000000000000000000000000000
310
00000000000000000000000000000000000000000000000000000000000000000000000000000000000000000000000000000000000000000000000000000000000000000000000000000000000000000000000000000000000000000000000000000000000000000000000000000000000000000000000000000000000000
310
00000000000000000000000000000000000000000000000000000000000000000000000000000000000000000000000000000000000000000000000000000000000000000000000000000000000000000000000000000000000000000000000000000000000000000000000000000000000000000000000000000000000000
310
00000000000000000000000000000000000000000000000000000000000000000000000000000000000000000000000000000000000000000000000000000000000000000000000000000000000000000000000000000000000000000000000000000000000000000000000000000000000000000000000000000000000000
310
00000000000000000000000000000000000000000000000000000000000000000000000000000000000000000000000000000000000000000000000000000000000000000000000000000000000000000000000000000000000000000000000000000000000000000000000000000000000000000000000000000000000000
310
00000000000000000000000000000000000000000000000000000000000000000000000000000000000000000000000000000000000000000000000000000000000000000000000000000000000000000000000000000000000000000000000000000000000000000000000000000000000000000000000000000000000000
310
00000000000000000000000000000000000000000000000000000000000000000000000000000000000000000000000000000000000000000000000000000000000000000000000000000000000000000000000000000000000000000000000000000000000000000000000000000000000000000000000000000000000000
310
00000000000000000000000000000000000000000000000000000000000000000000000000000000000000000000000000000000000000000000000000000000000000000000000000000000000000000000000000000000000000000000000000000000000000000000000000000000000000000000000000000000000000
310
00000000000000000000000000000000000000000000000000000000000000000000000000000000000000000000000000000000000000000000000000000000000000000000000000000000000000000000000000000000000000000000000000000000000000000000000000000000000000000000000000000000000000
310
00000000000000000000000000000000000000000000000000000000000000000000000000000000000000000000000000000000000000000000000000000000000000000000000000000000000000000000000000000000000000000000000000000000000000000000000000000000000000000000000000000000000000
310
00000000000000000000000000000000000000000000000000000000000000000000000000000000000000000000000000000000000000000000000000000000000000000000000000000000000000000000000000000000000000000000000000000000000000000000000000000000000000000000000000000000000000
310
00000000000000000000000000000000000000000000000000000000000000000000000000000000000000000000000000000000000000000000000000000000000000000000000000000000000000000000000000000000000000000000000000000000000000000000000000000000000000000000000000000000000000
310
00000000000000000000000000000000000000000000000000000000000000000000000000000000000000000000000000000000000000000000000000000000000000000000000000000000000000000000000000000000000000000000000000000000000000000000000000000000000000000000000000000000000000
310
00000000000000000000000000000000000000000000000000000000000000000000000000000000000000000000000000000000000000000000000000000000000000000000000000000000000000000000000000000000000000000000000000000000000000000000000000000000000000000000000000000000000000
310
00000000000000000000000000000000000000000000000000000000000000000000000000000000000000000000000000000000000000000000000000000000000000000000000000000000000000000000000000000000000000000000000000000000000000000000000000000000000000000000000000000000000000
310
00000000000000000000000000000000000000000000000000000000000000000000000000000000000000000000000000000000000000000000000000000000000000000000000000000000000000000000000000000000000000000000000000000000000000000000000000000000000000000000000000000000000000
310
00000000000000000000000000000000000000000000000000000000000000000000000000000000000000000000000000000000000000000000000000000000000000000000000000000000000000000000000000000000000000000000000000000000000000000000000000000000000000000000000000000000000000
310
00000000000000000000000000000000000000000000000000000000000000000000000000000000000000000000000000000000000000000000000000000000000000000000000000000000000000000000000000000000000000000000000000000000000000000000000000000000000000000000000000000000000000
310
00000000000000000000000000000000000000000000000000000000000000000000000000000000000000000000000000000000000000000000000000000000000000000000000000000000000000000000000000000000000000000000000000000000000000000000000000000000000000000000000000000000000000
310
00000000000000000000000000000000000000000000000000000000000000000000000000000000000000000000000000000000000000000000000000000000000000000000000000000000000000000000000000000000000000000000000000000000000000000000000000000000000000000000000000000000000000
310
00000000000000000000000000000000000000000000000000000000000000000000000000000000000000000000000000000000000000000000000000000000000000000000000000000000000000000000000000000000000000000000000000000000000000000000000000000000000000000000000000000000000000
310
00000000000000000000000000000000000000000000000000000000000000000000000000000000000000000000000000000000000000000000000000000000000000000000000000000000000000000000000000000000000000000000000000000000000000000000000000000000000000000000000000000000000000
310
00000000000000000000000000000000000000000000000000000000000000000000000000000000000000000000000000000000000000000000000000000000000000000000000000000000000000000000000000000000000000000000000000000000000000000000000000000000000000000000000000000000000000
310
00000000000000000000000000000000000000000000000000000000000000000000000000000000000000000000000000000000000000000000000000000000000000000000000000000000000000000000000000000000000000000000000000000000000000000000000000000000000000000000000000000000000000
310
00000000000000000000000000000000000000000000000000000000000000000000000000000000000000000000000000000000000000000000000000000000000000000000000000000000000000000000000000000000000000000000000000000000000000000000000000000000000000000000000000000000000000
310
00000000000000000000000000000000000000000000000000000000000000000000000000000000000000000000000000000000000000000000000000000000000000000000000000000000000000000000000000000000000000000000000000000000000000000000000000000000000000000000000000000000000000
310
00000000000000000000000000000000000000000000000000000000000000000000000000000000000000000000000000000000000000000000000000000000000000000000000000000000000000000000000000000000000000000000000000000000000000000000000000000000000000000000000000000000000000
310
00000000000000000000000000000000000000000000000000000000000000000000000000000000000000000000000000000000000000000000000000000000000000000000000000000000000000000000000000000000000000000000000000000000000000000000000000000000000000000000000000000000000000
310
00000000000000000000000000000000000000000000000000000000000000000000000000000000000000000000000000000000000000000000000000000000000000000000000000000000000000000000000000000000000000000000000000000000000000000000000000000000000000000000000000000000000000
310
00000000000000000000000000000000000000000000000000000000000000000000000000000000000000000000000000000000000000000000000000000000000000000000000000000000000000000000000000000000000000000000000000000000000000000000000000000000000000000000000000000000000000
310
00000000000000000000000000000000000000000000000000000000000000000000000000000000000000000000000000000000000000000000000000000000000000000000000000000000000000000000000000000000000000000000000000000000000000000000000000000000000000000000000000000000000000
310
00000000000000000000000000000000000000000000000000000000000000000000000000000000000000000000000000000000000000000000000000000000000000000000000000000000000000000000000000000000000000000000000000000000000000000000000000000000000000000000000000000000000000
310
00000000000000000000000000000000000000000000000000000000000000000000000000000000000000000000000000000000000000000000000000000000000000000000000000000000000000000000000000000000000000000000000000000000000000000000000000000000000000000000000000000000000000
310
00000000000000000000000000000000000000000000000000000000000000000000000000000000000000000000000000000000000000000000000000000000000000000000000000000000000000000000000000000000000000000000000000000000000000000000000000000000000000000000000000000000000000
310
00000000000000000000000000000000000000000000000000000000000000000000000000000000000000000000000000000000000000000000000000000000000000000000000000000000000000000000000000000000000000000000000000000000000000000000000000000000000000000000000000000000000000
310
00000000000000000000000000000000000000000000000000000000000000000000000000000000000000000000000000000000000000000000000000000000000000000000000000000000000000000000000000000000000000000000000000000000000000000000000000000000000000000000000000000000000000
310
00000000000000000000000000000000000000000000000000000000000000000000000000000000000000000000000000000000000000000000000000000000000000000000000000000000000000000000000000000000000000000000000000000000000000000000000000000000000000000000000000000000000000
310
00000000000000000000000000000000000000000000000000000000000000000000000000000000000000000000000000000000000000000000000000000000000000000000000000000000000000000000000000000000000000000000000000000000000000000000000000000000000000000000000000000000000000
310
00000000000000000000000000000000000000000000000000000000000000000000000000000000000000000000000000000000000000000000000000000000000000000000000000000000000000000000000000000000000000000000000000000000000000000000000000000000000000000000000000000000000000
310
00000000000000000000000000000000000000000000000000000000000000000000000000000000000000000000000000000000000000000000000000000000000000000000000000000000000000000000000000000000000000000000000000000000000000000000000000000000000000000000000000000000000000
310
00000000000000000000000000000000000000000000000000000000000000000000000000000000000000000000000000000000000000000000000000000000000000000000000000000000000000000000000000000000000000000000000000000000000000000000000000000000000000000000000000000000000000
310
00000000000000000000000000000000000000000000000000000000000000000000000000000000000000000000000000000000000000000000000000000000000000000000000000000000000000000000000000000000000000000000000000000000000000000000000000000000000000000000000000000000000000
310
00000000000000000000000000000000000000000000000000000000000000000000000000000000000000000000000000000000000000000000000000000000000000000000000000000000000000000000000000000000000000000000000000000000000000000000000000000000000000000000000000000000000000
310
00000000000000000000000000000000000000000000000000000000000000000000000000000000000000000000000000000000000000000000000000000000000000000000000000000000000000000000000000000000000000000000000000000000000000000000000000000000000000000000000000000000000000
310
000000000000F5F5F5000000000000F5000000000000000000000000000000000000000000000000000000000000000000000000000000000000000000000000000000000000000000000000000000000000000000000000000000000000000000000000000000000000000000000000000000F5000000000000F5F5F50000
310
00000000000000000000000000000000000000000000000000000000000000000000000000000000000000000000000000000000000000000000000000000000000000000000000000000000000000000000000000000000000000000000000000000000000000000000000000000000000000000000000000000000000000
310
00000000000000F5F5F5F5000000F5F5F5F5F5F5F50000000000000000000000000000000000000000000000000000000000000000000000000000000000000000F5F5F5F5F50000000000000000000000000000000000000000000000000000000000000000000000000000000000000000F5F5F5F5F5F5000000F5F5F5F5
310
00000000000000000000000000000000000000000000000000000000000000000000000000000000000000000000000000000000000000000000000000000000000000000000000000000000000000000000000000000000000000000000000000000000000000000000000000000000000000000000000000000000000000
310
000000000000000000F5F5F5F5F5F5F5F5F5F5F5F5F5F5F5F5F5F5F5F5F5F5F5F5F5F5F5F5F5F5F5F5F5F5F5F5F5F5F5F5F5F5F5F5F5F5F5F5F5F5F5F5F5F5F5F5F5F5F5F5F5F5F5F5F5F5F5F5F5F5F5F5F5F5F5F5F5F5F5F5F5F5F5F5F5F5F5F5F5F5F5F5F5F5F5F5F5F5F5F5F5F5F5F5F5F5F5F5F5F5F5F5F5F5F5F5F5F5
310
F5F5F500000000000000000000000000000000000000000000000000000000000000000000000000000000000000000000000000000000000000000000000000000000000000000000000000000000000000000000000000000000000000000000000000000000000000000000000000000000000000000000000000000000
310
0000000000000000000000F5F5F5F5000000000000F50000000000000000000000000000000000000000000000000000000000000000000000000000000000000000000000F5F5F5F5F5000000000000000000000000000000000000000000000000000000000000000000000000000000000000F5F5F50000F500F5F5F500
310
00F5F5F5F50000000000000000000000000000000000000000000000000000000000000000000000000000000000000000000000000000000000000000000000000000000000000000000000000000000000000000000000000000000000000000000000000000000000000000000000000000000000000000000000000000
310
000000000000000000000000F5F5F5F5F5000000000000F50000000000000000000000000000000000000000000000000000000000000000000000000000000000000000000000F5F5F5F5F5000000000000000000000000000000000000000000000000000000000000000000000000000000000000F5F500F5F5F5F5F5F5
310
F5F500F5F5F5F5F50000000000000000000000000000000000000000000000000000000000000000000000000000000000000000000000000000000000000000000000000000000000000000000000000000000000000000000000000000000000000000000000000000000000000000000000000000000000000000000000
310
0000000000000000000000000000F5F5F5F5F5000000000000F50000000000000000000000000000000000000000000000000000000000000000000000000000000000000000000000F5F5F5F5F5000000000000000000000000000000000000000000000000000000000000000000000000000000000000F5F5F5F500F500
310
F500F5F500F5F5F5F5F5000000000000000000000000000000000000000000000000000000000000000000000000000000000000000000000000000000000000000000000000000000000000000000000000000000000000000000000000000000000000000000000000000000000000000000000000000000000000000000
310
00000000000000000000000000000000F5F5F5F5F5F5F5F5F5F5F5F5F5F5F5F5F5F5F5F5F5F5F5F5F5F5F5F5F5F5F5F5F5F5F5F5F5F5F5F5F5F5F5F5F5F5F5F5F5F5F5F5F5F5F5F5F5F5F5F5F5F5F5F5F5F5F5F5F5F5F5F5F5F5F5F5F5F5F5F5F5F5F5F5F5F5F5F5F5F5F5F5F5F5F5F5F5F5F5F5F5F5F5F5F5F5F5F5F5F5F5
310
F5F5F5F5F5F5F5F5F5F5F5F500000000000000000000000000000000000000000000000000000000000000000000000000000000000000000000000000000000000000000000000000000000000000000000000000000000000000000000000000000000000000000000000000000000000000000000000000000000000000
310
000000000000000000000000000000000000F5F5F5F5F5000000000000F50000000000000000000000000000000000000000000000000000000000000000000000000000000000000000000000F5F5F5F5F5000000000000000000000000000000000000000000000000000000000000000000000000000000000000F5F500
310
F500F5F5F5F5F5F500F5F5F5F5F50000000000000000000000000000000000000000000000000000000000000000000000000000000000000000000000000000000000000000000000000000000000000000000000000000000000000000000000000000000000000000000000000000000000000000000000000000000000
310
000000000000000000000000000000000000000000F5F5F5F5000000000000F50000000000000000000000000000000000000000000000000000000000000000000000000000000000000000000000F5F5F5F5F5000000000000000000000000000000000000000000000000000000000000000000000000000000000000F5
310
F5F5F5F5F5F5F5F5F50000F5F5F5F500000000000000000000000000000000000000000000000000000000000000000000000000000000000000000000000000000000000000000000000000000000000000000000000000000000000000000000000000000000000000000000000000000000000000000000000000000000
310
0000000000000000000000000000000000000000000000F5F5F5F5000000000000F50000000000000000000000000000000000000000000000000000000000000000000000000000000000000000000000F5F5F5F5F50000000000000000000000000000000000000000000000000000000000000000000000000000000000
310
0000F5F5F500F5F5F5F5F50000F5F5F5F50000000000000000000000000000000000000000000000000000000000000000000000000000000000000000000000000000000000000000000000000000000000000000000000000000000000000000000000000000000000000000000000000000000000000000000000000000
310
0000000000000000000000000000000000000000000000000000F5F5F5F5F5F5F5F5F5F5F5F5F5F5F5F5F5F5F5F5F5F5F5F5F5F5F5F5F5F5F5F5F5F5F5F5F5F5F5F5F5F5F5F5F5F5F5F5F5F5F5F5F5F5F5F5F5F5F5F5F5F5F5F5F5F5F5F5F5F5F5F5F5F5F5F5F5F5F5F5F5F5F5F5F5F5F5F5F5F5F5F5F5F5F5F5F5F5F5F5F5
310
F5F5F5F5F5F5F5F5F5F5F5F5F5F5F5F5F5F500000000000000000000000000000000000000000000000000000000000000000000000000000000000000000000000000000000000000000000000000000000000000000000000000000000000000000000000000000000000000000000000000000000000000000000000000
310
000000000000000000000000000000000000000000000000000000F5F5F5F50000000000F5F5F500000000000000000000000000000000000000000000000000000000000000000000000000000000000000000000000000000000000000000000000000000000000000000000000000000000000000000000000000000000
310
0000000000000000F5F5F5F500000000F5F5F5F50000000000000000000000000000000000000000000000000000000000000000000000000000000000000000000000000000000000000000000000000000000000000000000000000000000000000000000000000000000000000000000000000000000000000000000000
310
000000000000000000000000000000000000000000000000000000000000000000000000000000F5000000000000000000000000000000000000000000000000000000000000000000000000000000000000000000000000000000000000000000000000000000000000000000000000000000000000000000000000000000
310
000000000000000000000000F5000000000000000000000000000000000000000000000000000000000000000000000000000000000000000000000000000000000000000000000000000000000000000000000000000000000000000000000000000000000000000000000000000000000000000000000000000000000000
310
00000000000000000000000000000000000000000000000000000000000000000000000000000000000000000000000000000000000000000000000000000000000000000000000000000000000000000000000000000000000000000000000000000000000000000000000000000000000000000000000000000000000000
310
00000000000000000000000000000000000000000000000000000000000000000000000000000000000000000000000000000000000000000000000000000000000000000000000000000000000000000000000000000000000000000000000000000000000000000000000000000000000000000000000000000000000000
310
00000000000000000000000000000000000000000000000000000000000000000000000000000000000000000000000000000000000000000000000000000000000000000000000000000000000000000000000000000000000000000000000000000000000000000000000000000000000000000000000000000000000000
310
00000000000000000000000000000000000000000000000000000000000000000000000000000000000000000000000000000000000000000000000000000000000000000000000000000000000000000000000000000000000000000000000000000000000000000000000000000000000000000000000000000000000000
310
0000000000000000000000000000000000000000000000000000000000000000000000000000000000000000000000000000000000000000000000000000000000000000000000F5F5F5F5F5F5F5F500F500F5F5F5F5F5F500F5F500F5F5F5F5F500000000F5F5F5F5F50000F500F500F500F5F5F5F5F5F500000000000000
310
00000000000000000000000000000000000000000000000000000000000000000000000000000000000000000000000000000000000000000000000000000000000000000000000000000000000000000000000000000000000000000000000000000000000000000000000000000000000000000000000000000000000000
310
00000000000000000000000000000000000000000000000000000000000000000000000000000000000000000000000000000000000000000000000000000000000000000000000000F500F500F500F5F5F5F5F50000F500F500F5F5F500F5F5F50000000000F500F5F500F5F5F500F50000F500F5F500F5F500F500000000
310
00000000000000000000000000000000000000000000000000000000000000000000000000000000000000000000000000000000000000000000000000000000000000000000000000000000000000000000000000000000000000000000000000000000000000000000000000000000000000000000000000000000000000
310
000000000000000000000000000000000000000000000000000000000000000000000000000000000000000000000000000000000000000000000000000000000000000000000000000000F50000F5F5F5F500F500F5000000F5F500F5F500F500F5F50000F5F5F5F5F5F5F5F5F5F5F500F50000F50000F5F5F5F5F5000000
310
00000000000000000000000000000000000000000000000000000000000000000000000000000000000000000000000000000000000000000000000000000000000000000000000000000000000000000000000000000000000000000000000000000000000000000000000000000000000000000000000000000000000000
310
00000000000000000000000000000000000000000000000000000000000000000000000000000000000000000000000000000000000000000000000000000000000000000000000000000000F5F500F5F5F5F5F500F5F500F5F5F5F5F5F5F5F5F500F5F5F50000000000F5F5F5F5F5F5F500F500F5F5F50000F5F5F5F5F5F5
310
00000000000000000000000000000000000000000000000000000000000000000000000000000000000000000000000000000000000000000000000000000000000000000000000000000000000000000000000000000000000000000000000000000000000000000000000000000000000000000000000000000000000000
310
00000000000000000000000000000000000000000000000000000000000000000000000000000000000000000000000000000000000000000000000000000000000000000000000000000000000000000000000000000000000000000000000000000000000000000000000000000000000000000000000000000000000000
310
00000000000000000000000000000000000000000000000000000000000000000000000000000000000000000000000000000000000000000000000000000000000000000000000000000000000000000000000000000000000000000000000000000000000000000000000000000000000000000000000000000000000000
310
00000000000000000000000000000000000000000000000000000000000000000000000000000000000000000000000000000000000000000000000000000000000000000000000000000000000000000000000000000000000000000000000000000000000000000000000000000000000000000000000000000000000000
310
00000000000000000000000000000000000000000000000000000000000000000000000000000000000000000000000000000000000000000000000000000000000000000000000000000000000000000000000000000000000000000000000000000000000000000000000000000000000000000000000000000000000000
310
00000000000000000000000000000000000000000000000000000000000000000000000000000000000000000000000000000000000000000000000000000000000000000000000000000000000000000000000000000000000000000000000000000000000000000000000000000000000000000000000000000000000000
310
00000000000000000000000000000000000000000000000000000000000000000000000000000000000000000000000000000000000000000000000000000000000000000000000000000000000000000000000000000000000000000000000000000000000000000000000000000000000000000000000000000000000000
310
00000000000000000000000000000000000000000000000000000000000000000000000000000000000000000000000000000000000000000000000000000000000000000000000000000000000000000000000000000000000000000000000000000000000000000000000000000000000000000000000000000000000000
310
00000000000000000000000000000000000000000000000000000000000000000000000000000000000000000000000000000000000000000000000000000000000000000000000000000000000000000000000000000000000000000000000000000000000000000000000000000000000000000000000000000000000000
310
00000000000000000000000000000000000000000000000000000000000000000000000000000000000000000000000000000000000000000000000000000000000000000000000000000000000000000000000000000000000000000000000000000000000000000000000000000000000000000000000000000000000000
310
00000000000000000000000000000000000000000000000000000000000000000000000000000000000000000000000000000000000000000000000000000000000000000000000000000000000000000000000000000000000000000000000000000000000000000000000000000000000000000000000000000000000000
310
00000000000000000000000000000000000000000000000000000000000000000000000000000000000000000000000000000000000000000000000000000000000000000000000000000000000000000000000000000000000000000000000000000000000000000000000000000000000000000000000000000000000000
310
00000000000000000000000000000000000000000000000000000000000000000000000000000000000000000000000000000000000000000000000000000000000000000000000000000000000000000000000000000000000000000000000000000000000000000000000000000000000000000000000000000000000000
310
00000000000000000000000000000000000000000000000000000000000000000000000000000000000000000000000000000000000000000000000000000000000000000000000000000000000000000000000000000000000000000000000000000000000000000000000000000000000000000000000000000000000000
310
00000000000000000000000000000000000000000000000000000000000000000000000000000000000000000000000000000000000000000000000000000000000000000000000000000000000000000000000000000000000000000000000000000000000000000000000000000000000000000000000000000000000000
310
00000000000000000000000000000000000000000000000000000000000000000000000000000000000000000000000000000000000000000000000000000000000000000000000000000000000000000000000000000000000000000000000000000000000000000000000000000000000000000000000000000000000000
310
00000000000000000000000000000000000000000000000000000000000000000000000000000000000000000000000000000000000000000000000000000000000000000000000000000000000000000000000000000000000000000000000000000000000000000000000000000000000000000000000000000000000000
310
00000000000000000000000000000000000000000000000000000000000000000000000000000000000000000000000000000000000000000000000000000000000000000000000000000000000000000000000000000000000000000000000000000000000000000000000000000000000000000000000000000000000000
310
00000000000000000000000000000000000000000000000000000000000000000000000000000000000000000000000000000000000000000000000000000000000000000000000000000000000000000000000000000000000000000000000000000000000000000000000000000000000000000000000000000000000000
310
00000000000000000000000000000000000000000000000000000000000000000000000000000000000000000000000000000000000000000000000000000000000000000000000000000000000000000000000000000000000000000000000000000000000000000000000000000000000000000000000000000000000000
310
00000000000000000000000000000000000000000000000000000000000000000000000000000000000000000000000000000000000000000000000000000000000000000000000000000000000000000000000000000000000000000000000000000000000000000000000000000000000000000000000000000000000000
310
00000000000000000000000000000000000000000000000000000000000000000000000000000000000000000000000000000000000000000000000000000000000000000000000000000000000000000000000000000000000000000000000000000000000000000000000000000000000000000000000000000000000000
310
00000000000000000000000000000000000000000000000000000000000000000000000000000000000000000000000000000000000000000000000000000000000000000000000000000000000000000000000000000000000000000000000000000000000000000000000000000000000000000000000000000000000000
310
00000000000000000000000000000000000000000000000000000000000000000000000000000000000000000000000000000000000000000000000000000000000000000000000000000000000000000000000000000000000000000000000000000000000000000000000000000000000000000000000000000000000000
310
00000000000000000000000000000000000000000000000000000000000000000000000000000000000000000000000000000000000000000000000000000000000000000000000000000000000000000000000000000000000000000000000000000000000000000000000000000000000000000000000000000000000000
310
00000000000000000000000000000000000000000000000000000000000000000000000000000000000000000000000000000000000000000000000000000000000000000000000000000000000000000000000000000000000000000000000000000000000000000000000000000000000000000000000000000000000000
310
00000000000000000000000000000000000000000000000000000000000000000000000000000000000000000000000000000000000000000000000000000000000000000000000000000000000000000000000000000000000000000000000000000000000000000000000000000000000000000000000000000000000000
310
00000000000000000000000000000000000000000000000000000000000000000000000000000000000000000000000000000000000000000000000000000000000000000000000000000000000000000000000000000000000000000000000000000000000000000000000000000000000000000000000000000000000000
310
00000000000000000000000000000000000000000000000000000000000000000000000000000000000000000000000000000000000000000000000000000000000000000000000000000000000000000000000000000000000000000000000000000000000000000000000000000000000000000000000000000000000000
310
00000000000000000000000000000000000000000000000000000000000000000000000000000000000000000000000000000000000000000000000000000000000000000000000000000000000000000000000000000000000000000000000000000000000000000000000000000000000000000000000000000000000000
310
00000000000000000000000000000000000000000000000000000000000000000000000000000000000000000000000000000000000000000000000000000000000000000000000000000000000000000000000000000000000000000000000000000000000000000000000000000000000000000000000000000000000000
310
00000000000000000000000000000000000000000000000000000000000000000000000000000000000000000000000000000000000000000000000000000000000000000000000000000000000000000000000000000000000000000000000000000000000000000000000000000000000000000000000000000000000000
310
00000000000000000000000000000000000000000000000000000000000000000000000000000000000000000000000000000000000000000000000000000000000000000000000000000000000000000000000000000000000000000000000000000000000000000000000000000000000000000000000000000000000000
310
00000000000000000000000000000000000000000000000000000000000000000000000000000000000000000000000000000000000000000000000000000000000000000000000000000000000000000000000000000000000000000000000000000000000000000000000000000000000000000000000000000000000000
310
00000000000000000000000000000000000000000000000000000000000000000000000000000000000000000000000000000000000000000000000000000000000000000000000000000000000000000000000000000000000000000000000000000000000000000000000000000000000000000000000000000000000000
310
00000000000000000000000000000000000000000000000000000000000000000000000000000000000000000000000000000000000000000000000000000000000000000000000000000000000000000000000000000000000000000000000000000000000000000000000000000000000000000000000000000000000000
310
00000000000000000000000000000000000000000000000000000000000000000000000000000000000000000000000000000000000000000000000000000000000000000000000000000000000000000000000000000000000000000000000000000000000000000000000000000000000000000000000000000000000000
310
00000000000000000000000000000000000000000000000000000000000000000000000000000000000000000000000000000000000000000000000000000000000000000000000000000000000000000000000000000000000000000000000000000000000000000000000000000000000000000000000000000000000000
310
00000000000000000000000000000000000000000000000000000000000000000000000000000000000000000000000000000000000000000000000000000000000000000000000000000000000000000000000000000000000000000000000000000000000000000000000000000000000000000000000000000000000000
310
00000000000000000000000000000000000000000000000000000000000000000000000000000000000000000000000000000000000000000000000000000000000000000000000000000000000000000000000000000000000000000000000000000000000000000000000000000000000000000000000000000000000000
310
00000000000000000000000000000000000000000000000000000000000000000000000000000000000000000000000000000000000000000000000000000000000000000000000000000000000000000000000000000000000000000000000000000000000000000000000000000000000000000000000000000000000000
310
00000000000000000000000000000000000000000000000000000000000000000000000000000000000000000000000000000000000000000000000000000000000000000000000000000000000000000000000000000000000000000000000000000000000000000000000000000000000000000000000000000000000000
310
00000000000000000000000000000000000000000000000000000000000000000000000000000000000000000000000000000000000000000000000000000000000000000000000000000000000000000000000000000000000000000000000000000000000000000000000000000000000000000000000000000000000000
310
0000000000000000000000000000000000000000
  0
XRECORD
  5
5AA9
102
{ACAD_REACTORS
330
5AA8
102
}
330
5AA8
100
AcDbXrecord
280
     1
102
MATERIAL
148
0.0
149
0.0
149
0.0
 93
        0
 94
       63
282
     0
 72
     1
 77
     1
171
     1
175
     1
179
     1
273
     0
  0
XRECORD
  5
5AA7
102
{ACAD_REACTORS
330
5AA6
102
}
330
5AA6
100
AcDbXrecord
280
     1
102
MATERIAL
148
0.0
149
0.0
149
0.0
 93
        0
 94
       63
282
     0
 72
     1
 77
     1
171
     1
175
     1
179
     1
273
     0
  0
XRECORD
  5
5AAB
102
{ACAD_REACTORS
330
5AAA
102
}
330
5AAA
100
AcDbXrecord
280
     1
102
MATERIAL
148
0.0
149
0.0
149
0.0
 93
        0
 94
       63
282
     0
 72
     1
 77
     1
171
     1
175
     1
179
     1
273
     0
  0
CELLSTYLEMAP
  5
5A9E
102
{ACAD_REACTORS
330
624
102
}
330
624
100
AcDbCellStyleMap
 90
        3
300
CELLSTYLE
  1
TABLEFORMAT_BEGIN
 90
        5
170
     1
 91
        0
 92
    32768
 62
   257
 93
        1
300
CONTENTFORMAT
  1
CONTENTFORMAT_BEGIN
 90
        0
 91
        0
 92
        4
 93
        0
300

 40
0.0
140
1.0
 94
        5
 62
     0
340
11
144
6.0
309
CONTENTFORMAT_END
171
     1
301
MARGIN
  1
CELLMARGIN_BEGIN
 40
1.5
 40
1.5
 40
1.5
 40
1.5
 40
0.18
 40
0.18
309
CELLMARGIN_END
 94
        6
 95
        1
302
GRIDFORMAT
  1
GRIDFORMAT_BEGIN
 90
        0
 91
        1
 62
     0
 92
       -2
340
0
 93
        0
 40
0.045
309
GRIDFORMAT_END
 95
        2
302
GRIDFORMAT
  1
GRIDFORMAT_BEGIN
 90
        0
 91
        1
 62
     0
 92
       -2
340
0
 93
        0
 40
0.045
309
GRIDFORMAT_END
 95
        4
302
GRIDFORMAT
  1
GRIDFORMAT_BEGIN
 90
        0
 91
        1
 62
     0
 92
       -2
340
0
 93
        0
 40
0.045
309
GRIDFORMAT_END
 95
        8
302
GRIDFORMAT
  1
GRIDFORMAT_BEGIN
 90
        0
 91
        1
 62
     0
 92
       -2
340
0
 93
        0
 40
0.045
309
GRIDFORMAT_END
 95
       16
302
GRIDFORMAT
  1
GRIDFORMAT_BEGIN
 90
        0
 91
        1
 62
     0
 92
       -2
340
0
 93
        0
 40
0.045
309
GRIDFORMAT_END
 95
       32
302
GRIDFORMAT
  1
GRIDFORMAT_BEGIN
 90
        0
 91
        1
 62
     0
 92
       -2
340
0
 93
        0
 40
0.045
309
GRIDFORMAT_END
309
TABLEFORMAT_END
  1
CELLSTYLE_BEGIN
 90
        1
 91
        1
300
_TITLE
309
CELLSTYLE_END
300
CELLSTYLE
  1
TABLEFORMAT_BEGIN
 90
        5
170
     1
 91
        0
 92
        0
 62
   257
 93
        1
300
CONTENTFORMAT
  1
CONTENTFORMAT_BEGIN
 90
        0
 91
        0
 92
        4
 93
        0
300

 40
0.0
140
1.0
 94
        5
 62
     0
340
11
144
4.5
309
CONTENTFORMAT_END
171
     1
301
MARGIN
  1
CELLMARGIN_BEGIN
 40
1.5
 40
1.5
 40
1.5
 40
1.5
 40
0.18
 40
0.18
309
CELLMARGIN_END
 94
        6
 95
        1
302
GRIDFORMAT
  1
GRIDFORMAT_BEGIN
 90
        0
 91
        1
 62
     0
 92
       -2
340
0
 93
        0
 40
0.045
309
GRIDFORMAT_END
 95
        2
302
GRIDFORMAT
  1
GRIDFORMAT_BEGIN
 90
        0
 91
        1
 62
     0
 92
       -2
340
0
 93
        0
 40
0.045
309
GRIDFORMAT_END
 95
        4
302
GRIDFORMAT
  1
GRIDFORMAT_BEGIN
 90
        0
 91
        1
 62
     0
 92
       -2
340
0
 93
        0
 40
0.045
309
GRIDFORMAT_END
 95
        8
302
GRIDFORMAT
  1
GRIDFORMAT_BEGIN
 90
        0
 91
        1
 62
     0
 92
       -2
340
0
 93
        0
 40
0.045
309
GRIDFORMAT_END
 95
       16
302
GRIDFORMAT
  1
GRIDFORMAT_BEGIN
 90
        0
 91
        1
 62
     0
 92
       -2
340
0
 93
        0
 40
0.045
309
GRIDFORMAT_END
 95
       32
302
GRIDFORMAT
  1
GRIDFORMAT_BEGIN
 90
        0
 91
        1
 62
     0
 92
       -2
340
0
 93
        0
 40
0.045
309
GRIDFORMAT_END
309
TABLEFORMAT_END
  1
CELLSTYLE_BEGIN
 90
        2
 91
        1
300
_HEADER
309
CELLSTYLE_END
300
CELLSTYLE
  1
TABLEFORMAT_BEGIN
 90
        5
170
     1
 91
        0
 92
        0
 62
   257
 93
        1
300
CONTENTFORMAT
  1
CONTENTFORMAT_BEGIN
 90
        0
 91
        0
 92
        4
 93
        0
300

 40
0.0
140
1.0
 94
        2
 62
     0
340
11
144
4.5
309
CONTENTFORMAT_END
171
     1
301
MARGIN
  1
CELLMARGIN_BEGIN
 40
1.5
 40
1.5
 40
1.5
 40
1.5
 40
0.18
 40
0.18
309
CELLMARGIN_END
 94
        6
 95
        1
302
GRIDFORMAT
  1
GRIDFORMAT_BEGIN
 90
        0
 91
        1
 62
     0
 92
       -2
340
0
 93
        0
 40
0.045
309
GRIDFORMAT_END
 95
        2
302
GRIDFORMAT
  1
GRIDFORMAT_BEGIN
 90
        0
 91
        1
 62
     0
 92
       -2
340
0
 93
        0
 40
0.045
309
GRIDFORMAT_END
 95
        4
302
GRIDFORMAT
  1
GRIDFORMAT_BEGIN
 90
        0
 91
        1
 62
     0
 92
       -2
340
0
 93
        0
 40
0.045
309
GRIDFORMAT_END
 95
        8
302
GRIDFORMAT
  1
GRIDFORMAT_BEGIN
 90
        0
 91
        1
 62
     0
 92
       -2
340
0
 93
        0
 40
0.045
309
GRIDFORMAT_END
 95
       16
302
GRIDFORMAT
  1
GRIDFORMAT_BEGIN
 90
        0
 91
        1
 62
     0
 92
       -2
340
0
 93
        0
 40
0.045
309
GRIDFORMAT_END
 95
       32
302
GRIDFORMAT
  1
GRIDFORMAT_BEGIN
 90
        0
 91
        1
 62
     0
 92
       -2
340
0
 93
        0
 40
0.045
309
GRIDFORMAT_END
309
TABLEFORMAT_END
  1
CELLSTYLE_BEGIN
 90
        3
 91
        2
300
_DATA
309
CELLSTYLE_END
  0
XRECORD
  5
5AA5
102
{ACAD_REACTORS
330
624
102
}
330
624
100
AcDbXrecord
280
     1
102
ACAD_ROUNDTRIP_PRE2007_TABLESTYLE
 90
        4
 91
        0
  1

 92
        4
 93
        0
  2

 94
        4
 95
        0
  3

  0
XRECORD
  5
5AB7
102
{ACAD_REACTORS
330
5AB6
102
}
330
5AB6
100
AcDbXrecord
280
     1
102
RTVSPropertyOp0
 70
     1
102
RTVSPropertyOp1
 70
     1
102
RTVSPropertyOp2
 70
     1
102
RTVSPropertyOp3
 70
     1
102
RTVSPropertyOp4
 70
     1
102
RTVSPropertyOp5
 70
     1
102
RTVSPropertyOp6
 70
     1
102
RTVSPropertyOp7
 70
     1
102
RTVSPropertyOp8
 70
     1
102
RTVSPropertyOp9
 70
     1
102
RTVSPropertyOp10
 70
     1
102
RTVSPropertyOp11
 70
     1
102
RTVSPropertyOp12
 70
     1
102
RTVSPropertyOp13
 70
     1
102
RTVSPropertyOp14
 70
     1
102
RTVSPropertyOp15
 70
     1
102
RTVSPropertyOp16
 70
     1
102
RTVSPropertyOp17
 70
     1
102
RTVSPropertyOp18
 70
     1
102
RTVSPropertyOp19
 70
     1
102
RTVSPropertyOp20
 70
     1
102
RTVSPropertyOp21
 70
     1
102
RTVSPropertyOp22
 70
     1
102
RTVSPropertyOp23
 70
     1
102
RTVSPropertyOp24
 70
     1
102
RTVSPropertyOp25
 70
     1
102
RTVSPropertyOp26
 70
     1
102
RTVSPropertyOp27
 70
     1
102
RTVSPropertyOp28
 70
     1
102
RTVSPropertyOp29
 70
     1
102
RTVSPropertyOp30
 70
     1
102
RTVSPropertyOp31
 70
     1
102
RTVSPropertyOp32
 70
     1
  0
XRECORD
  5
5ABB
102
{ACAD_REACTORS
330
5ABA
102
}
330
5ABA
100
AcDbXrecord
280
     1
102
RTVSPropertyOp0
 70
     1
102
RTVSPropertyOp1
 70
     1
102
RTVSPropertyOp2
 70
     1
102
RTVSPropertyOp3
 70
     1
102
RTVSPropertyOp4
 70
     1
102
RTVSPropertyOp5
 70
     1
102
RTVSPropertyOp6
 70
     1
102
RTVSPropertyOp7
 70
     1
102
RTVSPropertyOp8
 70
     1
102
RTVSPropertyOp9
 70
     1
102
RTVSPropertyOp10
 70
     1
102
RTVSPropertyOp11
 70
     1
102
RTVSPropertyOp12
 70
     1
102
RTVSPropertyOp13
 70
     1
102
RTVSPropertyOp14
 70
     1
102
RTVSPropertyOp15
 70
     1
102
RTVSPropertyOp16
 70
     1
102
RTVSPropertyOp17
 70
     1
102
RTVSPropertyOp18
 70
     1
102
RTVSPropertyOp19
 70
     1
102
RTVSPropertyOp20
 70
     1
102
RTVSPropertyOp21
 70
     1
102
RTVSPropertyOp22
 70
     1
102
RTVSPropertyOp23
 70
     1
102
RTVSPropertyOp24
 70
     1
102
RTVSPropertyOp25
 70
     1
102
RTVSPropertyOp26
 70
     1
102
RTVSPropertyOp27
 70
     1
102
RTVSPropertyOp28
 70
     1
102
RTVSPropertyOp29
 70
     1
102
RTVSPropertyOp30
 70
     1
102
RTVSPropertyOp31
 70
     1
102
RTVSPropertyOp32
 70
     1
  0
XRECORD
  5
5AB9
102
{ACAD_REACTORS
330
5AB8
102
}
330
5AB8
100
AcDbXrecord
280
     1
102
RTVSPropertyOp0
 70
     1
102
RTVSPropertyOp1
 70
     1
102
RTVSPropertyOp2
 70
     1
102
RTVSPropertyOp3
 70
     1
102
RTVSPropertyOp4
 70
     1
102
RTVSPropertyOp5
 70
     1
102
RTVSPropertyOp6
 70
     1
102
RTVSPropertyOp7
 70
     1
102
RTVSPropertyOp8
 70
     1
102
RTVSPropertyOp9
 70
     1
102
RTVSPropertyOp10
 70
     1
102
RTVSPropertyOp11
 70
     1
102
RTVSPropertyOp12
 70
     1
102
RTVSPropertyOp13
 70
     1
102
RTVSPropertyOp14
 70
     1
102
RTVSPropertyOp15
 70
     1
102
RTVSPropertyOp16
 70
     1
102
RTVSPropertyOp17
 70
     1
102
RTVSPropertyOp18
 70
     1
102
RTVSPropertyOp19
 70
     1
102
RTVSPropertyOp20
 70
     1
102
RTVSPropertyOp21
 70
     1
102
RTVSPropertyOp22
 70
     1
102
RTVSPropertyOp23
 70
     1
102
RTVSPropertyOp24
 70
     1
102
RTVSPropertyOp25
 70
     1
102
RTVSPropertyOp26
 70
     1
102
RTVSPropertyOp27
 70
     1
102
RTVSPropertyOp28
 70
     1
102
RTVSPropertyOp29
 70
     1
102
RTVSPropertyOp30
 70
     1
102
RTVSPropertyOp31
 70
     1
102
RTVSPropertyOp32
 70
     1
  0
XRECORD
  5
5AB5
102
{ACAD_REACTORS
330
5AB4
102
}
330
5AB4
100
AcDbXrecord
280
     1
102
RTVSPropertyOp0
 70
     1
102
RTVSPropertyOp1
 70
     1
102
RTVSPropertyOp2
 70
     1
102
RTVSPropertyOp3
 70
     1
102
RTVSPropertyOp4
 70
     1
102
RTVSPropertyOp5
 70
     1
102
RTVSPropertyOp6
 70
     1
102
RTVSPropertyOp7
 70
     1
102
RTVSPropertyOp8
 70
     1
102
RTVSPropertyOp9
 70
     1
102
RTVSPropertyOp10
 70
     1
102
RTVSPropertyOp11
 70
     1
102
RTVSPropertyOp12
 70
     1
102
RTVSPropertyOp13
 70
     1
102
RTVSPropertyOp14
 70
     1
102
RTVSPropertyOp15
 70
     1
102
RTVSPropertyOp16
 70
     1
102
RTVSPropertyOp17
 70
     1
102
RTVSPropertyOp18
 70
     1
102
RTVSPropertyOp19
 70
     1
102
RTVSPropertyOp20
 70
     1
102
RTVSPropertyOp21
 70
     1
102
RTVSPropertyOp22
 70
     1
102
RTVSPropertyOp23
 70
     1
102
RTVSPropertyOp24
 70
     1
102
RTVSPropertyOp25
 70
     1
102
RTVSPropertyOp26
 70
     1
102
RTVSPropertyOp27
 70
     1
102
RTVSPropertyOp28
 70
     1
102
RTVSPropertyOp29
 70
     1
102
RTVSPropertyOp30
 70
     1
102
RTVSPropertyOp31
 70
     1
102
RTVSPropertyOp32
 70
     1
  0
XRECORD
  5
5AC3
102
{ACAD_REACTORS
330
5AC2
102
}
330
5AC2
100
AcDbXrecord
280
     1
102
RTVSPropertyOp0
 70
     1
102
RTVSPropertyOp1
 70
     1
102
RTVSPropertyOp2
 70
     1
102
RTVSPropertyOp3
 70
     1
102
RTVSPropertyOp4
 70
     1
102
RTVSPropertyOp5
 70
     1
102
RTVSPropertyOp6
 70
     1
102
RTVSPropertyOp7
 70
     1
102
RTVSPropertyOp8
 70
     1
102
RTVSPropertyOp9
 70
     1
102
RTVSPropertyOp10
 70
     1
102
RTVSPropertyOp11
 70
     1
102
RTVSPropertyOp12
 70
     1
102
RTVSPropertyOp13
 70
     1
102
RTVSPropertyOp14
 70
     1
102
RTVSPropertyOp15
 70
     1
102
RTVSPropertyOp16
 70
     1
102
RTVSPropertyOp17
 70
     1
102
RTVSPropertyOp18
 70
     1
102
RTVSPropertyOp19
 70
     1
102
RTVSPropertyOp20
 70
     1
102
RTVSPropertyOp21
 70
     1
102
RTVSPropertyOp22
 70
     1
102
RTVSPropertyOp23
 70
     1
102
RTVSPropertyOp24
 70
     1
102
RTVSPropertyOp25
 70
     1
102
RTVSPropertyOp26
 70
     1
102
RTVSPropertyOp27
 70
     1
102
RTVSPropertyOp28
 70
     1
102
RTVSPropertyOp29
 70
     1
102
RTVSPropertyOp30
 70
     1
102
RTVSPropertyOp31
 70
     1
102
RTVSPropertyOp32
 70
     1
  0
XRECORD
  5
5ACB
102
{ACAD_REACTORS
330
5ACA
102
}
330
5ACA
100
AcDbXrecord
280
     1
102
RTVSPropertyOp0
 70
     1
102
RTVSPropertyOp1
 70
     1
102
RTVSPropertyOp2
 70
     1
102
RTVSPropertyOp3
 70
     1
102
RTVSPropertyOp4
 70
     1
102
RTVSPropertyOp5
 70
     1
102
RTVSPropertyOp6
 70
     1
102
RTVSPropertyOp7
 70
     1
102
RTVSPropertyOp8
 70
     1
102
RTVSPropertyOp9
 70
     1
102
RTVSPropertyOp10
 70
     1
102
RTVSPropertyOp11
 70
     1
102
RTVSPropertyOp12
 70
     1
102
RTVSPropertyOp13
 70
     1
102
RTVSPropertyOp14
 70
     1
102
RTVSPropertyOp15
 70
     1
102
RTVSPropertyOp16
 70
     1
102
RTVSPropertyOp17
 70
     1
102
RTVSPropertyOp18
 70
     1
102
RTVSPropertyOp19
 70
     1
102
RTVSPropertyOp20
 70
     1
102
RTVSPropertyOp21
 70
     1
102
RTVSPropertyOp22
 70
     1
102
RTVSPropertyOp23
 70
     1
102
RTVSPropertyOp24
 70
     1
102
RTVSPropertyOp25
 70
     1
102
RTVSPropertyOp26
 70
     1
102
RTVSPropertyOp27
 70
     1
102
RTVSPropertyOp28
 70
     1
102
RTVSPropertyOp29
 70
     1
102
RTVSPropertyOp30
 70
     1
102
RTVSPropertyOp31
 70
     1
102
RTVSPropertyOp32
 70
     1
  0
XRECORD
  5
5ABD
102
{ACAD_REACTORS
330
5ABC
102
}
330
5ABC
100
AcDbXrecord
280
     1
102
RTVSPropertyOp0
 70
     1
102
RTVSPropertyOp1
 70
     1
102
RTVSPropertyOp2
 70
     1
102
RTVSPropertyOp3
 70
     1
102
RTVSPropertyOp4
 70
     1
102
RTVSPropertyOp5
 70
     1
102
RTVSPropertyOp6
 70
     1
102
RTVSPropertyOp7
 70
     1
102
RTVSPropertyOp8
 70
     1
102
RTVSPropertyOp9
 70
     1
102
RTVSPropertyOp10
 70
     1
102
RTVSPropertyOp11
 70
     1
102
RTVSPropertyOp12
 70
     1
102
RTVSPropertyOp13
 70
     1
102
RTVSPropertyOp14
 70
     1
102
RTVSPropertyOp15
 70
     1
102
RTVSPropertyOp16
 70
     1
102
RTVSPropertyOp17
 70
     1
102
RTVSPropertyOp18
 70
     1
102
RTVSPropertyOp19
 70
     1
102
RTVSPropertyOp20
 70
     1
102
RTVSPropertyOp21
 70
     1
102
RTVSPropertyOp22
 70
     1
102
RTVSPropertyOp23
 70
     1
102
RTVSPropertyOp24
 70
     1
102
RTVSPropertyOp25
 70
     1
102
RTVSPropertyOp26
 70
     1
102
RTVSPropertyOp27
 70
     1
102
RTVSPropertyOp28
 70
     1
102
RTVSPropertyOp29
 70
     1
102
RTVSPropertyOp30
 70
     1
102
RTVSPropertyOp31
 70
     1
102
RTVSPropertyOp32
 70
     1
  0
XRECORD
  5
5AC1
102
{ACAD_REACTORS
330
5AC0
102
}
330
5AC0
100
AcDbXrecord
280
     1
102
RTVSPropertyOp0
 70
     1
102
RTVSPropertyOp1
 70
     1
102
RTVSPropertyOp2
 70
     1
102
RTVSPropertyOp3
 70
     1
102
RTVSPropertyOp4
 70
     1
102
RTVSPropertyOp5
 70
     1
102
RTVSPropertyOp6
 70
     1
102
RTVSPropertyOp7
 70
     1
102
RTVSPropertyOp8
 70
     1
102
RTVSPropertyOp9
 70
     1
102
RTVSPropertyOp10
 70
     1
102
RTVSPropertyOp11
 70
     1
102
RTVSPropertyOp12
 70
     1
102
RTVSPropertyOp13
 70
     1
102
RTVSPropertyOp14
 70
     1
102
RTVSPropertyOp15
 70
     1
102
RTVSPropertyOp16
 70
     1
102
RTVSPropertyOp17
 70
     1
102
RTVSPropertyOp18
 70
     1
102
RTVSPropertyOp19
 70
     1
102
RTVSPropertyOp20
 70
     1
102
RTVSPropertyOp21
 70
     1
102
RTVSPropertyOp22
 70
     1
102
RTVSPropertyOp23
 70
     1
102
RTVSPropertyOp24
 70
     1
102
RTVSPropertyOp25
 70
     1
102
RTVSPropertyOp26
 70
     1
102
RTVSPropertyOp27
 70
     1
102
RTVSPropertyOp28
 70
     1
102
RTVSPropertyOp29
 70
     1
102
RTVSPropertyOp30
 70
     1
102
RTVSPropertyOp31
 70
     1
102
RTVSPropertyOp32
 70
     1
  0
XRECORD
  5
5ADF
102
{ACAD_REACTORS
330
5ADE
102
}
330
5ADE
100
AcDbXrecord
280
     1
102
RTVSPropertyOp0
 70
     0
102
RTVSPropertyOp1
 70
     0
102
RTVSPropertyOp2
 70
     0
102
RTVSPropertyOp3
 70
     0
102
RTVSPropertyOp4
 70
     0
102
RTVSPropertyOp5
 70
     0
102
RTVSPropertyOp6
 70
     0
102
RTVSPropertyOp7
 70
     0
102
RTVSPropertyOp8
 70
     0
102
RTVSPropertyOp9
 70
     0
102
RTVSPropertyOp10
 70
     0
102
RTVSPropertyOp11
 70
     0
102
RTVSPropertyOp12
 70
     0
102
RTVSPropertyOp13
 70
     0
102
RTVSPropertyOp14
 70
     2
102
RTVSPropertyOp15
 70
     0
102
RTVSPropertyOp16
 70
     0
102
RTVSPropertyOp17
 70
     0
102
RTVSPropertyOp18
 70
     0
102
RTVSPropertyOp19
 70
     0
102
RTVSPropertyOp20
 70
     0
102
RTVSPropertyOp21
 70
     0
102
RTVSPropertyOp22
 70
     0
102
RTVSPropertyOp23
 70
     0
102
RTVSPropertyOp24
 70
     0
102
RTVSPropertyOp25
 70
     0
102
RTVSPropertyOp26
 70
     0
102
RTVSPropertyOp27
 70
     0
102
RTVSPropertyOp28
 70
     1
102
RTVSPropertyOp29
 70
     1
102
RTVSPropertyOp30
 70
     1
102
RTVSPropertyOp31
 70
     1
102
RTVSPropertyOp32
 70
     1
  0
XRECORD
  5
5AC9
102
{ACAD_REACTORS
330
5AC8
102
}
330
5AC8
100
AcDbXrecord
280
     1
102
RTVSPropertyOp0
 70
     1
102
RTVSPropertyOp1
 70
     1
102
RTVSPropertyOp2
 70
     1
102
RTVSPropertyOp3
 70
     1
102
RTVSPropertyOp4
 70
     1
102
RTVSPropertyOp5
 70
     1
102
RTVSPropertyOp6
 70
     1
102
RTVSPropertyOp7
 70
     1
102
RTVSPropertyOp8
 70
     1
102
RTVSPropertyOp9
 70
     1
102
RTVSPropertyOp10
 70
     1
102
RTVSPropertyOp11
 70
     1
102
RTVSPropertyOp12
 70
     1
102
RTVSPropertyOp13
 70
     1
102
RTVSPropertyOp14
 70
     1
102
RTVSPropertyOp15
 70
     1
102
RTVSPropertyOp16
 70
     1
102
RTVSPropertyOp17
 70
     1
102
RTVSPropertyOp18
 70
     1
102
RTVSPropertyOp19
 70
     1
102
RTVSPropertyOp20
 70
     1
102
RTVSPropertyOp21
 70
     1
102
RTVSPropertyOp22
 70
     1
102
RTVSPropertyOp23
 70
     1
102
RTVSPropertyOp24
 70
     1
102
RTVSPropertyOp25
 70
     1
102
RTVSPropertyOp26
 70
     1
102
RTVSPropertyOp27
 70
     1
102
RTVSPropertyOp28
 70
     1
102
RTVSPropertyOp29
 70
     1
102
RTVSPropertyOp30
 70
     1
102
RTVSPropertyOp31
 70
     1
102
RTVSPropertyOp32
 70
     1
  0
XRECORD
  5
5AAD
102
{ACAD_REACTORS
330
5AAC
102
}
330
5AAC
100
AcDbXrecord
280
     1
102
RTVSPropertyOp0
 70
     1
102
RTVSPropertyOp1
 70
     1
102
RTVSPropertyOp2
 70
     1
102
RTVSPropertyOp3
 70
     1
102
RTVSPropertyOp4
 70
     1
102
RTVSPropertyOp5
 70
     1
102
RTVSPropertyOp6
 70
     1
102
RTVSPropertyOp7
 70
     1
102
RTVSPropertyOp8
 70
     1
102
RTVSPropertyOp9
 70
     1
102
RTVSPropertyOp10
 70
     1
102
RTVSPropertyOp11
 70
     1
102
RTVSPropertyOp12
 70
     1
102
RTVSPropertyOp13
 70
     1
102
RTVSPropertyOp14
 70
     1
102
RTVSPropertyOp15
 70
     1
102
RTVSPropertyOp16
 70
     1
102
RTVSPropertyOp17
 70
     1
102
RTVSPropertyOp18
 70
     1
102
RTVSPropertyOp19
 70
     1
102
RTVSPropertyOp20
 70
     1
102
RTVSPropertyOp21
 70
     1
102
RTVSPropertyOp22
 70
     1
102
RTVSPropertyOp23
 70
     1
102
RTVSPropertyOp24
 70
     1
102
RTVSPropertyOp25
 70
     1
102
RTVSPropertyOp26
 70
     1
102
RTVSPropertyOp27
 70
     1
102
RTVSPropertyOp28
 70
     1
102
RTVSPropertyOp29
 70
     1
102
RTVSPropertyOp30
 70
     1
102
RTVSPropertyOp31
 70
     1
102
RTVSPropertyOp32
 70
     1
  0
XRECORD
  5
5AAF
102
{ACAD_REACTORS
330
5AAE
102
}
330
5AAE
100
AcDbXrecord
280
     1
102
RTVSPropertyOp0
 70
     1
102
RTVSPropertyOp1
 70
     1
102
RTVSPropertyOp2
 70
     1
102
RTVSPropertyOp3
 70
     1
102
RTVSPropertyOp4
 70
     1
102
RTVSPropertyOp5
 70
     1
102
RTVSPropertyOp6
 70
     1
102
RTVSPropertyOp7
 70
     1
102
RTVSPropertyOp8
 70
     1
102
RTVSPropertyOp9
 70
     1
102
RTVSPropertyOp10
 70
     1
102
RTVSPropertyOp11
 70
     1
102
RTVSPropertyOp12
 70
     1
102
RTVSPropertyOp13
 70
     1
102
RTVSPropertyOp14
 70
     1
102
RTVSPropertyOp15
 70
     1
102
RTVSPropertyOp16
 70
     1
102
RTVSPropertyOp17
 70
     1
102
RTVSPropertyOp18
 70
     1
102
RTVSPropertyOp19
 70
     1
102
RTVSPropertyOp20
 70
     1
102
RTVSPropertyOp21
 70
     1
102
RTVSPropertyOp22
 70
     1
102
RTVSPropertyOp23
 70
     1
102
RTVSPropertyOp24
 70
     1
102
RTVSPropertyOp25
 70
     1
102
RTVSPropertyOp26
 70
     1
102
RTVSPropertyOp27
 70
     1
102
RTVSPropertyOp28
 70
     1
102
RTVSPropertyOp29
 70
     1
102
RTVSPropertyOp30
 70
     1
102
RTVSPropertyOp31
 70
     1
102
RTVSPropertyOp32
 70
     1
  0
XRECORD
  5
5AB1
102
{ACAD_REACTORS
330
5AB0
102
}
330
5AB0
100
AcDbXrecord
280
     1
102
RTVSPropertyOp0
 70
     1
102
RTVSPropertyOp1
 70
     1
102
RTVSPropertyOp2
 70
     1
102
RTVSPropertyOp3
 70
     1
102
RTVSPropertyOp4
 70
     1
102
RTVSPropertyOp5
 70
     1
102
RTVSPropertyOp6
 70
     1
102
RTVSPropertyOp7
 70
     1
102
RTVSPropertyOp8
 70
     1
102
RTVSPropertyOp9
 70
     1
102
RTVSPropertyOp10
 70
     1
102
RTVSPropertyOp11
 70
     1
102
RTVSPropertyOp12
 70
     1
102
RTVSPropertyOp13
 70
     1
102
RTVSPropertyOp14
 70
     1
102
RTVSPropertyOp15
 70
     1
102
RTVSPropertyOp16
 70
     1
102
RTVSPropertyOp17
 70
     1
102
RTVSPropertyOp18
 70
     1
102
RTVSPropertyOp19
 70
     1
102
RTVSPropertyOp20
 70
     1
102
RTVSPropertyOp21
 70
     1
102
RTVSPropertyOp22
 70
     1
102
RTVSPropertyOp23
 70
     1
102
RTVSPropertyOp24
 70
     1
102
RTVSPropertyOp25
 70
     1
102
RTVSPropertyOp26
 70
     1
102
RTVSPropertyOp27
 70
     1
102
RTVSPropertyOp28
 70
     1
102
RTVSPropertyOp29
 70
     1
102
RTVSPropertyOp30
 70
     1
102
RTVSPropertyOp31
 70
     1
102
RTVSPropertyOp32
 70
     1
  0
XRECORD
  5
5AB3
102
{ACAD_REACTORS
330
5AB2
102
}
330
5AB2
100
AcDbXrecord
280
     1
102
RTVSPropertyOp0
 70
     1
102
RTVSPropertyOp1
 70
     1
102
RTVSPropertyOp2
 70
     1
102
RTVSPropertyOp3
 70
     1
102
RTVSPropertyOp4
 70
     1
102
RTVSPropertyOp5
 70
     1
102
RTVSPropertyOp6
 70
     1
102
RTVSPropertyOp7
 70
     1
102
RTVSPropertyOp8
 70
     1
102
RTVSPropertyOp9
 70
     1
102
RTVSPropertyOp10
 70
     1
102
RTVSPropertyOp11
 70
     1
102
RTVSPropertyOp12
 70
     1
102
RTVSPropertyOp13
 70
     1
102
RTVSPropertyOp14
 70
     1
102
RTVSPropertyOp15
 70
     1
102
RTVSPropertyOp16
 70
     1
102
RTVSPropertyOp17
 70
     1
102
RTVSPropertyOp18
 70
     1
102
RTVSPropertyOp19
 70
     1
102
RTVSPropertyOp20
 70
     1
102
RTVSPropertyOp21
 70
     1
102
RTVSPropertyOp22
 70
     1
102
RTVSPropertyOp23
 70
     1
102
RTVSPropertyOp24
 70
     1
102
RTVSPropertyOp25
 70
     1
102
RTVSPropertyOp26
 70
     1
102
RTVSPropertyOp27
 70
     1
102
RTVSPropertyOp28
 70
     1
102
RTVSPropertyOp29
 70
     1
102
RTVSPropertyOp30
 70
     1
102
RTVSPropertyOp31
 70
     1
102
RTVSPropertyOp32
 70
     1
  0
XRECORD
  5
5ACF
102
{ACAD_REACTORS
330
5ACE
102
}
330
5ACE
100
AcDbXrecord
280
     1
102
RTVSPropertyOp0
 70
     1
102
RTVSPropertyOp1
 70
     1
102
RTVSPropertyOp2
 70
     1
102
RTVSPropertyOp3
 70
     1
102
RTVSPropertyOp4
 70
     1
102
RTVSPropertyOp5
 70
     1
102
RTVSPropertyOp6
 70
     1
102
RTVSPropertyOp7
 70
     1
102
RTVSPropertyOp8
 70
     1
102
RTVSPropertyOp9
 70
     1
102
RTVSPropertyOp10
 70
     1
102
RTVSPropertyOp11
 70
     1
102
RTVSPropertyOp12
 70
     1
102
RTVSPropertyOp13
 70
     1
102
RTVSPropertyOp14
 70
     1
102
RTVSPropertyOp15
 70
     1
102
RTVSPropertyOp16
 70
     1
102
RTVSPropertyOp17
 70
     1
102
RTVSPropertyOp18
 70
     1
102
RTVSPropertyOp19
 70
     1
102
RTVSPropertyOp20
 70
     1
102
RTVSPropertyOp21
 70
     1
102
RTVSPropertyOp22
 70
     1
102
RTVSPropertyOp23
 70
     1
102
RTVSPropertyOp24
 70
     1
102
RTVSPropertyOp25
 70
     1
102
RTVSPropertyOp26
 70
     1
102
RTVSPropertyOp27
 70
     1
102
RTVSPropertyOp28
 70
     1
102
RTVSPropertyOp29
 70
     1
102
RTVSPropertyOp30
 70
     1
102
RTVSPropertyOp31
 70
     1
102
RTVSPropertyOp32
 70
     1
  0
XRECORD
  5
5ADB
102
{ACAD_REACTORS
330
5ADA
102
}
330
5ADA
100
AcDbXrecord
280
     1
102
RTVSPropertyOp0
 70
     0
102
RTVSPropertyOp1
 70
     0
102
RTVSPropertyOp2
 70
     0
102
RTVSPropertyOp3
 70
     0
102
RTVSPropertyOp4
 70
     0
102
RTVSPropertyOp5
 70
     0
102
RTVSPropertyOp6
 70
     0
102
RTVSPropertyOp7
 70
     0
102
RTVSPropertyOp8
 70
     0
102
RTVSPropertyOp9
 70
     0
102
RTVSPropertyOp10
 70
     0
102
RTVSPropertyOp11
 70
     0
102
RTVSPropertyOp12
 70
     0
102
RTVSPropertyOp13
 70
     0
102
RTVSPropertyOp14
 70
     2
102
RTVSPropertyOp15
 70
     0
102
RTVSPropertyOp16
 70
     0
102
RTVSPropertyOp17
 70
     0
102
RTVSPropertyOp18
 70
     0
102
RTVSPropertyOp19
 70
     0
102
RTVSPropertyOp20
 70
     0
102
RTVSPropertyOp21
 70
     0
102
RTVSPropertyOp22
 70
     0
102
RTVSPropertyOp23
 70
     0
102
RTVSPropertyOp24
 70
     0
102
RTVSPropertyOp25
 70
     0
102
RTVSPropertyOp26
 70
     0
102
RTVSPropertyOp27
 70
     0
102
RTVSPropertyOp28
 70
     1
102
RTVSPropertyOp29
 70
     1
102
RTVSPropertyOp30
 70
     1
102
RTVSPropertyOp31
 70
     1
102
RTVSPropertyOp32
 70
     1
  0
XRECORD
  5
5AC7
102
{ACAD_REACTORS
330
5AC6
102
}
330
5AC6
100
AcDbXrecord
280
     1
102
RTVSPropertyOp0
 70
     1
102
RTVSPropertyOp1
 70
     1
102
RTVSPropertyOp2
 70
     1
102
RTVSPropertyOp3
 70
     1
102
RTVSPropertyOp4
 70
     1
102
RTVSPropertyOp5
 70
     1
102
RTVSPropertyOp6
 70
     1
102
RTVSPropertyOp7
 70
     1
102
RTVSPropertyOp8
 70
     1
102
RTVSPropertyOp9
 70
     1
102
RTVSPropertyOp10
 70
     1
102
RTVSPropertyOp11
 70
     1
102
RTVSPropertyOp12
 70
     1
102
RTVSPropertyOp13
 70
     1
102
RTVSPropertyOp14
 70
     1
102
RTVSPropertyOp15
 70
     1
102
RTVSPropertyOp16
 70
     1
102
RTVSPropertyOp17
 70
     1
102
RTVSPropertyOp18
 70
     1
102
RTVSPropertyOp19
 70
     1
102
RTVSPropertyOp20
 70
     1
102
RTVSPropertyOp21
 70
     1
102
RTVSPropertyOp22
 70
     1
102
RTVSPropertyOp23
 70
     1
102
RTVSPropertyOp24
 70
     1
102
RTVSPropertyOp25
 70
     1
102
RTVSPropertyOp26
 70
     1
102
RTVSPropertyOp27
 70
     1
102
RTVSPropertyOp28
 70
     1
102
RTVSPropertyOp29
 70
     1
102
RTVSPropertyOp30
 70
     1
102
RTVSPropertyOp31
 70
     1
102
RTVSPropertyOp32
 70
     1
  0
XRECORD
  5
5ADD
102
{ACAD_REACTORS
330
5ADC
102
}
330
5ADC
100
AcDbXrecord
280
     1
102
RTVSPropertyOp0
 70
     0
102
RTVSPropertyOp1
 70
     0
102
RTVSPropertyOp2
 70
     0
102
RTVSPropertyOp3
 70
     0
102
RTVSPropertyOp4
 70
     0
102
RTVSPropertyOp5
 70
     0
102
RTVSPropertyOp6
 70
     0
102
RTVSPropertyOp7
 70
     0
102
RTVSPropertyOp8
 70
     0
102
RTVSPropertyOp9
 70
     0
102
RTVSPropertyOp10
 70
     0
102
RTVSPropertyOp11
 70
     0
102
RTVSPropertyOp12
 70
     0
102
RTVSPropertyOp13
 70
     0
102
RTVSPropertyOp14
 70
     2
102
RTVSPropertyOp15
 70
     0
102
RTVSPropertyOp16
 70
     0
102
RTVSPropertyOp17
 70
     0
102
RTVSPropertyOp18
 70
     0
102
RTVSPropertyOp19
 70
     0
102
RTVSPropertyOp20
 70
     0
102
RTVSPropertyOp21
 70
     0
102
RTVSPropertyOp22
 70
     0
102
RTVSPropertyOp23
 70
     0
102
RTVSPropertyOp24
 70
     0
102
RTVSPropertyOp25
 70
     0
102
RTVSPropertyOp26
 70
     0
102
RTVSPropertyOp27
 70
     0
102
RTVSPropertyOp28
 70
     1
102
RTVSPropertyOp29
 70
     1
102
RTVSPropertyOp30
 70
     1
102
RTVSPropertyOp31
 70
     1
102
RTVSPropertyOp32
 70
     1
  0
XRECORD
  5
5ABF
102
{ACAD_REACTORS
330
5ABE
102
}
330
5ABE
100
AcDbXrecord
280
     1
102
RTVSPropertyOp0
 70
     1
102
RTVSPropertyOp1
 70
     1
102
RTVSPropertyOp2
 70
     1
102
RTVSPropertyOp3
 70
     1
102
RTVSPropertyOp4
 70
     1
102
RTVSPropertyOp5
 70
     1
102
RTVSPropertyOp6
 70
     1
102
RTVSPropertyOp7
 70
     1
102
RTVSPropertyOp8
 70
     1
102
RTVSPropertyOp9
 70
     1
102
RTVSPropertyOp10
 70
     1
102
RTVSPropertyOp11
 70
     1
102
RTVSPropertyOp12
 70
     1
102
RTVSPropertyOp13
 70
     1
102
RTVSPropertyOp14
 70
     1
102
RTVSPropertyOp15
 70
     1
102
RTVSPropertyOp16
 70
     1
102
RTVSPropertyOp17
 70
     1
102
RTVSPropertyOp18
 70
     1
102
RTVSPropertyOp19
 70
     1
102
RTVSPropertyOp20
 70
     1
102
RTVSPropertyOp21
 70
     1
102
RTVSPropertyOp22
 70
     1
102
RTVSPropertyOp23
 70
     1
102
RTVSPropertyOp24
 70
     1
102
RTVSPropertyOp25
 70
     1
102
RTVSPropertyOp26
 70
     1
102
RTVSPropertyOp27
 70
     1
102
RTVSPropertyOp28
 70
     1
102
RTVSPropertyOp29
 70
     1
102
RTVSPropertyOp30
 70
     1
102
RTVSPropertyOp31
 70
     1
102
RTVSPropertyOp32
 70
     1
  0
XRECORD
  5
5AD9
102
{ACAD_REACTORS
330
5AD8
102
}
330
5AD8
100
AcDbXrecord
280
     1
102
RTVSPropertyOp0
 70
     1
102
RTVSPropertyOp1
 70
     1
102
RTVSPropertyOp2
 70
     1
102
RTVSPropertyOp3
 70
     1
102
RTVSPropertyOp4
 70
     1
102
RTVSPropertyOp5
 70
     1
102
RTVSPropertyOp6
 70
     1
102
RTVSPropertyOp7
 70
     1
102
RTVSPropertyOp8
 70
     1
102
RTVSPropertyOp9
 70
     1
102
RTVSPropertyOp10
 70
     1
102
RTVSPropertyOp11
 70
     1
102
RTVSPropertyOp12
 70
     1
102
RTVSPropertyOp13
 70
     1
102
RTVSPropertyOp14
 70
     1
102
RTVSPropertyOp15
 70
     1
102
RTVSPropertyOp16
 70
     1
102
RTVSPropertyOp17
 70
     1
102
RTVSPropertyOp18
 70
     1
102
RTVSPropertyOp19
 70
     1
102
RTVSPropertyOp20
 70
     1
102
RTVSPropertyOp21
 70
     1
102
RTVSPropertyOp22
 70
     1
102
RTVSPropertyOp23
 70
     1
102
RTVSPropertyOp24
 70
     1
102
RTVSPropertyOp25
 70
     1
102
RTVSPropertyOp26
 70
     1
102
RTVSPropertyOp27
 70
     1
102
RTVSPropertyOp28
 70
     1
102
RTVSPropertyOp29
 70
     1
102
RTVSPropertyOp30
 70
     1
102
RTVSPropertyOp31
 70
     1
102
RTVSPropertyOp32
 70
     1
  0
XRECORD
  5
5AD7
102
{ACAD_REACTORS
330
5AD6
102
}
330
5AD6
100
AcDbXrecord
280
     1
102
RTVSPropertyOp0
 70
     1
102
RTVSPropertyOp1
 70
     1
102
RTVSPropertyOp2
 70
     1
102
RTVSPropertyOp3
 70
     1
102
RTVSPropertyOp4
 70
     1
102
RTVSPropertyOp5
 70
     1
102
RTVSPropertyOp6
 70
     1
102
RTVSPropertyOp7
 70
     1
102
RTVSPropertyOp8
 70
     1
102
RTVSPropertyOp9
 70
     1
102
RTVSPropertyOp10
 70
     1
102
RTVSPropertyOp11
 70
     1
102
RTVSPropertyOp12
 70
     1
102
RTVSPropertyOp13
 70
     1
102
RTVSPropertyOp14
 70
     1
102
RTVSPropertyOp15
 70
     1
102
RTVSPropertyOp16
 70
     1
102
RTVSPropertyOp17
 70
     1
102
RTVSPropertyOp18
 70
     1
102
RTVSPropertyOp19
 70
     1
102
RTVSPropertyOp20
 70
     1
102
RTVSPropertyOp21
 70
     1
102
RTVSPropertyOp22
 70
     1
102
RTVSPropertyOp23
 70
     1
102
RTVSPropertyOp24
 70
     1
102
RTVSPropertyOp25
 70
     1
102
RTVSPropertyOp26
 70
     1
102
RTVSPropertyOp27
 70
     1
102
RTVSPropertyOp28
 70
     1
102
RTVSPropertyOp29
 70
     1
102
RTVSPropertyOp30
 70
     1
102
RTVSPropertyOp31
 70
     1
102
RTVSPropertyOp32
 70
     1
  0
XRECORD
  5
5AD1
102
{ACAD_REACTORS
330
5AD0
102
}
330
5AD0
100
AcDbXrecord
280
     1
102
RTVSPropertyOp0
 70
     1
102
RTVSPropertyOp1
 70
     1
102
RTVSPropertyOp2
 70
     1
102
RTVSPropertyOp3
 70
     1
102
RTVSPropertyOp4
 70
     1
102
RTVSPropertyOp5
 70
     1
102
RTVSPropertyOp6
 70
     1
102
RTVSPropertyOp7
 70
     1
102
RTVSPropertyOp8
 70
     1
102
RTVSPropertyOp9
 70
     1
102
RTVSPropertyOp10
 70
     1
102
RTVSPropertyOp11
 70
     1
102
RTVSPropertyOp12
 70
     1
102
RTVSPropertyOp13
 70
     1
102
RTVSPropertyOp14
 70
     1
102
RTVSPropertyOp15
 70
     1
102
RTVSPropertyOp16
 70
     1
102
RTVSPropertyOp17
 70
     1
102
RTVSPropertyOp18
 70
     1
102
RTVSPropertyOp19
 70
     1
102
RTVSPropertyOp20
 70
     1
102
RTVSPropertyOp21
 70
     1
102
RTVSPropertyOp22
 70
     1
102
RTVSPropertyOp23
 70
     1
102
RTVSPropertyOp24
 70
     1
102
RTVSPropertyOp25
 70
     1
102
RTVSPropertyOp26
 70
     1
102
RTVSPropertyOp27
 70
     1
102
RTVSPropertyOp28
 70
     1
102
RTVSPropertyOp29
 70
     1
102
RTVSPropertyOp30
 70
     1
102
RTVSPropertyOp31
 70
     1
102
RTVSPropertyOp32
 70
     1
  0
XRECORD
  5
5AD3
102
{ACAD_REACTORS
330
5AD2
102
}
330
5AD2
100
AcDbXrecord
280
     1
102
RTVSPropertyOp0
 70
     1
102
RTVSPropertyOp1
 70
     1
102
RTVSPropertyOp2
 70
     1
102
RTVSPropertyOp3
 70
     1
102
RTVSPropertyOp4
 70
     1
102
RTVSPropertyOp5
 70
     1
102
RTVSPropertyOp6
 70
     1
102
RTVSPropertyOp7
 70
     1
102
RTVSPropertyOp8
 70
     1
102
RTVSPropertyOp9
 70
     1
102
RTVSPropertyOp10
 70
     1
102
RTVSPropertyOp11
 70
     1
102
RTVSPropertyOp12
 70
     1
102
RTVSPropertyOp13
 70
     1
102
RTVSPropertyOp14
 70
     1
102
RTVSPropertyOp15
 70
     1
102
RTVSPropertyOp16
 70
     1
102
RTVSPropertyOp17
 70
     1
102
RTVSPropertyOp18
 70
     1
102
RTVSPropertyOp19
 70
     1
102
RTVSPropertyOp20
 70
     1
102
RTVSPropertyOp21
 70
     1
102
RTVSPropertyOp22
 70
     1
102
RTVSPropertyOp23
 70
     1
102
RTVSPropertyOp24
 70
     1
102
RTVSPropertyOp25
 70
     1
102
RTVSPropertyOp26
 70
     1
102
RTVSPropertyOp27
 70
     1
102
RTVSPropertyOp28
 70
     1
102
RTVSPropertyOp29
 70
     1
102
RTVSPropertyOp30
 70
     1
102
RTVSPropertyOp31
 70
     1
102
RTVSPropertyOp32
 70
     1
  0
XRECORD
  5
5AC5
102
{ACAD_REACTORS
330
5AC4
102
}
330
5AC4
100
AcDbXrecord
280
     1
102
RTVSPropertyOp0
 70
     1
102
RTVSPropertyOp1
 70
     1
102
RTVSPropertyOp2
 70
     1
102
RTVSPropertyOp3
 70
     1
102
RTVSPropertyOp4
 70
     1
102
RTVSPropertyOp5
 70
     1
102
RTVSPropertyOp6
 70
     1
102
RTVSPropertyOp7
 70
     1
102
RTVSPropertyOp8
 70
     1
102
RTVSPropertyOp9
 70
     1
102
RTVSPropertyOp10
 70
     1
102
RTVSPropertyOp11
 70
     1
102
RTVSPropertyOp12
 70
     1
102
RTVSPropertyOp13
 70
     1
102
RTVSPropertyOp14
 70
     1
102
RTVSPropertyOp15
 70
     1
102
RTVSPropertyOp16
 70
     1
102
RTVSPropertyOp17
 70
     1
102
RTVSPropertyOp18
 70
     1
102
RTVSPropertyOp19
 70
     1
102
RTVSPropertyOp20
 70
     1
102
RTVSPropertyOp21
 70
     1
102
RTVSPropertyOp22
 70
     1
102
RTVSPropertyOp23
 70
     1
102
RTVSPropertyOp24
 70
     1
102
RTVSPropertyOp25
 70
     1
102
RTVSPropertyOp26
 70
     1
102
RTVSPropertyOp27
 70
     1
102
RTVSPropertyOp28
 70
     1
102
RTVSPropertyOp29
 70
     1
102
RTVSPropertyOp30
 70
     1
102
RTVSPropertyOp31
 70
     1
102
RTVSPropertyOp32
 70
     1
  0
XRECORD
  5
5ACD
102
{ACAD_REACTORS
330
5ACC
102
}
330
5ACC
100
AcDbXrecord
280
     1
102
RTVSPropertyOp0
 70
     1
102
RTVSPropertyOp1
 70
     1
102
RTVSPropertyOp2
 70
     1
102
RTVSPropertyOp3
 70
     1
102
RTVSPropertyOp4
 70
     1
102
RTVSPropertyOp5
 70
     1
102
RTVSPropertyOp6
 70
     1
102
RTVSPropertyOp7
 70
     1
102
RTVSPropertyOp8
 70
     1
102
RTVSPropertyOp9
 70
     1
102
RTVSPropertyOp10
 70
     1
102
RTVSPropertyOp11
 70
     1
102
RTVSPropertyOp12
 70
     1
102
RTVSPropertyOp13
 70
     1
102
RTVSPropertyOp14
 70
     1
102
RTVSPropertyOp15
 70
     1
102
RTVSPropertyOp16
 70
     1
102
RTVSPropertyOp17
 70
     1
102
RTVSPropertyOp18
 70
     1
102
RTVSPropertyOp19
 70
     1
102
RTVSPropertyOp20
 70
     1
102
RTVSPropertyOp21
 70
     1
102
RTVSPropertyOp22
 70
     1
102
RTVSPropertyOp23
 70
     1
102
RTVSPropertyOp24
 70
     1
102
RTVSPropertyOp25
 70
     1
102
RTVSPropertyOp26
 70
     1
102
RTVSPropertyOp27
 70
     1
102
RTVSPropertyOp28
 70
     1
102
RTVSPropertyOp29
 70
     1
102
RTVSPropertyOp30
 70
     1
102
RTVSPropertyOp31
 70
     1
102
RTVSPropertyOp32
 70
     1
  0
XRECORD
  5
5AD5
102
{ACAD_REACTORS
330
5AD4
102
}
330
5AD4
100
AcDbXrecord
280
     1
102
RTVSPropertyOp0
 70
     1
102
RTVSPropertyOp1
 70
     1
102
RTVSPropertyOp2
 70
     1
102
RTVSPropertyOp3
 70
     1
102
RTVSPropertyOp4
 70
     1
102
RTVSPropertyOp5
 70
     1
102
RTVSPropertyOp6
 70
     1
102
RTVSPropertyOp7
 70
     1
102
RTVSPropertyOp8
 70
     1
102
RTVSPropertyOp9
 70
     1
102
RTVSPropertyOp10
 70
     1
102
RTVSPropertyOp11
 70
     1
102
RTVSPropertyOp12
 70
     1
102
RTVSPropertyOp13
 70
     1
102
RTVSPropertyOp14
 70
     1
102
RTVSPropertyOp15
 70
     1
102
RTVSPropertyOp16
 70
     1
102
RTVSPropertyOp17
 70
     1
102
RTVSPropertyOp18
 70
     1
102
RTVSPropertyOp19
 70
     1
102
RTVSPropertyOp20
 70
     1
102
RTVSPropertyOp21
 70
     1
102
RTVSPropertyOp22
 70
     1
102
RTVSPropertyOp23
 70
     1
102
RTVSPropertyOp24
 70
     1
102
RTVSPropertyOp25
 70
     1
102
RTVSPropertyOp26
 70
     1
102
RTVSPropertyOp27
 70
     1
102
RTVSPropertyOp28
 70
     1
102
RTVSPropertyOp29
 70
     1
102
RTVSPropertyOp30
 70
     1
102
RTVSPropertyOp31
 70
     1
102
RTVSPropertyOp32
 70
     1
  0
ENDSEC
  0
EOF
