  0
SECTION
  2
HEADER
  9
$ACADVER
  1
AC1015
  9
$ACADMAINTVER
 70
    14
  9
$DWGCODEPAGE
  3
ANSI_932
  9
$INSBASE
 10
0.0
 20
0.0
 30
0.0
  9
$EXTMIN
 10
357.7653460198007
 20
57.67969751824193
 30
-0.0000000349181948
  9
$EXTMAX
 10
1304.788573518306
 20
1132.478084945687
 30
0.0000000814935746
  9
$LIMMIN
 10
-580.5701293945312
 20
0.0
  9
$LIMMAX
 10
0.0
 20
407.8999938964844
  9
$ORTHOMODE
 70
     0
  9
$REGENMODE
 70
     1
  9
$FILLMODE
 70
     1
  9
$QTEXTMODE
 70
     0
  9
$MIRRTEXT
 70
     1
  9
$LTSCALE
 40
1.0
  9
$ATTMODE
 70
     1
  9
$TEXTSIZE
 40
0.2
  9
$TRACEWID
 40
0.05
  9
$TEXTSTYLE
  7
STANDARD
  9
$CLAYER
  8
0
  9
$CELTYPE
  6
CONTINUOUS
  9
$CECOLOR
 62
   256
  9
$CELTSCALE
 40
1.0
  9
$DISPSILH
 70
     0
  9
$DIMSCALE
 40
1.0
  9
$DIMASZ
 40
1.0
  9
$DIMEXO
 40
2.54
  9
$DIMDLI
 40
0.38
  9
$DIMRND
 40
0.0
  9
$DIMDLE
 40
0.0
  9
$DIMEXE
 40
2.54
  9
$DIMTP
 40
0.0
  9
$DIMTM
 40
0.0
  9
$DIMTXT
 40
3.200000047683714
  9
$DIMCEN
 40
0.09
  9
$DIMTSZ
 40
0.0
  9
$DIMTOL
 70
     0
  9
$DIMLIM
 70
     0
  9
$DIMTIH
 70
     0
  9
$DIMTOH
 70
     0
  9
$DIMSE1
 70
     0
  9
$DIMSE2
 70
     0
  9
$DIMTAD
 70
     1
  9
$DIMZIN
 70
     0
  9
$DIMBLK
  1

  9
$DIMASO
 70
     1
  9
$DIMSHO
 70
     0
  9
$DIMPOST
  1

  9
$DIMAPOST
  1

  9
$DIMALT
 70
     0
  9
$DIMALTD
 70
     2
  9
$DIMALTF
 40
25.4
  9
$DIMLFAC
 40
1.0
  9
$DIMTOFL
 70
     0
  9
$DIMTVP
 40
1.0
  9
$DIMTIX
 70
     0
  9
$DIMSOXD
 70
     0
  9
$DIMSAH
 70
     1
  9
$DIMBLK1
  1

  9
$DIMBLK2
  1

  9
$DIMSTYLE
  2
STANDARD
  9
$DIMCLRD
 70
     0
  9
$DIMCLRE
 70
     0
  9
$DIMCLRT
 70
     0
  9
$DIMTFAC
 40
1.0
  9
$DIMGAP
 40
1.600000023841857
  9
$DIMJUST
 70
     0
  9
$DIMSD1
 70
     0
  9
$DIMSD2
 70
     0
  9
$DIMTOLJ
 70
     1
  9
$DIMTZIN
 70
     0
  9
$DIMALTZ
 70
     0
  9
$DIMALTTZ
 70
     0
  9
$DIMUPT
 70
     0
  9
$DIMDEC
 70
     4
  9
$DIMTDEC
 70
     4
  9
$DIMALTU
 70
     2
  9
$DIMALTTD
 70
     2
  9
$DIMTXSTY
  7
STANDARD
  9
$DIMAUNIT
 70
     0
  9
$DIMADEC
 70
     0
  9
$DIMALTRND
 40
0.0
  9
$DIMAZIN
 70
     0
  9
$DIMDSEP
 70
    46
  9
$DIMATFIT
 70
     3
  9
$DIMFRAC
 70
     0
  9
$DIMLDRBLK
  1

  9
$DIMLUNIT
 70
     2
  9
$DIMLWD
 70
    -2
  9
$DIMLWE
 70
    -2
  9
$DIMTMOVE
 70
     0
  9
$LUNITS
 70
     2
  9
$LUPREC
 70
     4
  9
$SKETCHINC
 40
0.1
  9
$FILLETRAD
 40
0.0
  9
$AUNITS
 70
     0
  9
$AUPREC
 70
     0
  9
$MENU
  1
.
  9
$ELEVATION
 40
0.0
  9
$PELEVATION
 40
0.0
  9
$THICKNESS
 40
0.0
  9
$LIMCHECK
 70
     0
  9
$CHAMFERA
 40
0.0
  9
$CHAMFERB
 40
0.0
  9
$CHAMFERC
 40
0.0
  9
$CHAMFERD
 40
0.0
  9
$SKPOLY
 70
     0
  9
$TDCREATE
 40
2452717.604314595
  9
$TDUCREATE
 40
2452717.229314595
  9
$TDUPDATE
 40
2456899.681841192
  9
$TDUUPDATE
 40
2456899.306841192
  9
$TDINDWG
 40
0.0982750231
  9
$TDUSRTIMER
 40
0.0982750231
  9
$USRTIMER
 70
     1
  9
$ANGBASE
 50
0.0
  9
$ANGDIR
 70
     0
  9
$PDMODE
 70
     0
  9
$PDSIZE
 40
0.0
  9
$PLINEWID
 40
0.0
  9
$SPLFRAME
 70
     0
  9
$SPLINETYPE
 70
     6
  9
$SPLINESEGS
 70
     8
  9
$HANDSEED
  5
26C7
  9
$SURFTAB1
 70
     6
  9
$SURFTAB2
 70
     6
  9
$SURFTYPE
 70
     6
  9
$SURFU
 70
     6
  9
$SURFV
 70
     6
  9
$UCSBASE
  2

  9
$UCSNAME
  2

  9
$UCSORG
 10
0.0
 20
0.0
 30
0.0
  9
$UCSXDIR
 10
1.0
 20
0.0
 30
0.0
  9
$UCSYDIR
 10
0.0
 20
1.0
 30
0.0
  9
$UCSORTHOREF
  2

  9
$UCSORTHOVIEW
 70
     0
  9
$UCSORGTOP
 10
0.0
 20
0.0
 30
0.0
  9
$UCSORGBOTTOM
 10
0.0
 20
0.0
 30
0.0
  9
$UCSORGLEFT
 10
0.0
 20
0.0
 30
0.0
  9
$UCSORGRIGHT
 10
0.0
 20
0.0
 30
0.0
  9
$UCSORGFRONT
 10
0.0
 20
0.0
 30
0.0
  9
$UCSORGBACK
 10
0.0
 20
0.0
 30
0.0
  9
$PUCSBASE
  2

  9
$PUCSNAME
  2

  9
$PUCSORG
 10
0.0
 20
0.0
 30
0.0
  9
$PUCSXDIR
 10
1.0
 20
0.0
 30
0.0
  9
$PUCSYDIR
 10
0.0
 20
1.0
 30
0.0
  9
$PUCSORTHOREF
  2

  9
$PUCSORTHOVIEW
 70
     0
  9
$PUCSORGTOP
 10
0.0
 20
0.0
 30
0.0
  9
$PUCSORGBOTTOM
 10
0.0
 20
0.0
 30
0.0
  9
$PUCSORGLEFT
 10
0.0
 20
0.0
 30
0.0
  9
$PUCSORGRIGHT
 10
0.0
 20
0.0
 30
0.0
  9
$PUCSORGFRONT
 10
0.0
 20
0.0
 30
0.0
  9
$PUCSORGBACK
 10
0.0
 20
0.0
 30
0.0
  9
$USERI1
 70
     0
  9
$USERI2
 70
     0
  9
$USERI3
 70
     0
  9
$USERI4
 70
     0
  9
$USERI5
 70
     0
  9
$USERR1
 40
0.0
  9
$USERR2
 40
0.0
  9
$USERR3
 40
0.0
  9
$USERR4
 40
0.0
  9
$USERR5
 40
0.0
  9
$WORLDVIEW
 70
     1
  9
$SHADEDGE
 70
     3
  9
$SHADEDIF
 70
    70
  9
$TILEMODE
 70
     1
  9
$MAXACTVP
 70
    48
  9
$PINSBASE
 10
0.0
 20
0.0
 30
0.0
  9
$PLIMCHECK
 70
     0
  9
$PEXTMIN
 10
-580.5701293945312
 20
0.0
 30
0.0
  9
$PEXTMAX
 10
0.0
 20
407.8999938964844
 30
0.0
  9
$PLIMMIN
 10
-580.5701293945312
 20
0.0
  9
$PLIMMAX
 10
0.0
 20
407.8999938964844
  9
$UNITMODE
 70
     0
  9
$VISRETAIN
 70
     1
  9
$PLINEGEN
 70
     0
  9
$PSLTSCALE
 70
     1
  9
$TREEDEPTH
 70
  3020
  9
$CMLSTYLE
  2
Standard
  9
$CMLJUST
 70
     0
  9
$CMLSCALE
 40
1.0
  9
$PROXYGRAPHICS
 70
     1
  9
$MEASUREMENT
 70
     0
  9
$CELWEIGHT
370
    -1
  9
$ENDCAPS
280
     0
  9
$JOINSTYLE
280
     0
  9
$LWDISPLAY
290
     0
  9
$INSUNITS
 70
     0
  9
$HYPERLINKBASE
  1

  9
$STYLESHEET
  1

  9
$XEDIT
290
     1
  9
$CEPSNTYPE
380
     0
  9
$PSTYLEMODE
290
     1
  9
$FINGERPRINTGUID
  2
{73302D64-B00F-4098-BDB6-8D5E2C45F90D}
  9
$VERSIONGUID
  2
{02B7983D-E541-4347-9237-2A1A1366E368}
  9
$EXTNAMES
290
     1
  9
$PSVPSCALE
 40
0.0
  9
$OLESTARTUP
290
     0
  0
ENDSEC
  0
SECTION
  2
CLASSES
  0
CLASS
  1
ACDBDICTIONARYWDFLT
  2
AcDbDictionaryWithDefault
  3
AutoCAD 2000
 90
        0
280
     0
281
     0
  0
CLASS
  1
ACDBPLACEHOLDER
  2
AcDbPlaceHolder
  3
AutoCAD 2000
 90
        0
280
     0
281
     0
  0
CLASS
  1
LAYOUT
  2
AcDbLayout
  3
AutoCAD 2000
 90
        0
280
     0
281
     0
  0
CLASS
  1
DICTIONARYVAR
  2
AcDbDictionaryVar
  3
AutoCAD 2000
 90
        0
280
     0
281
     0
  0
CLASS
  1
LONG_TRANSACTION
  2
AcDbLongTransaction
  3
AutoCAD 2000
 90
    32768
280
     0
281
     0
  0
CLASS
  1
LWPOLYLINE
  2
AcDbPolyline
  3
AutoCAD 2000
 90
    32768
280
     0
281
     1
  0
CLASS
  1
HATCH
  2
AcDbHatch
  3
AutoCAD 2000
 90
    32768
280
     0
281
     1
  0
CLASS
  1
XRECORD
  2
AcDbXrecord
  3
AutoCAD 2000
 90
    32768
280
     0
281
     0
  0
ENDSEC
  0
SECTION
  2
TABLES
  0
TABLE
  2
VPORT
  5
2651
330
0
100
AcDbSymbolTable
 70
     2
  0
VPORT
  5
26C6
330
2651
100
AcDbSymbolTableRecord
100
AcDbViewportTableRecord
  2
*Active
 70
     0
 10
0.0
 20
0.0
 11
1.0
 21
1.0
 12
831.2769597690536
 22
595.078891231965
 13
0.0
 23
0.0
 14
1.0
 24
1.0
 15
0.0
 25
0.0
 16
0.0
 26
0.0
 36
1.0
 17
0.0
 27
0.0
 37
0.0
 40
1081.622504173017
 41
1.592161016949152
 42
50.0
 43
0.0
 44
0.0
 50
0.0
 51
0.0
 71
     0
 72
   100
 73
     1
 74
     3
 75
     0
 76
     0
 77
     0
 78
     0
281
     0
 65
     1
110
0.0
120
0.0
130
0.0
111
1.0
121
0.0
131
0.0
112
0.0
122
1.0
132
0.0
 79
     0
146
0.0
  0
ENDTAB
  0
TABLE
  2
LTYPE
  5
264E
330
0
100
AcDbSymbolTable
 70
     2
  0
LTYPE
  5
265C
330
264E
100
AcDbSymbolTableRecord
100
AcDbLinetypeTableRecord
  2
ByBlock
 70
     0
  3

 72
    65
 73
     0
 40
0.0
  0
LTYPE
  5
265D
330
264E
100
AcDbSymbolTableRecord
100
AcDbLinetypeTableRecord
  2
ByLayer
 70
     0
  3

 72
    65
 73
     0
 40
0.0
  0
LTYPE
  5
265E
330
264E
100
AcDbSymbolTableRecord
100
AcDbLinetypeTableRecord
  2
CONTINUOUS
 70
     0
  3
Solid line
 72
    65
 73
     0
 40
0.0
  0
LTYPE
  5
26B3
330
264E
100
AcDbSymbolTableRecord
100
AcDbLinetypeTableRecord
  2
CENTER
 70
     0
  3
__ . __
 72
    65
 73
     4
 40
7.0
 49
4.0
 74
     0
 49
-1.0
 74
     0
 49
1.0
 74
     0
 49
-1.0
 74
     0
  0
ENDTAB
  0
TABLE
  2
LAYER
  5
264B
102
{ACAD_XDICTIONARY
360
26B4
102
}
330
0
100
AcDbSymbolTable
 70
     2
  0
LAYER
  5
2659
330
264B
100
AcDbSymbolTableRecord
100
AcDbLayerTableRecord
  2
0
 70
     0
 62
     7
  6
CONTINUOUS
370
    -3
390
2658
  0
LAYER
  5
266C
330
264B
100
AcDbSymbolTableRecord
100
AcDbLayerTableRecord
  2
DEFPOINTS
 70
     0
 62
     7
  6
CONTINUOUS
290
     0
370
    -3
390
2658
  0
ENDTAB
  0
TABLE
  2
STYLE
  5
264C
330
0
100
AcDbSymbolTable
 70
     1
  0
STYLE
  5
265A
330
264C
100
AcDbSymbolTableRecord
100
AcDbTextStyleTableRecord
  2
STANDARD
 70
     0
 40
0.0
 41
1.0
 50
0.0
 71
     0
 42
0.2
  3
txt
  4
BIGFONT
  0
ENDTAB
  0
TABLE
  2
VIEW
  5
264F
330
0
100
AcDbSymbolTable
 70
     0
  0
ENDTAB
  0
TABLE
  2
UCS
  5
2650
330
0
100
AcDbSymbolTable
 70
     0
  0
ENDTAB
  0
TABLE
  2
APPID
  5
2652
330
0
100
AcDbSymbolTable
 70
     4
  0
APPID
  5
265B
330
2652
100
AcDbSymbolTableRecord
100
AcDbRegAppTableRecord
  2
ACAD
 70
     0
  0
APPID
  5
266D
330
2652
100
AcDbSymbolTableRecord
100
AcDbRegAppTableRecord
  2
MCAD_NO_VIS
 70
     0
  0
APPID
  5
266E
330
2652
100
AcDbSymbolTableRecord
100
AcDbRegAppTableRecord
  2
ACAD_TEMP_GRAPHIC
 70
     0
  0
APPID
  5
266F
330
2652
100
AcDbSymbolTableRecord
100
AcDbRegAppTableRecord
  2
ACATTRIBSERVICES
 70
     0
  0
ENDTAB
  0
TABLE
  2
DIMSTYLE
  5
2653
330
0
100
AcDbSymbolTable
 70
     1
100
AcDbDimStyleTable
 71
     0
  0
DIMSTYLE
105
2670
330
2653
100
AcDbSymbolTableRecord
100
AcDbDimStyleTableRecord
  2
STANDARD
 70
     0
279
     2
340
265A
  0
ENDTAB
  0
TABLE
  2
BLOCK_RECORD
  5
264A
330
0
100
AcDbSymbolTable
 70
     2
  0
BLOCK_RECORD
  5
2667
102
{ACAD_XDICTIONARY
360
2679
102
}
330
264A
100
AcDbSymbolTableRecord
100
AcDbBlockTableRecord
  2
*Model_Space
340
266A
  0
BLOCK_RECORD
  5
2663
102
{ACAD_XDICTIONARY
360
267B
102
}
330
264A
100
AcDbSymbolTableRecord
100
AcDbBlockTableRecord
  2
*Paper_Space
340
2666
  0
BLOCK_RECORD
  5
2673
330
264A
100
AcDbSymbolTableRecord
100
AcDbBlockTableRecord
  2
$MODEL_SPACE
340
0
  0
BLOCK_RECORD
  5
2675
330
264A
100
AcDbSymbolTableRecord
100
AcDbBlockTableRecord
  2
$PAPER_SPACE
340
0
  0
ENDTAB
  0
ENDSEC
  0
SECTION
  2
BLOCKS
  0
BLOCK
  5
2668
330
2667
100
AcDbEntity
  8
0
100
AcDbBlockBegin
  2
*Model_Space
 70
     0
 10
0.0
 20
0.0
 30
0.0
  3
*Model_Space
  1

  0
ENDBLK
  5
2669
330
2667
100
AcDbEntity
  8
0
100
AcDbBlockEnd
  0
BLOCK
  5
2664
330
2663
100
AcDbEntity
 67
     1
  8
0
100
AcDbBlockBegin
  2
*Paper_Space
 70
     0
 10
0.0
 20
0.0
 30
0.0
  3
*Paper_Space
  1

  0
ENDBLK
  5
2665
330
2663
100
AcDbEntity
 67
     1
  8
0
100
AcDbBlockEnd
  0
BLOCK
  5
2674
330
2673
100
AcDbEntity
  8
0
100
AcDbBlockBegin
  2
$MODEL_SPACE
 70
     0
 10
0.0
 20
0.0
 30
0.0
  3
$MODEL_SPACE
  1

  0
ENDBLK
  5
25C7
330
2673
100
AcDbEntity
  8
0
100
AcDbBlockEnd
  0
BLOCK
  5
2676
330
2675
100
AcDbEntity
  8
0
100
AcDbBlockBegin
  2
$PAPER_SPACE
 70
     0
 10
0.0
 20
0.0
 30
0.0
  3
$PAPER_SPACE
  1

  0
ENDBLK
  5
25C3
330
2675
100
AcDbEntity
  8
0
100
AcDbBlockEnd
  0
ENDSEC
  0
SECTION
  2
ENTITIES
  0
LINE
  5
EAF
330
2667
100
AcDbEntity
  8
0
100
AcDbLine
 10
795.7143336661364
 20
266.7350543840512
 30
0.0
 11
795.7143336661364
 21
355.4850386111728
 31
0.0
  0
LINE
  5
EB8
330
2667
100
AcDbEntity
  8
0
100
AcDbLine
 10
896.2143430985703
 20
249.2350538625111
 30
0.0
 11
896.2143430985703
 21
266.7350543840512
 31
0.0
  0
LINE
  5
EBB
330
2667
100
AcDbEntity
  8
0
100
AcDbLine
 10
803.9643336661365
 20
115.6328376977217
 30
0.0
 11
803.9643336661354
 21
172.7218718029338
 31
0.0
  0
LINE
  5
EBC
330
2667
100
AcDbEntity
  8
0
100
AcDbLine
 10
867.4643260367419
 20
115.6328106059588
 30
0.0
 11
867.4643260367419
 21
172.7219338039289
 31
0.0
  0
LINE
  5
EBF
330
2667
100
AcDbEntity
  8
0
100
AcDbLine
 10
796.9643260367421
 20
110.2350541232817
 30
0.0
 11
874.4643336661354
 21
110.2350541232817
 31
0.0
  0
LINE
  5
EC2
330
2667
100
AcDbEntity
  8
0
100
AcDbLine
 10
874.4643336661354
 20
113.0850160979911
 30
0.0
 11
867.4643260367419
 21
115.6328106059588
 31
0.0
  0
LINE
  5
EC3
330
2667
100
AcDbEntity
  8
0
100
AcDbLine
 10
874.4643336661354
 20
110.2350541232817
 30
0.0
 11
874.4643336661354
 21
113.0850160979911
 31
0.0
  0
LINE
  5
ED8
330
2667
100
AcDbEntity
  8
0
100
AcDbLine
 10
796.9643260367421
 20
113.0850431897538
 30
0.0
 11
803.9643336661365
 21
115.6328376977217
 31
0.0
  0
LINE
  5
EDF
330
2667
100
AcDbEntity
  8
0
100
AcDbLine
 10
796.9643260367421
 20
110.2350541232817
 30
0.0
 11
796.9643260367421
 21
113.0850431897538
 31
0.0
  0
LINE
  5
EE3
330
2667
100
AcDbEntity
  8
0
100
AcDbLine
 10
736.1121084537403
 20
246.9850388644918
 30
0.0
 11
788.7143260367421
 21
246.9850388644918
 31
0.0
  0
LINE
  5
EE4
330
2667
100
AcDbEntity
  8
0
100
AcDbLine
 10
736.1121137413731
 20
183.4850236057028
 30
0.0
 11
788.7143260367421
 21
183.4850236057028
 31
0.0
  0
LINE
  5
EEB
330
2667
100
AcDbEntity
  8
0
100
AcDbLine
 10
882.7143336661363
 20
249.2350388644918
 30
0.0
 11
882.7143336661363
 21
177.4850236057029
 31
0.0
  0
LINE
  5
EF4
330
2667
100
AcDbEntity
  8
0
100
AcDbLine
 10
788.7143260367421
 20
177.4850236057029
 30
0.0
 11
882.7143336661363
 21
177.4850236057029
 31
0.0
  0
LINE
  5
EF5
330
2667
100
AcDbEntity
  8
0
100
AcDbLine
 10
875.7142394263565
 20
177.4850236057029
 30
0.0
 11
867.4643260367419
 21
172.7219338039289
 31
0.0
  0
LINE
  5
F1B
330
2667
100
AcDbEntity
  8
0
100
AcDbLine
 10
795.7143128876488
 20
177.4850236057029
 30
0.0
 11
803.9643336661354
 21
172.7218718029338
 31
0.0
  0
LINE
  5
F35
330
2667
100
AcDbEntity
  8
0
100
AcDbLine
 10
788.7143260367421
 20
249.2350538625111
 30
0.0
 11
788.7143260367421
 21
177.4850236057029
 31
0.0
  0
LINE
  5
F3E
330
2667
100
AcDbEntity
  8
0
100
AcDbLine
 10
896.2143430985703
 20
249.2350538625111
 30
0.0
 11
775.2143394924885
 21
249.2350538625111
 31
0.0
  0
LINE
  5
F52
330
2667
100
AcDbEntity
  8
0
100
AcDbLine
 10
896.2143430985703
 20
266.7350543840512
 30
0.0
 11
775.2143394924885
 21
266.7350543840512
 31
0.0
  0
LINE
  5
F53
330
2667
100
AcDbEntity
  8
0
100
AcDbLine
 10
875.7143260367421
 20
377.4850846408592
 30
0.0
 11
875.7143260367421
 21
372.4850391178116
 31
0.0
  0
LINE
  5
F68
330
2667
100
AcDbEntity
  8
0
100
AcDbLine
 10
775.2143394924885
 20
249.2350538625111
 30
0.0
 11
775.2143394924885
 21
266.7350543840512
 31
0.0
  0
LINE
  5
FC7
330
2667
100
AcDbEntity
  8
0
100
AcDbLine
 10
730.7143412955299
 20
176.4850388644918
 30
0.0
 11
730.7143412955299
 21
253.9850236057028
 31
0.0
  0
LINE
  5
FCB
330
2667
100
AcDbEntity
  8
0
100
AcDbLine
 10
733.5643275640229
 20
176.4850388644918
 30
0.0
 11
736.1121137413731
 21
183.4850236057028
 31
0.0
  0
LINE
  5
FCE
330
2667
100
AcDbEntity
  8
0
100
AcDbLine
 10
730.7143412955299
 20
176.4850388644918
 30
0.0
 11
733.5643275640229
 21
176.4850388644918
 31
0.0
  0
LINE
  5
FD6
330
2667
100
AcDbEntity
  8
0
100
AcDbLine
 10
733.56432227639
 20
253.9850236057028
 30
0.0
 11
736.1121084537403
 21
246.9850388644918
 31
0.0
  0
LINE
  5
FDB
330
2667
100
AcDbEntity
  8
0
100
AcDbLine
 10
730.7143412955299
 20
253.9850236057028
 30
0.0
 11
733.56432227639
 21
253.9850236057028
 31
0.0
  0
LINE
  5
FF8
330
2667
100
AcDbEntity
  8
0
100
AcDbLine
 10
767.9643336661355
 20
579.4850693820698
 30
0.0
 11
903.464326036742
 21
579.4850693820698
 31
0.0
  0
LINE
  5
1000
330
2667
100
AcDbEntity
  8
0
100
AcDbLine
 10
903.4643260367415
 20
377.4850846408592
 30
0.0
 11
903.464326036742
 21
579.4850693820698
 31
0.0
  0
LINE
  5
1009
330
2667
100
AcDbEntity
  8
0
100
AcDbLine
 10
767.9643336661355
 20
377.7851029514057
 30
0.0
 11
767.9643336661355
 21
579.4850693820698
 31
0.0
  0
LINE
  5
1039
330
2667
100
AcDbEntity
  8
0
100
AcDbLine
 10
888.2143428601521
 20
355.4850386111728
 30
0.0
 11
888.2143428601521
 21
372.4850391178116
 31
0.0
  0
LINE
  5
105F
330
2667
100
AcDbEntity
  8
0
100
AcDbLine
 10
783.214339730908
 20
372.4850391178116
 30
0.0
 11
888.2143428601521
 21
372.4850391178116
 31
0.0
  0
LINE
  5
1060
330
2667
100
AcDbEntity
  8
0
100
AcDbLine
 10
783.214339730908
 20
355.4850386111728
 30
0.0
 11
888.2143428601521
 21
355.4850386111728
 31
0.0
  0
LINE
  5
1061
330
2667
100
AcDbEntity
  8
0
100
AcDbLine
 10
767.9643336661355
 20
377.4850846408592
 30
0.0
 11
903.4643260367415
 21
377.4850846408592
 31
0.0
  0
LINE
  5
107B
330
2667
100
AcDbEntity
  8
0
100
AcDbLine
 10
783.214339730908
 20
355.4850386111728
 30
0.0
 11
783.214339730908
 21
372.4850391178116
 31
0.0
  0
LINE
  5
10D7
330
2667
100
AcDbEntity
  8
0
  6
Continuous
100
AcDbLine
 10
736.1121137413731
 20
183.4850236057028
 30
0.0
 11
736.1121084537403
 21
246.9850388644918
 31
0.0
  0
LINE
  5
10D8
330
2667
100
AcDbEntity
  8
0
  6
Continuous
100
AcDbLine
 10
803.9643336661365
 20
115.6328376977217
 30
0.0
 11
867.4643260367419
 21
115.6328106059588
 31
0.0
  0
LINE
  5
10D9
330
2667
100
AcDbEntity
  8
0
100
AcDbLine
 10
795.7143336661364
 20
372.4850391178116
 30
0.0
 11
795.7143336661364
 21
377.7851029514057
 31
0.0
  0
LINE
  5
10DA
330
2667
100
AcDbEntity
  8
0
100
AcDbLine
 10
875.7143260367421
 20
355.4850386111728
 30
0.0
 11
875.7143260367421
 21
266.7350543840512
 31
0.0
  0
CIRCLE
  5
209D
330
2667
100
AcDbEntity
  8
0
  6
Continuous
100
AcDbCircle
 10
835.7143298514383
 20
897.1250795335759
 30
0.0
 40
67.74999618530364
  0
LINE
  5
20A1
330
2667
100
AcDbEntity
  8
0
100
AcDbLine
 10
730.7143298514382
 20
935.8750719041809
 30
0.0
 11
733.5643108322982
 21
935.8750719041809
 31
0.0
  0
LINE
  5
20A2
330
2667
100
AcDbEntity
  8
0
100
AcDbLine
 10
733.5643108322982
 20
935.8750719041809
 30
0.0
 11
736.1120970096484
 21
928.8750871629698
 31
0.0
  0
LINE
  5
20A3
330
2667
100
AcDbEntity
  8
0
100
AcDbLine
 10
730.7143298514382
 20
858.3750871629703
 30
0.0
 11
733.5643161199315
 21
858.3750871629703
 31
0.0
  0
LINE
  5
20A4
330
2667
100
AcDbEntity
  8
0
100
AcDbLine
 10
733.5643161199315
 20
858.3750871629703
 30
0.0
 11
736.1121022972826
 21
865.3750719041816
 31
0.0
  0
LINE
  5
20A5
330
2667
100
AcDbEntity
  8
0
100
AcDbLine
 10
730.7143298514382
 20
858.3750871629703
 30
0.0
 11
730.7143298514382
 21
935.8750719041809
 31
0.0
  0
LINE
  5
20A6
330
2667
100
AcDbEntity
  8
0
  6
Continuous
100
AcDbLine
 10
736.1121022972826
 20
865.3750719041816
 30
0.0
 11
736.1120970096484
 21
928.8750871629698
 31
0.0
  0
LINE
  5
20A7
330
2667
100
AcDbEntity
  8
0
100
AcDbLine
 10
736.1121022972826
 20
865.3750719041816
 30
0.0
 11
775.8645261872484
 21
865.3750719041816
 31
0.0
  0
LINE
  5
20A8
330
2667
100
AcDbEntity
  8
0
100
AcDbLine
 10
736.1120970096484
 20
928.8750871629698
 30
0.0
 11
775.8645261872484
 21
928.8750871629716
 31
0.0
  0
LINE
  5
2229
330
2667
100
AcDbEntity
  8
0
100
AcDbLine
 10
940.7143463375154
 20
176.4850461415819
 30
0.0
 11
940.7143409663303
 21
253.9850308827928
 31
0.0
  0
LINE
  5
222A
330
2667
100
AcDbEntity
  8
0
  6
Continuous
100
AcDbLine
 10
935.3165734065344
 20
183.4850305086965
 30
0.0
 11
935.3165742932596
 21
246.9850457674869
 31
0.0
  0
LINE
  5
222B
330
2667
100
AcDbEntity
  8
0
100
AcDbLine
 10
935.3165734065344
 20
183.4850305086965
 30
0.0
 11
882.7143611111662
 21
183.4850268630677
 31
0.0
  0
LINE
  5
222C
330
2667
100
AcDbEntity
  8
0
100
AcDbLine
 10
940.7143463375154
 20
176.4850461415819
 30
0.0
 11
937.8643600690226
 21
176.4850459440617
 31
0.0
  0
LINE
  5
222D
330
2667
100
AcDbEntity
  8
0
100
AcDbLine
 10
937.8643600690226
 20
176.4850459440617
 30
0.0
 11
935.3165734065344
 21
183.4850305086965
 31
0.0
  0
LINE
  5
222E
330
2667
100
AcDbEntity
  8
0
100
AcDbLine
 10
935.3165742932596
 20
246.9850457674869
 30
0.0
 11
882.7143567102581
 21
246.9850421218568
 31
0.0
  0
LINE
  5
222F
330
2667
100
AcDbEntity
  8
0
100
AcDbLine
 10
940.7143409663303
 20
253.9850308827928
 30
0.0
 11
937.8643599854711
 21
253.9850306852728
 31
0.0
  0
LINE
  5
2230
330
2667
100
AcDbEntity
  8
0
100
AcDbLine
 10
937.8643599854711
 20
253.9850306852728
 30
0.0
 11
935.3165742932596
 21
246.9850457674869
 31
0.0
  0
LINE
  5
2231
330
2667
100
AcDbEntity
  8
0
100
AcDbLine
 10
940.7143242801835
 20
858.3750944400604
 30
0.0
 11
940.7143189089991
 21
935.8750791812717
 31
0.0
  0
LINE
  5
2232
330
2667
100
AcDbEntity
  8
0
  6
Continuous
100
AcDbLine
 10
935.3165513492006
 20
865.3750788071759
 30
0.0
 11
935.3165522359272
 21
928.8750940659648
 31
0.0
  0
LINE
  5
2233
330
2667
100
AcDbEntity
  8
0
100
AcDbLine
 10
935.3165513492006
 20
865.3750788071759
 30
0.0
 11
895.5641274592345
 21
865.3750760521095
 31
0.0
  0
LINE
  5
2234
330
2667
100
AcDbEntity
  8
0
100
AcDbLine
 10
940.7143242801835
 20
858.3750944400604
 30
0.0
 11
937.8643380116914
 21
858.3750942425403
 31
0.0
  0
LINE
  5
2235
330
2667
100
AcDbEntity
  8
0
100
AcDbLine
 10
937.8643380116914
 20
858.3750942425403
 30
0.0
 11
935.3165513492006
 21
865.3750788071759
 31
0.0
  0
LINE
  5
2236
330
2667
100
AcDbEntity
  8
0
100
AcDbLine
 10
937.8643379281394
 20
935.8750789837527
 30
0.0
 11
935.3165522359272
 21
928.8750940659648
 31
0.0
  0
LINE
  5
2237
330
2667
100
AcDbEntity
  8
0
100
AcDbLine
 10
935.3165522359272
 20
928.8750940659648
 30
0.0
 11
895.5641230583262
 21
928.8750913108977
 31
0.0
  0
LINE
  5
2238
330
2667
100
AcDbEntity
  8
0
100
AcDbLine
 10
940.7143189089991
 20
935.8750791812717
 30
0.0
 11
937.8643379281394
 21
935.8750789837527
 31
0.0
  0
LINE
  5
2616
330
2667
100
AcDbEntity
  8
0
100
AcDbLine
 10
786.2992168514382
 20
698.0519893820699
 30
0.0
 11
781.7143318514386
 21
632.4850703820698
 31
0.0
  0
LINE
  5
2617
330
2667
100
AcDbEntity
  8
0
100
AcDbLine
 10
885.1294468514382
 20
698.0519893820699
 30
0.0
 11
889.7143318514386
 21
632.4850703820698
 31
0.0
  0
LINE
  5
2618
330
2667
100
AcDbEntity
  8
0
100
AcDbLine
 10
878.2143278514384
 20
579.4850693820698
 30
0.0
 11
793.214331851439
 21
579.4850693820698
 31
0.0
  0
LINE
  5
2619
330
2667
100
AcDbEntity
  8
0
100
AcDbLine
 10
781.7143318514386
 20
632.4850693820698
 30
0.0
 11
781.7143318514386
 21
599.4036693820694
 31
0.0
  0
LINE
  5
261A
330
2667
100
AcDbEntity
  8
0
100
AcDbLine
 10
781.7143308514387
 20
599.4036703820698
 30
0.0
 11
793.2143378514382
 21
579.4850727646337
 31
0.0
  0
LINE
  5
261B
330
2667
100
AcDbEntity
  8
0
100
AcDbLine
 10
889.7143328514385
 20
599.4036703820698
 30
0.0
 11
878.2143268514387
 21
579.4850744164457
 31
0.0
  0
LINE
  5
261C
330
2667
100
AcDbEntity
  8
0
100
AcDbLine
 10
889.7143318514386
 20
632.4850693820698
 30
0.0
 11
889.7143318514386
 21
599.4036693820694
 31
0.0
  0
CIRCLE
  5
261D
330
2667
100
AcDbEntity
  8
0
100
AcDbCircle
 10
835.7143298514383
 20
897.1250795335759
 30
0.0
 40
54.0
  0
CIRCLE
  5
261E
330
2667
100
AcDbEntity
  8
0
100
AcDbCircle
 10
835.7143298514383
 20
897.1250795335759
 30
0.0
 40
54.0
  0
LINE
  5
261F
330
2667
100
AcDbEntity
  8
0
100
AcDbLine
 10
825.7143328514382
 20
740.4850693820698
 30
0.0
 11
845.7143338514393
 21
740.4850693820698
 31
0.0
  0
LINE
  5
2620
330
2667
100
AcDbEntity
  8
0
100
AcDbLine
 10
849.2143318514386
 20
707.4850693820698
 30
0.0
 11
822.214331851439
 21
707.4850693820698
 31
0.0
  0
LINE
  5
2621
330
2667
100
AcDbEntity
  8
0
100
AcDbLine
 10
849.2143318514386
 20
701.1941493820696
 30
0.0
 11
822.214331851439
 21
701.1941493820696
 31
0.0
  0
LINE
  5
2622
330
2667
100
AcDbEntity
  8
0
100
AcDbLine
 10
822.214331851439
 20
701.1941493820696
 30
0.0
 11
786.2992178514387
 21
698.0519793820698
 31
0.0
  0
LINE
  5
2623
330
2667
100
AcDbEntity
  8
0
100
AcDbLine
 10
825.7143328514382
 20
707.4850693820698
 30
0.0
 11
825.7143328514382
 21
740.4850693820698
 31
0.0
  0
LINE
  5
2624
330
2667
100
AcDbEntity
  8
0
100
AcDbLine
 10
822.214331851439
 20
707.4850693820698
 30
0.0
 11
822.214331851439
 21
701.1941493820696
 31
0.0
  0
LINE
  5
2625
330
2667
100
AcDbEntity
  8
0
100
AcDbLine
 10
822.214331851439
 20
706.48505938207
 30
0.0
 11
822.214331851439
 21
705.6226793820698
 31
0.0
  0
LINE
  5
2626
330
2667
100
AcDbEntity
  8
0
100
AcDbLine
 10
849.2143318514386
 20
701.1941493820696
 30
0.0
 11
885.1294458514384
 21
698.0519793820698
 31
0.0
  0
LINE
  5
2627
330
2667
100
AcDbEntity
  8
0
100
AcDbLine
 10
845.7143338514393
 20
707.4850693820698
 30
0.0
 11
845.7143338514393
 21
740.4850693820698
 31
0.0
  0
LINE
  5
2628
330
2667
100
AcDbEntity
  8
0
100
AcDbLine
 10
849.2143318514386
 20
707.4850693820698
 30
0.0
 11
849.2143318514386
 21
701.1941493820696
 31
0.0
  0
LINE
  5
2629
330
2667
100
AcDbEntity
  8
0
100
AcDbLine
 10
849.2143318514386
 20
706.4850693820698
 30
0.0
 11
849.2143318514386
 21
705.6226893820697
 31
0.0
  0
CIRCLE
  5
262A
330
2667
100
AcDbEntity
  8
0
100
AcDbCircle
 10
835.7143298514383
 20
897.1250795335759
 30
0.0
 40
13.5
  0
CIRCLE
  5
262B
330
2667
100
AcDbEntity
  8
0
100
AcDbCircle
 10
835.7143298514383
 20
897.1250795335759
 30
0.0
 40
9.999999
  0
CIRCLE
  5
262C
330
2667
100
AcDbEntity
  8
0
100
AcDbCircle
 10
835.7143298514383
 20
897.1250795335759
 30
0.0
 40
13.5
  0
CIRCLE
  5
262D
330
2667
100
AcDbEntity
  8
0
100
AcDbCircle
 10
835.7143298514383
 20
897.1250795335759
 30
0.0
 40
9.999999
  0
TEXT
  5
2635
330
2667
100
AcDbEntity
  8
0
  6
Continuous
100
AcDbText
 10
357.816497391614
 20
1084.408959859692
 30
0.0
 40
48.000002
  1
WTC__13MA100 2.5S
 41
1.32095
100
AcDbText
  0
LINE
  5
26BD
330
2667
100
AcDbEntity
  8
0
  6
CENTER
100
AcDbLine
 10
690.3475364754489
 20
897.1250795335759
 30
0.0
 11
981.0811232274275
 21
897.1250795335759
 31
0.0
  0
LINE
  5
26BE
330
2667
100
AcDbEntity
  8
0
  6
CENTER
100
AcDbLine
 10
835.7143298514383
 20
808.7921538348613
 30
0.0
 11
835.7143298514383
 21
985.4580052322905
 31
0.0
  0
LINE
  5
26BF
330
2667
100
AcDbEntity
  8
0
  6
CENTER
100
AcDbLine
 10
835.7143298514385
 20
57.71282199352208
 30
0.0
 11
835.7143298514385
 21
759.2966611531415
 31
0.0
  0
LINE
  5
26C0
330
2667
100
AcDbEntity
  8
0
  6
CENTER
100
AcDbLine
 10
690.3475585327803
 20
215.2350312350972
 30
0.0
 11
981.0811452847589
 21
215.2350312350972
 31
0.0
  0
ENDSEC
  0
SECTION
  2
OBJECTS
  0
DICTIONARY
  5
2655
330
0
100
AcDbDictionary
281
     1
  3
ACAD_GROUP
350
2656
  3
ACAD_LAYOUT
350
2662
  3
ACAD_MLINESTYLE
350
265F
  3
ACAD_PLOTSETTINGS
350
2661
  3
ACAD_PLOTSTYLENAME
350
2657
  3
AcDbVariableDictionary
350
26AD
  0
DICTIONARY
  5
26B4
330
264B
100
AcDbDictionary
280
     1
281
     1
  3
ACAD_LAYERSTATES
360
26B5
  0
DICTIONARY
  5
2679
330
2667
100
AcDbDictionary
280
     1
281
     1
  3
ACAD_LAYOUTSELFREF
360
26A8
  0
DICTIONARY
  5
267B
330
2663
100
AcDbDictionary
280
     1
281
     1
  3
ACAD_LAYOUTSELFREF
360
26A7
  0
DICTIONARY
  5
2656
102
{ACAD_REACTORS
330
2655
102
}
330
2655
100
AcDbDictionary
281
     1
  0
DICTIONARY
  5
2662
102
{ACAD_REACTORS
330
2655
102
}
330
2655
100
AcDbDictionary
281
     1
  3
Model
350
266A
  3
ﾚｲｱｳﾄ1
350
2666
  0
DICTIONARY
  5
265F
102
{ACAD_REACTORS
330
2655
102
}
330
2655
100
AcDbDictionary
281
     1
  3
Standard
350
2660
  0
DICTIONARY
  5
2661
102
{ACAD_REACTORS
330
2655
102
}
330
2655
100
AcDbDictionary
281
     1
  0
ACDBDICTIONARYWDFLT
  5
2657
102
{ACAD_REACTORS
330
2655
102
}
330
2655
100
AcDbDictionary
281
     1
  3
Normal
350
2658
100
AcDbDictionaryWithDefault
340
2658
  0
DICTIONARY
  5
26AD
102
{ACAD_REACTORS
330
2655
102
}
330
2655
100
AcDbDictionary
281
     1
  3
DIMASSOC
350
26AE
  0
DICTIONARY
  5
26B5
102
{ACAD_REACTORS
330
26B4
102
}
330
26B4
100
AcDbDictionary
281
     1
  0
XRECORD
  5
26A8
102
{ACAD_REACTORS
330
2679
102
}
330
2679
100
AcDbXrecord
280
     1
340
2667
  0
XRECORD
  5
26A7
102
{ACAD_REACTORS
330
267B
102
}
330
267B
100
AcDbXrecord
280
     1
340
2663
  0
LAYOUT
  5
266A
102
{ACAD_REACTORS
330
2662
102
}
330
2662
100
AcDbPlotSettings
  1

  2
SII LP-2150 (D-SCAN C2)
  4

  6

 40
0.0
 41
0.0
 42
0.0
 43
0.0
 44
0.0
 45
0.0
 46
0.0
 47
0.0
 48
0.0
 49
0.0
140
0.0
141
0.0
142
1.0
143
1.0
 70
  1712
 72
     0
 73
     0
 74
     0
  7

 75
     0
147
1.0
148
0.0
149
0.0
100
AcDbLayout
  1
Model
 70
     1
 71
     0
 10
0.0
 20
0.0
 11
12.0
 21
9.0
 12
0.0
 22
0.0
 32
0.0
 14
0.0
 24
0.0
 34
0.0
 15
0.0
 25
0.0
 35
0.0
146
0.0
 13
0.0
 23
0.0
 33
0.0
 16
1.0
 26
0.0
 36
0.0
 17
0.0
 27
1.0
 37
0.0
 76
     0
330
2667
  0
LAYOUT
  5
2666
102
{ACAD_REACTORS
330
2662
102
}
330
2662
100
AcDbPlotSettings
  1

  2
SII LP-2150 (D-SCAN C2)
  4

  6

 40
0.0
 41
0.0
 42
0.0
 43
0.0
 44
0.0
 45
0.0
 46
0.0
 47
0.0
 48
0.0
 49
0.0
140
0.0
141
0.0
142
1.0
143
1.0
 70
   688
 72
     0
 73
     0
 74
     5
  7

 75
    16
147
1.0
148
0.0
149
0.0
100
AcDbLayout
  1
ﾚｲｱｳﾄ1
 70
     1
 71
     1
 10
-580.5701293945312
 20
0.0
 11
0.0
 21
407.8999938964844
 12
0.0
 22
0.0
 32
0.0
 14
-580.5701293945312
 24
0.0
 34
0.0
 15
0.0
 25
407.8999938964844
 35
0.0
146
0.0
 13
0.0
 23
0.0
 33
0.0
 16
1.0
 26
0.0
 36
0.0
 17
0.0
 27
1.0
 37
0.0
 76
     0
330
2663
  0
MLINESTYLE
  5
2660
102
{ACAD_REACTORS
330
265F
102
}
330
265F
100
AcDbMlineStyle
  2
STANDARD
 70
     0
  3

 62
   256
 51
90.0
 52
90.0
 71
     2
 49
0.5
 62
   256
  6
BYLAYER
 49
-0.5
 62
   256
  6
BYLAYER
  0
ACDBPLACEHOLDER
  5
2658
102
{ACAD_REACTORS
330
2657
102
}
330
2657
  0
DICTIONARYVAR
  5
26AE
102
{ACAD_REACTORS
330
26AD
102
}
330
26AD
100
DictionaryVariables
280
     0
  1
1
  0
ENDSEC
  0
EOF
