  0
SECTION
  2
HEADER
  9
$ACADVER
  1
AC1015
  9
$ACADMAINTVER
 70
    14
  9
$DWGCODEPAGE
  3
ANSI_932
  9
$INSBASE
 10
0.0
 20
0.0
 30
0.0
  9
$EXTMIN
 10
232.3609906771817
 20
177.0024485679973
 30
-0.0000000000112498
  9
$EXTMAX
 10
1168.808089064976
 20
1069.275563454305
 30
0.0000000000002956
  9
$LIMMIN
 10
-580.5701293945312
 20
0.0
  9
$LIMMAX
 10
0.0
 20
407.8999938964844
  9
$ORTHOMODE
 70
     0
  9
$REGENMODE
 70
     1
  9
$FILLMODE
 70
     1
  9
$QTEXTMODE
 70
     0
  9
$MIRRTEXT
 70
     1
  9
$LTSCALE
 40
1.0
  9
$ATTMODE
 70
     1
  9
$TEXTSIZE
 40
0.2
  9
$TRACEWID
 40
0.05
  9
$TEXTSTYLE
  7
STANDARD
  9
$CLAYER
  8
0
  9
$CELTYPE
  6
CONTINUOUS
  9
$CECOLOR
 62
   256
  9
$CELTSCALE
 40
1.0
  9
$DISPSILH
 70
     0
  9
$DIMSCALE
 40
1.0
  9
$DIMASZ
 40
1.0
  9
$DIMEXO
 40
2.54
  9
$DIMDLI
 40
0.38
  9
$DIMRND
 40
0.0
  9
$DIMDLE
 40
0.0
  9
$DIMEXE
 40
2.54
  9
$DIMTP
 40
0.0
  9
$DIMTM
 40
0.0
  9
$DIMTXT
 40
3.200000047683714
  9
$DIMCEN
 40
0.09
  9
$DIMTSZ
 40
0.0
  9
$DIMTOL
 70
     0
  9
$DIMLIM
 70
     0
  9
$DIMTIH
 70
     0
  9
$DIMTOH
 70
     0
  9
$DIMSE1
 70
     0
  9
$DIMSE2
 70
     0
  9
$DIMTAD
 70
     1
  9
$DIMZIN
 70
     0
  9
$DIMBLK
  1

  9
$DIMASO
 70
     1
  9
$DIMSHO
 70
     0
  9
$DIMPOST
  1

  9
$DIMAPOST
  1

  9
$DIMALT
 70
     0
  9
$DIMALTD
 70
     2
  9
$DIMALTF
 40
25.4
  9
$DIMLFAC
 40
1.0
  9
$DIMTOFL
 70
     0
  9
$DIMTVP
 40
1.0
  9
$DIMTIX
 70
     0
  9
$DIMSOXD
 70
     0
  9
$DIMSAH
 70
     1
  9
$DIMBLK1
  1

  9
$DIMBLK2
  1

  9
$DIMSTYLE
  2
STANDARD
  9
$DIMCLRD
 70
     0
  9
$DIMCLRE
 70
     0
  9
$DIMCLRT
 70
     0
  9
$DIMTFAC
 40
1.0
  9
$DIMGAP
 40
1.600000023841857
  9
$DIMJUST
 70
     0
  9
$DIMSD1
 70
     0
  9
$DIMSD2
 70
     0
  9
$DIMTOLJ
 70
     1
  9
$DIMTZIN
 70
     0
  9
$DIMALTZ
 70
     0
  9
$DIMALTTZ
 70
     0
  9
$DIMUPT
 70
     0
  9
$DIMDEC
 70
     4
  9
$DIMTDEC
 70
     4
  9
$DIMALTU
 70
     2
  9
$DIMALTTD
 70
     2
  9
$DIMTXSTY
  7
STANDARD
  9
$DIMAUNIT
 70
     0
  9
$DIMADEC
 70
     0
  9
$DIMALTRND
 40
0.0
  9
$DIMAZIN
 70
     0
  9
$DIMDSEP
 70
    46
  9
$DIMATFIT
 70
     3
  9
$DIMFRAC
 70
     0
  9
$DIMLDRBLK
  1

  9
$DIMLUNIT
 70
     2
  9
$DIMLWD
 70
    -2
  9
$DIMLWE
 70
    -2
  9
$DIMTMOVE
 70
     0
  9
$LUNITS
 70
     2
  9
$LUPREC
 70
     4
  9
$SKETCHINC
 40
0.1
  9
$FILLETRAD
 40
0.0
  9
$AUNITS
 70
     0
  9
$AUPREC
 70
     0
  9
$MENU
  1
.
  9
$ELEVATION
 40
0.0
  9
$PELEVATION
 40
0.0
  9
$THICKNESS
 40
0.0
  9
$LIMCHECK
 70
     0
  9
$CHAMFERA
 40
0.0
  9
$CHAMFERB
 40
0.0
  9
$CHAMFERC
 40
0.0
  9
$CHAMFERD
 40
0.0
  9
$SKPOLY
 70
     0
  9
$TDCREATE
 40
2452717.604314595
  9
$TDUCREATE
 40
2452717.229314595
  9
$TDUPDATE
 40
2456899.681868993
  9
$TDUUPDATE
 40
2456899.306868993
  9
$TDINDWG
 40
0.0985761574
  9
$TDUSRTIMER
 40
0.0985761574
  9
$USRTIMER
 70
     1
  9
$ANGBASE
 50
0.0
  9
$ANGDIR
 70
     0
  9
$PDMODE
 70
     0
  9
$PDSIZE
 40
0.0
  9
$PLINEWID
 40
0.0
  9
$SPLFRAME
 70
     0
  9
$SPLINETYPE
 70
     6
  9
$SPLINESEGS
 70
     8
  9
$HANDSEED
  5
26CD
  9
$SURFTAB1
 70
     6
  9
$SURFTAB2
 70
     6
  9
$SURFTYPE
 70
     6
  9
$SURFU
 70
     6
  9
$SURFV
 70
     6
  9
$UCSBASE
  2

  9
$UCSNAME
  2

  9
$UCSORG
 10
0.0
 20
0.0
 30
0.0
  9
$UCSXDIR
 10
1.0
 20
0.0
 30
0.0
  9
$UCSYDIR
 10
0.0
 20
1.0
 30
0.0
  9
$UCSORTHOREF
  2

  9
$UCSORTHOVIEW
 70
     0
  9
$UCSORGTOP
 10
0.0
 20
0.0
 30
0.0
  9
$UCSORGBOTTOM
 10
0.0
 20
0.0
 30
0.0
  9
$UCSORGLEFT
 10
0.0
 20
0.0
 30
0.0
  9
$UCSORGRIGHT
 10
0.0
 20
0.0
 30
0.0
  9
$UCSORGFRONT
 10
0.0
 20
0.0
 30
0.0
  9
$UCSORGBACK
 10
0.0
 20
0.0
 30
0.0
  9
$PUCSBASE
  2

  9
$PUCSNAME
  2

  9
$PUCSORG
 10
0.0
 20
0.0
 30
0.0
  9
$PUCSXDIR
 10
1.0
 20
0.0
 30
0.0
  9
$PUCSYDIR
 10
0.0
 20
1.0
 30
0.0
  9
$PUCSORTHOREF
  2

  9
$PUCSORTHOVIEW
 70
     0
  9
$PUCSORGTOP
 10
0.0
 20
0.0
 30
0.0
  9
$PUCSORGBOTTOM
 10
0.0
 20
0.0
 30
0.0
  9
$PUCSORGLEFT
 10
0.0
 20
0.0
 30
0.0
  9
$PUCSORGRIGHT
 10
0.0
 20
0.0
 30
0.0
  9
$PUCSORGFRONT
 10
0.0
 20
0.0
 30
0.0
  9
$PUCSORGBACK
 10
0.0
 20
0.0
 30
0.0
  9
$USERI1
 70
     0
  9
$USERI2
 70
     0
  9
$USERI3
 70
     0
  9
$USERI4
 70
     0
  9
$USERI5
 70
     0
  9
$USERR1
 40
0.0
  9
$USERR2
 40
0.0
  9
$USERR3
 40
0.0
  9
$USERR4
 40
0.0
  9
$USERR5
 40
0.0
  9
$WORLDVIEW
 70
     1
  9
$SHADEDGE
 70
     3
  9
$SHADEDIF
 70
    70
  9
$TILEMODE
 70
     1
  9
$MAXACTVP
 70
    48
  9
$PINSBASE
 10
0.0
 20
0.0
 30
0.0
  9
$PLIMCHECK
 70
     0
  9
$PEXTMIN
 10
-580.5701293945312
 20
0.0
 30
0.0
  9
$PEXTMAX
 10
0.0
 20
407.8999938964844
 30
0.0
  9
$PLIMMIN
 10
-580.5701293945312
 20
0.0
  9
$PLIMMAX
 10
0.0
 20
407.8999938964844
  9
$UNITMODE
 70
     0
  9
$VISRETAIN
 70
     1
  9
$PLINEGEN
 70
     0
  9
$PSLTSCALE
 70
     1
  9
$TREEDEPTH
 70
  3020
  9
$CMLSTYLE
  2
Standard
  9
$CMLJUST
 70
     0
  9
$CMLSCALE
 40
1.0
  9
$PROXYGRAPHICS
 70
     1
  9
$MEASUREMENT
 70
     0
  9
$CELWEIGHT
370
    -1
  9
$ENDCAPS
280
     0
  9
$JOINSTYLE
280
     0
  9
$LWDISPLAY
290
     0
  9
$INSUNITS
 70
     0
  9
$HYPERLINKBASE
  1

  9
$STYLESHEET
  1

  9
$XEDIT
290
     1
  9
$CEPSNTYPE
380
     0
  9
$PSTYLEMODE
290
     1
  9
$FINGERPRINTGUID
  2
{FC8649C2-A276-4820-9F70-B5B0D07A46EE}
  9
$VERSIONGUID
  2
{29FC20F6-402B-44AB-8F3B-0C14D21FA4B8}
  9
$EXTNAMES
290
     1
  9
$PSVPSCALE
 40
0.0
  9
$OLESTARTUP
290
     0
  0
ENDSEC
  0
SECTION
  2
CLASSES
  0
CLASS
  1
ACDBDICTIONARYWDFLT
  2
AcDbDictionaryWithDefault
  3
AutoCAD 2000
 90
        0
280
     0
281
     0
  0
CLASS
  1
ACDBPLACEHOLDER
  2
AcDbPlaceHolder
  3
AutoCAD 2000
 90
        0
280
     0
281
     0
  0
CLASS
  1
LAYOUT
  2
AcDbLayout
  3
AutoCAD 2000
 90
        0
280
     0
281
     0
  0
CLASS
  1
DICTIONARYVAR
  2
AcDbDictionaryVar
  3
AutoCAD 2000
 90
        0
280
     0
281
     0
  0
CLASS
  1
LONG_TRANSACTION
  2
AcDbLongTransaction
  3
AutoCAD 2000
 90
    32768
280
     0
281
     0
  0
CLASS
  1
LWPOLYLINE
  2
AcDbPolyline
  3
AutoCAD 2000
 90
    32768
280
     0
281
     1
  0
CLASS
  1
HATCH
  2
AcDbHatch
  3
AutoCAD 2000
 90
    32768
280
     0
281
     1
  0
CLASS
  1
XRECORD
  2
AcDbXrecord
  3
AutoCAD 2000
 90
    32768
280
     0
281
     0
  0
ENDSEC
  0
SECTION
  2
TABLES
  0
TABLE
  2
VPORT
  5
264F
330
0
100
AcDbSymbolTable
 70
     2
  0
VPORT
  5
26CC
330
264F
100
AcDbSymbolTableRecord
100
AcDbViewportTableRecord
  2
*Active
 70
     0
 10
0.0
 20
0.0
 11
1.0
 21
1.0
 12
700.5845398710789
 22
623.1390060111514
 13
0.0
 23
0.0
 14
1.0
 24
1.0
 15
0.0
 25
0.0
 16
0.0
 26
0.0
 36
1.0
 17
0.0
 27
0.0
 37
0.0
 40
897.9383410125704
 41
1.592161016949152
 42
50.0
 43
0.0
 44
0.0
 50
0.0
 51
0.0
 71
     0
 72
   100
 73
     1
 74
     3
 75
     0
 76
     0
 77
     0
 78
     0
281
     0
 65
     1
110
0.0
120
0.0
130
0.0
111
1.0
121
0.0
131
0.0
112
0.0
122
1.0
132
0.0
 79
     0
146
0.0
  0
ENDTAB
  0
TABLE
  2
LTYPE
  5
264C
330
0
100
AcDbSymbolTable
 70
     2
  0
LTYPE
  5
265A
330
264C
100
AcDbSymbolTableRecord
100
AcDbLinetypeTableRecord
  2
ByBlock
 70
     0
  3

 72
    65
 73
     0
 40
0.0
  0
LTYPE
  5
265B
330
264C
100
AcDbSymbolTableRecord
100
AcDbLinetypeTableRecord
  2
ByLayer
 70
     0
  3

 72
    65
 73
     0
 40
0.0
  0
LTYPE
  5
265C
330
264C
100
AcDbSymbolTableRecord
100
AcDbLinetypeTableRecord
  2
CONTINUOUS
 70
     0
  3
Solid line
 72
    65
 73
     0
 40
0.0
  0
LTYPE
  5
26B1
330
264C
100
AcDbSymbolTableRecord
100
AcDbLinetypeTableRecord
  2
CENTER
 70
     0
  3
__ . __
 72
    65
 73
     4
 40
7.0
 49
4.0
 74
     0
 49
-1.0
 74
     0
 49
1.0
 74
     0
 49
-1.0
 74
     0
  0
ENDTAB
  0
TABLE
  2
LAYER
  5
2649
102
{ACAD_XDICTIONARY
360
26B2
102
}
330
0
100
AcDbSymbolTable
 70
     2
  0
LAYER
  5
2657
330
2649
100
AcDbSymbolTableRecord
100
AcDbLayerTableRecord
  2
0
 70
     0
 62
     7
  6
CONTINUOUS
370
    -3
390
2656
  0
LAYER
  5
266A
330
2649
100
AcDbSymbolTableRecord
100
AcDbLayerTableRecord
  2
DEFPOINTS
 70
     0
 62
     7
  6
CONTINUOUS
290
     0
370
    -3
390
2656
  0
ENDTAB
  0
TABLE
  2
STYLE
  5
264A
330
0
100
AcDbSymbolTable
 70
     1
  0
STYLE
  5
2658
330
264A
100
AcDbSymbolTableRecord
100
AcDbTextStyleTableRecord
  2
STANDARD
 70
     0
 40
0.0
 41
1.0
 50
0.0
 71
     0
 42
0.2
  3
txt
  4
BIGFONT
  0
ENDTAB
  0
TABLE
  2
VIEW
  5
264D
330
0
100
AcDbSymbolTable
 70
     0
  0
ENDTAB
  0
TABLE
  2
UCS
  5
264E
330
0
100
AcDbSymbolTable
 70
     0
  0
ENDTAB
  0
TABLE
  2
APPID
  5
2650
330
0
100
AcDbSymbolTable
 70
     4
  0
APPID
  5
2659
330
2650
100
AcDbSymbolTableRecord
100
AcDbRegAppTableRecord
  2
ACAD
 70
     0
  0
APPID
  5
266B
330
2650
100
AcDbSymbolTableRecord
100
AcDbRegAppTableRecord
  2
MCAD_NO_VIS
 70
     0
  0
APPID
  5
266C
330
2650
100
AcDbSymbolTableRecord
100
AcDbRegAppTableRecord
  2
ACAD_TEMP_GRAPHIC
 70
     0
  0
APPID
  5
266D
330
2650
100
AcDbSymbolTableRecord
100
AcDbRegAppTableRecord
  2
ACATTRIBSERVICES
 70
     0
  0
ENDTAB
  0
TABLE
  2
DIMSTYLE
  5
2651
330
0
100
AcDbSymbolTable
 70
     1
100
AcDbDimStyleTable
 71
     0
  0
DIMSTYLE
105
266E
330
2651
100
AcDbSymbolTableRecord
100
AcDbDimStyleTableRecord
  2
STANDARD
 70
     0
279
     2
340
2658
  0
ENDTAB
  0
TABLE
  2
BLOCK_RECORD
  5
2648
330
0
100
AcDbSymbolTable
 70
     2
  0
BLOCK_RECORD
  5
2665
102
{ACAD_XDICTIONARY
360
2677
102
}
330
2648
100
AcDbSymbolTableRecord
100
AcDbBlockTableRecord
  2
*Model_Space
340
2668
  0
BLOCK_RECORD
  5
2661
102
{ACAD_XDICTIONARY
360
2679
102
}
330
2648
100
AcDbSymbolTableRecord
100
AcDbBlockTableRecord
  2
*Paper_Space
340
2664
  0
BLOCK_RECORD
  5
2671
330
2648
100
AcDbSymbolTableRecord
100
AcDbBlockTableRecord
  2
$MODEL_SPACE
340
0
  0
BLOCK_RECORD
  5
2673
330
2648
100
AcDbSymbolTableRecord
100
AcDbBlockTableRecord
  2
$PAPER_SPACE
340
0
  0
ENDTAB
  0
ENDSEC
  0
SECTION
  2
BLOCKS
  0
BLOCK
  5
2666
330
2665
100
AcDbEntity
  8
0
100
AcDbBlockBegin
  2
*Model_Space
 70
     0
 10
0.0
 20
0.0
 30
0.0
  3
*Model_Space
  1

  0
ENDBLK
  5
2667
330
2665
100
AcDbEntity
  8
0
100
AcDbBlockEnd
  0
BLOCK
  5
2662
330
2661
100
AcDbEntity
 67
     1
  8
0
100
AcDbBlockBegin
  2
*Paper_Space
 70
     0
 10
0.0
 20
0.0
 30
0.0
  3
*Paper_Space
  1

  0
ENDBLK
  5
2663
330
2661
100
AcDbEntity
 67
     1
  8
0
100
AcDbBlockEnd
  0
BLOCK
  5
2672
330
2671
100
AcDbEntity
  8
0
100
AcDbBlockBegin
  2
$MODEL_SPACE
 70
     0
 10
0.0
 20
0.0
 30
0.0
  3
$MODEL_SPACE
  1

  0
ENDBLK
  5
25C7
330
2671
100
AcDbEntity
  8
0
100
AcDbBlockEnd
  0
BLOCK
  5
2674
330
2673
100
AcDbEntity
  8
0
100
AcDbBlockBegin
  2
$PAPER_SPACE
 70
     0
 10
0.0
 20
0.0
 30
0.0
  3
$PAPER_SPACE
  1

  0
ENDBLK
  5
25C3
330
2673
100
AcDbEntity
  8
0
100
AcDbBlockEnd
  0
ENDSEC
  0
SECTION
  2
ENTITIES
  0
LINE
  5
808
330
2665
100
AcDbEntity
  8
0
100
AcDbLine
 10
736.2880919202508
 20
385.8294972574002
 30
0.0
 11
736.2880919202508
 21
549.6467427407996
 31
0.0
  0
LINE
  5
809
330
2665
100
AcDbEntity
  8
0
100
AcDbLine
 10
647.1880858167349
 20
385.8294972574002
 30
0.0
 11
647.1880858167349
 21
549.6467427407996
 31
0.0
  0
LINE
  5
812
330
2665
100
AcDbEntity
  8
0
100
AcDbLine
 10
647.1880858167349
 20
385.8294972574002
 30
0.0
 11
736.2880919202508
 21
385.8294972574002
 31
0.0
  0
LINE
  5
81D
330
2665
100
AcDbEntity
  8
0
100
AcDbLine
 10
666.4880736097037
 20
203.4794606363075
 30
0.0
 11
716.9880888684929
 21
203.4794606363075
 31
0.0
  0
LINE
  5
820
330
2665
100
AcDbEntity
  8
0
100
AcDbLine
 10
710.7880766614608
 20
208.5860880461408
 30
0.0
 11
710.7880766614608
 21
246.1942771788117
 31
0.0
  0
LINE
  5
824
330
2665
100
AcDbEntity
  8
0
100
AcDbLine
 10
716.9880888684929
 20
206.3294680698886
 30
0.0
 11
710.7880766614608
 21
208.5860880461408
 31
0.0
  0
LINE
  5
825
330
2665
100
AcDbEntity
  8
0
100
AcDbLine
 10
716.9880888684929
 20
203.4794606363075
 30
0.0
 11
716.9880888684929
 21
206.3294680698886
 31
0.0
  0
LINE
  5
82F
330
2665
100
AcDbEntity
  8
0
100
AcDbLine
 10
723.738088868493
 20
296.5794972574002
 30
0.0
 11
723.738088868493
 21
249.6294850503697
 31
0.0
  0
LINE
  5
831
330
2665
100
AcDbEntity
  8
0
100
AcDbLine
 10
723.738088868493
 20
249.6294850503697
 30
0.0
 11
659.7380736097037
 21
249.6294850503697
 31
0.0
  0
LINE
  5
833
330
2665
100
AcDbEntity
  8
0
100
AcDbLine
 10
716.7380311227694
 20
249.6294850503697
 30
0.0
 11
710.7880766614608
 21
246.1942771788117
 31
0.0
  0
LINE
  5
866
330
2665
100
AcDbEntity
  8
0
100
AcDbLine
 10
645.9880888684929
 20
312.0794972574003
 30
0.0
 11
737.488088868493
 21
312.0794972574003
 31
0.0
  0
LINE
  5
867
330
2665
100
AcDbEntity
  8
0
100
AcDbLine
 10
645.9880888684929
 20
296.5794972574002
 30
0.0
 11
737.488088868493
 21
296.5794972574002
 31
0.0
  0
LINE
  5
86E
330
2665
100
AcDbEntity
  8
0
100
AcDbLine
 10
737.488088868493
 20
296.5794972574002
 30
0.0
 11
737.488088868493
 21
312.0794972574003
 31
0.0
  0
LINE
  5
8BA
330
2665
100
AcDbEntity
  8
0
100
AcDbLine
 10
729.738088868493
 20
365.0794972574002
 30
0.0
 11
729.738088868493
 21
379.5794972574003
 31
0.0
  0
LINE
  5
8C6
330
2665
100
AcDbEntity
  8
0
100
AcDbLine
 10
718.7380888684929
 20
312.0794972574003
 30
0.0
 11
718.7380888684929
 21
365.0794972574002
 31
0.0
  0
LINE
  5
8F2
330
2665
100
AcDbEntity
  8
0
100
AcDbLine
 10
719.2380888684929
 20
379.5794972574003
 30
0.0
 11
719.2380888684929
 21
385.8294972574002
 31
0.0
  0
LINE
  5
900
330
2665
100
AcDbEntity
  8
0
100
AcDbLine
 10
672.688055299157
 20
208.5860862151557
 30
0.0
 11
672.688055299157
 21
246.1942712696566
 31
0.0
  0
LINE
  5
905
330
2665
100
AcDbEntity
  8
0
100
AcDbLine
 10
666.4880736097037
 20
203.4794606363075
 30
0.0
 11
666.4880736097037
 21
206.3294773463935
 31
0.0
  0
LINE
  5
90A
330
2665
100
AcDbEntity
  8
0
100
AcDbLine
 10
666.4880736097037
 20
206.3294773463935
 30
0.0
 11
672.688055299157
 21
208.5860862151557
 31
0.0
  0
LINE
  5
90E
330
2665
100
AcDbEntity
  8
0
100
AcDbLine
 10
664.7380736097037
 20
312.0794972574003
 30
0.0
 11
664.7380736097037
 21
365.0794972574002
 31
0.0
  0
LINE
  5
90F
330
2665
100
AcDbEntity
  8
0
100
AcDbLine
 10
621.738058350915
 20
248.2294606363074
 30
0.0
 11
621.738058350915
 21
298.7294606363066
 31
0.0
  0
LINE
  5
911
330
2665
100
AcDbEntity
  8
0
100
AcDbLine
 10
626.844692076545
 20
254.4294728433384
 30
0.0
 11
659.7380736097037
 21
254.4294728433384
 31
0.0
  0
LINE
  5
913
330
2665
100
AcDbEntity
  8
0
100
AcDbLine
 10
666.7380906028929
 20
249.6294850503697
 30
0.0
 11
672.688055299157
 21
246.1942712696566
 31
0.0
  0
LINE
  5
926
330
2665
100
AcDbEntity
  8
0
100
AcDbLine
 10
624.5880721002914
 20
248.2294606363074
 30
0.0
 11
626.844692076545
 21
254.4294728433384
 31
0.0
  0
LINE
  5
929
330
2665
100
AcDbEntity
  8
0
100
AcDbLine
 10
621.738058350915
 20
248.2294606363074
 30
0.0
 11
624.5880721002914
 21
248.2294606363074
 31
0.0
  0
LINE
  5
934
330
2665
100
AcDbEntity
  8
0
100
AcDbLine
 10
626.8447050721609
 20
292.5294484292755
 30
0.0
 11
659.7380736097037
 21
292.5294484292755
 31
0.0
  0
LINE
  5
936
330
2665
100
AcDbEntity
  8
0
100
AcDbLine
 10
645.9880888684929
 20
296.5794972574002
 30
0.0
 11
645.9880888684929
 21
312.0794972574003
 31
0.0
  0
LINE
  5
946
330
2665
100
AcDbEntity
  8
0
100
AcDbLine
 10
659.7380736097037
 20
296.5794972574002
 30
0.0
 11
659.7380736097037
 21
249.6294850503697
 31
0.0
  0
LINE
  5
96A
330
2665
100
AcDbEntity
  8
0
100
AcDbLine
 10
624.5880850959089
 20
298.7294606363066
 30
0.0
 11
626.8447050721609
 21
292.5294484292755
 31
0.0
  0
LINE
  5
974
330
2665
100
AcDbEntity
  8
0
100
AcDbLine
 10
621.738058350915
 20
298.7294606363066
 30
0.0
 11
624.5880850959089
 21
298.7294606363066
 31
0.0
  0
LINE
  5
976
330
2665
100
AcDbEntity
  8
0
100
AcDbLine
 10
653.7380888684927
 20
365.0794972574002
 30
0.0
 11
653.7380888684927
 21
379.5794972574003
 31
0.0
  0
LINE
  5
97F
330
2665
100
AcDbEntity
  8
0
100
AcDbLine
 10
729.738088868493
 20
365.0794972574002
 30
0.0
 11
653.7380888684927
 21
365.0794972574002
 31
0.0
  0
LINE
  5
986
330
2665
100
AcDbEntity
  8
0
100
AcDbLine
 10
664.2381041272821
 20
379.5794972574003
 30
0.0
 11
664.2381041272821
 21
385.8294972574002
 31
0.0
  0
LINE
  5
98F
330
2665
100
AcDbEntity
  8
0
100
AcDbLine
 10
729.738088868493
 20
379.5794972574003
 30
0.0
 11
653.7380888684927
 21
379.5794972574003
 31
0.0
  0
LINE
  5
99F
330
2665
100
AcDbEntity
  8
0
100
AcDbLine
 10
647.1880858167349
 20
549.6467427407996
 30
0.0
 11
736.2880919202508
 21
549.6467427407996
 31
0.0
  0
LINE
  5
9E5
330
2665
100
AcDbEntity
  8
0
  6
Continuous
100
AcDbLine
 10
626.844692076545
 20
254.4294728433384
 30
0.0
 11
626.8447050721609
 21
292.5294484292755
 31
0.0
  0
LINE
  5
9E6
330
2665
100
AcDbEntity
  8
0
  6
Continuous
100
AcDbLine
 10
672.688055299157
 20
208.5860862151557
 30
0.0
 11
710.7880766614608
 21
208.5860880461408
 31
0.0
  0
CIRCLE
  5
1FDD
330
2665
100
AcDbEntity
  8
0
  6
Continuous
100
AcDbCircle
 10
691.7380888684929
 20
848.0981004372662
 30
0.0
 40
44.55000305175781
  0
CIRCLE
  5
1FDF
330
2665
100
AcDbEntity
  8
0
  6
Continuous
100
AcDbCircle
 10
691.7380888684929
 20
848.0981004372662
 30
0.0
 40
45.75
  0
LINE
  5
1FE0
330
2665
100
AcDbEntity
  8
0
100
AcDbLine
 10
624.588092725304
 20
873.3481004372661
 30
0.0
 11
626.8447127015559
 21
867.1480882302352
 31
0.0
  0
LINE
  5
1FE1
330
2665
100
AcDbEntity
  8
0
100
AcDbLine
 10
621.7380659803088
 20
873.3481004372661
 30
0.0
 11
624.588092725304
 21
873.3481004372661
 31
0.0
  0
LINE
  5
1FE2
330
2665
100
AcDbEntity
  8
0
100
AcDbLine
 10
624.5880797296867
 20
822.8481004372659
 30
0.0
 11
626.8446997059387
 21
829.0481126442966
 31
0.0
  0
LINE
  5
1FE3
330
2665
100
AcDbEntity
  8
0
100
AcDbLine
 10
621.7380659803088
 20
822.8481004372659
 30
0.0
 11
624.5880797296867
 21
822.8481004372659
 31
0.0
  0
LINE
  5
1FE4
330
2665
100
AcDbEntity
  8
0
100
AcDbLine
 10
621.7380659803088
 20
822.8481004372659
 30
0.0
 11
621.7380659803088
 21
873.3481004372661
 31
0.0
  0
LINE
  5
1FE5
330
2665
100
AcDbEntity
  8
0
  6
Continuous
100
AcDbLine
 10
626.8446997059387
 20
829.0481126442966
 30
0.0
 11
626.8447127015559
 21
867.1480882302352
 31
0.0
  0
LINE
  5
1FE6
330
2665
100
AcDbEntity
  8
0
100
AcDbLine
 10
626.8447127015559
 20
867.1480882302352
 30
0.0
 11
650.1428912480008
 21
867.1480882302352
 31
0.0
  0
LINE
  5
1FE7
330
2665
100
AcDbEntity
  8
0
100
AcDbLine
 10
626.8446997059387
 20
829.0481126442966
 30
0.0
 11
650.1428912480008
 21
829.0481126442966
 31
0.0
  0
LINE
  5
21E9
330
2665
100
AcDbEntity
  8
0
  6
Continuous
100
AcDbLine
 10
756.6314780310468
 20
829.0481126442966
 30
0.0
 11
756.6314650354303
 21
867.1480882302352
 31
0.0
  0
LINE
  5
21EA
330
2665
100
AcDbEntity
  8
0
100
AcDbLine
 10
761.7381117566756
 20
822.8481004372659
 30
0.0
 11
761.7381117566756
 21
873.3481004372661
 31
0.0
  0
LINE
  5
21EB
330
2665
100
AcDbEntity
  8
0
100
AcDbLine
 10
756.6314780310468
 20
829.0481126442966
 30
0.0
 11
733.333286488984
 21
829.0481126442966
 31
0.0
  0
LINE
  5
21EC
330
2665
100
AcDbEntity
  8
0
100
AcDbLine
 10
761.7381117566756
 20
822.8481004372659
 30
0.0
 11
758.8880980072989
 21
822.8481004372659
 31
0.0
  0
LINE
  5
21ED
330
2665
100
AcDbEntity
  8
0
100
AcDbLine
 10
758.8880980072989
 20
822.8481004372659
 30
0.0
 11
756.6314780310468
 21
829.0481126442966
 31
0.0
  0
LINE
  5
21EE
330
2665
100
AcDbEntity
  8
0
100
AcDbLine
 10
756.6314650354303
 20
867.1480882302352
 30
0.0
 11
733.333286488984
 21
867.1480882302352
 31
0.0
  0
LINE
  5
21EF
330
2665
100
AcDbEntity
  8
0
100
AcDbLine
 10
761.7381117566756
 20
873.3481004372661
 30
0.0
 11
758.8880850116817
 21
873.3481004372661
 31
0.0
  0
LINE
  5
21F0
330
2665
100
AcDbEntity
  8
0
100
AcDbLine
 10
758.8880850116817
 20
873.3481004372661
 30
0.0
 11
756.6314650354303
 21
867.1480882302352
 31
0.0
  0
LINE
  5
21F1
330
2665
100
AcDbEntity
  8
0
  6
Continuous
100
AcDbLine
 10
756.6314856604407
 20
254.4294728433384
 30
0.0
 11
756.6314726648236
 21
292.5294484292755
 31
0.0
  0
LINE
  5
21F2
330
2665
100
AcDbEntity
  8
0
100
AcDbLine
 10
761.7381193860707
 20
248.2294606363074
 30
0.0
 11
761.7381193860707
 21
298.7294606363066
 31
0.0
  0
LINE
  5
21F3
330
2665
100
AcDbEntity
  8
0
100
AcDbLine
 10
761.7381193860707
 20
248.2294606363074
 30
0.0
 11
758.8881056366927
 21
248.2294606363074
 31
0.0
  0
LINE
  5
21F4
330
2665
100
AcDbEntity
  8
0
100
AcDbLine
 10
758.8881056366927
 20
248.2294606363074
 30
0.0
 11
756.6314856604407
 21
254.4294728433384
 31
0.0
  0
LINE
  5
21F5
330
2665
100
AcDbEntity
  8
0
100
AcDbLine
 10
756.6314856604407
 20
254.4294728433384
 30
0.0
 11
723.7381041272822
 21
254.4294728433384
 31
0.0
  0
LINE
  5
21F6
330
2665
100
AcDbEntity
  8
0
100
AcDbLine
 10
761.7381193860707
 20
298.7294606363066
 30
0.0
 11
758.8880926410759
 21
298.7294606363066
 31
0.0
  0
LINE
  5
21F7
330
2665
100
AcDbEntity
  8
0
100
AcDbLine
 10
758.8880926410759
 20
298.7294606363066
 30
0.0
 11
756.6314726648236
 21
292.5294484292755
 31
0.0
  0
LINE
  5
21F8
330
2665
100
AcDbEntity
  8
0
100
AcDbLine
 10
756.6314726648236
 20
292.5294484292755
 30
0.0
 11
723.7381041272822
 21
292.5294484292755
 31
0.0
  0
LINE
  5
2616
330
2665
100
AcDbEntity
  8
0
100
AcDbLine
 10
642.3229758684925
 20
668.2136627407997
 30
0.0
 11
637.7380908684929
 21
602.6467437407996
 31
0.0
  0
LINE
  5
2617
330
2665
100
AcDbEntity
  8
0
100
AcDbLine
 10
741.1532058684926
 20
668.2136627407997
 30
0.0
 11
745.738090868493
 21
602.6467437407996
 31
0.0
  0
LINE
  5
2618
330
2665
100
AcDbEntity
  8
0
100
AcDbLine
 10
734.238086868493
 20
549.6467427407996
 30
0.0
 11
649.2380908684934
 21
549.6467427407996
 31
0.0
  0
LINE
  5
2619
330
2665
100
AcDbEntity
  8
0
100
AcDbLine
 10
637.7380908684929
 20
602.6467427407996
 30
0.0
 11
637.7380908684929
 21
569.5653427407992
 31
0.0
  0
LINE
  5
261A
330
2665
100
AcDbEntity
  8
0
100
AcDbLine
 10
637.7380898684929
 20
569.5653437407997
 30
0.0
 11
649.2380968684925
 21
549.6467461233635
 31
0.0
  0
LINE
  5
261B
330
2665
100
AcDbEntity
  8
0
100
AcDbLine
 10
745.7380918684926
 20
569.5653437407997
 30
0.0
 11
734.238085868493
 21
549.6467477751755
 31
0.0
  0
LINE
  5
261C
330
2665
100
AcDbEntity
  8
0
100
AcDbLine
 10
745.738090868493
 20
602.6467427407996
 30
0.0
 11
745.738090868493
 21
569.5653427407992
 31
0.0
  0
CIRCLE
  5
261D
330
2665
100
AcDbEntity
  8
0
100
AcDbCircle
 10
691.7380888684927
 20
848.0981004372662
 30
0.0
 40
54.0
  0
CIRCLE
  5
261E
330
2665
100
AcDbEntity
  8
0
100
AcDbCircle
 10
691.7380888684927
 20
848.0981004372662
 30
0.0
 40
54.0
  0
LINE
  5
261F
330
2665
100
AcDbEntity
  8
0
100
AcDbLine
 10
681.7380918684927
 20
710.6467427407996
 30
0.0
 11
701.7380928684937
 21
710.6467427407996
 31
0.0
  0
LINE
  5
2620
330
2665
100
AcDbEntity
  8
0
100
AcDbLine
 10
705.2380908684929
 20
677.6467427407996
 30
0.0
 11
678.2380908684934
 21
677.6467427407996
 31
0.0
  0
LINE
  5
2621
330
2665
100
AcDbEntity
  8
0
100
AcDbLine
 10
705.2380908684929
 20
671.3558227407994
 30
0.0
 11
678.2380908684934
 21
671.3558227407994
 31
0.0
  0
LINE
  5
2622
330
2665
100
AcDbEntity
  8
0
100
AcDbLine
 10
678.2380908684934
 20
671.3558227407994
 30
0.0
 11
642.322976868493
 21
668.2136527407996
 31
0.0
  0
LINE
  5
2623
330
2665
100
AcDbEntity
  8
0
100
AcDbLine
 10
681.7380918684927
 20
677.6467427407996
 30
0.0
 11
681.7380918684927
 21
710.6467427407996
 31
0.0
  0
LINE
  5
2624
330
2665
100
AcDbEntity
  8
0
100
AcDbLine
 10
678.2380908684934
 20
677.6467427407996
 30
0.0
 11
678.2380908684934
 21
671.3558227407994
 31
0.0
  0
LINE
  5
2625
330
2665
100
AcDbEntity
  8
0
100
AcDbLine
 10
678.2380908684934
 20
676.6467327407996
 30
0.0
 11
678.2380908684934
 21
675.7843527407997
 31
0.0
  0
LINE
  5
2626
330
2665
100
AcDbEntity
  8
0
100
AcDbLine
 10
705.2380908684929
 20
671.3558227407994
 30
0.0
 11
741.1532048684927
 21
668.2136527407996
 31
0.0
  0
LINE
  5
2627
330
2665
100
AcDbEntity
  8
0
100
AcDbLine
 10
701.7380928684937
 20
677.6467427407996
 30
0.0
 11
701.7380928684937
 21
710.6467427407996
 31
0.0
  0
LINE
  5
2628
330
2665
100
AcDbEntity
  8
0
100
AcDbLine
 10
705.2380908684929
 20
677.6467427407996
 30
0.0
 11
705.2380908684929
 21
671.3558227407994
 31
0.0
  0
LINE
  5
2629
330
2665
100
AcDbEntity
  8
0
100
AcDbLine
 10
705.2380908684929
 20
676.6467427407995
 30
0.0
 11
705.2380908684929
 21
675.7843627407996
 31
0.0
  0
CIRCLE
  5
262A
330
2665
100
AcDbEntity
  8
0
100
AcDbCircle
 10
691.7380888684927
 20
848.0981004372662
 30
0.0
 40
13.5
  0
CIRCLE
  5
262B
330
2665
100
AcDbEntity
  8
0
100
AcDbCircle
 10
691.7380888684927
 20
848.0981004372662
 30
0.0
 40
9.999999
  0
CIRCLE
  5
262C
330
2665
100
AcDbEntity
  8
0
100
AcDbCircle
 10
691.7380888684927
 20
848.0981004372662
 30
0.0
 40
13.5
  0
CIRCLE
  5
262D
330
2665
100
AcDbEntity
  8
0
100
AcDbCircle
 10
691.7380888684927
 20
848.0981004372662
 30
0.0
 40
9.999999
  0
TEXT
  5
2633
330
2665
100
AcDbEntity
  8
0
  6
Continuous
100
AcDbText
 10
232.4919881063931
 20
1021.259240375985
 30
0.0
 40
48.000002
  1
WTC__08MA100 1.5S
 41
1.32095
100
AcDbText
  0
LINE
  5
26BC
330
2665
100
AcDbEntity
  8
0
  6
CENTER
100
AcDbLine
 10
691.7380888684929
 20
177.0720600796112
 30
0.0
 11
691.7380888684929
 21
738.2388843044605
 31
0.0
  0
LINE
  5
26BE
330
2665
100
AcDbEntity
  8
0
  6
CENTER
100
AcDbLine
 10
691.7380888684927
 20
777.4152921233015
 30
0.0
 11
691.7380888684927
 21
918.7809087512308
 31
0.0
  0
LINE
  5
26BF
330
2665
100
AcDbEntity
  8
0
  6
CENTER
100
AcDbLine
 10
592.7841834119358
 20
273.479460636307
 30
0.0
 11
790.69199432505
 21
273.479460636307
 31
0.0
  0
LINE
  5
26C6
330
2665
100
AcDbEntity
  8
0
  6
CENTER
100
AcDbLine
 10
592.7841834119355
 20
848.0981004372662
 30
0.0
 11
790.6919943250498
 21
848.0981004372662
 31
0.0
  0
ENDSEC
  0
SECTION
  2
OBJECTS
  0
DICTIONARY
  5
2653
330
0
100
AcDbDictionary
281
     1
  3
ACAD_GROUP
350
2654
  3
ACAD_LAYOUT
350
2660
  3
ACAD_MLINESTYLE
350
265D
  3
ACAD_PLOTSETTINGS
350
265F
  3
ACAD_PLOTSTYLENAME
350
2655
  3
AcDbVariableDictionary
350
26AB
  0
DICTIONARY
  5
26B2
330
2649
100
AcDbDictionary
280
     1
281
     1
  3
ACAD_LAYERSTATES
360
26B3
  0
DICTIONARY
  5
2677
330
2665
100
AcDbDictionary
280
     1
281
     1
  3
ACAD_LAYOUTSELFREF
360
26A6
  0
DICTIONARY
  5
2679
330
2661
100
AcDbDictionary
280
     1
281
     1
  3
ACAD_LAYOUTSELFREF
360
26A5
  0
DICTIONARY
  5
2654
102
{ACAD_REACTORS
330
2653
102
}
330
2653
100
AcDbDictionary
281
     1
  0
DICTIONARY
  5
2660
102
{ACAD_REACTORS
330
2653
102
}
330
2653
100
AcDbDictionary
281
     1
  3
Model
350
2668
  3
ﾚｲｱｳﾄ1
350
2664
  0
DICTIONARY
  5
265D
102
{ACAD_REACTORS
330
2653
102
}
330
2653
100
AcDbDictionary
281
     1
  3
Standard
350
265E
  0
DICTIONARY
  5
265F
102
{ACAD_REACTORS
330
2653
102
}
330
2653
100
AcDbDictionary
281
     1
  0
ACDBDICTIONARYWDFLT
  5
2655
102
{ACAD_REACTORS
330
2653
102
}
330
2653
100
AcDbDictionary
281
     1
  3
Normal
350
2656
100
AcDbDictionaryWithDefault
340
2656
  0
DICTIONARY
  5
26AB
102
{ACAD_REACTORS
330
2653
102
}
330
2653
100
AcDbDictionary
281
     1
  3
DIMASSOC
350
26AC
  0
DICTIONARY
  5
26B3
102
{ACAD_REACTORS
330
26B2
102
}
330
26B2
100
AcDbDictionary
281
     1
  0
XRECORD
  5
26A6
102
{ACAD_REACTORS
330
2677
102
}
330
2677
100
AcDbXrecord
280
     1
340
2665
  0
XRECORD
  5
26A5
102
{ACAD_REACTORS
330
2679
102
}
330
2679
100
AcDbXrecord
280
     1
340
2661
  0
LAYOUT
  5
2668
102
{ACAD_REACTORS
330
2660
102
}
330
2660
100
AcDbPlotSettings
  1

  2
SII LP-2150 (D-SCAN C2)
  4

  6

 40
0.0
 41
0.0
 42
0.0
 43
0.0
 44
0.0
 45
0.0
 46
0.0
 47
0.0
 48
0.0
 49
0.0
140
0.0
141
0.0
142
1.0
143
1.0
 70
  1712
 72
     0
 73
     0
 74
     0
  7

 75
     0
147
1.0
148
0.0
149
0.0
100
AcDbLayout
  1
Model
 70
     1
 71
     0
 10
0.0
 20
0.0
 11
12.0
 21
9.0
 12
0.0
 22
0.0
 32
0.0
 14
0.0
 24
0.0
 34
0.0
 15
0.0
 25
0.0
 35
0.0
146
0.0
 13
0.0
 23
0.0
 33
0.0
 16
1.0
 26
0.0
 36
0.0
 17
0.0
 27
1.0
 37
0.0
 76
     0
330
2665
  0
LAYOUT
  5
2664
102
{ACAD_REACTORS
330
2660
102
}
330
2660
100
AcDbPlotSettings
  1

  2
SII LP-2150 (D-SCAN C2)
  4

  6

 40
0.0
 41
0.0
 42
0.0
 43
0.0
 44
0.0
 45
0.0
 46
0.0
 47
0.0
 48
0.0
 49
0.0
140
0.0
141
0.0
142
1.0
143
1.0
 70
   688
 72
     0
 73
     0
 74
     5
  7

 75
    16
147
1.0
148
0.0
149
0.0
100
AcDbLayout
  1
ﾚｲｱｳﾄ1
 70
     1
 71
     1
 10
-580.5701293945312
 20
0.0
 11
0.0
 21
407.8999938964844
 12
0.0
 22
0.0
 32
0.0
 14
-580.5701293945312
 24
0.0
 34
0.0
 15
0.0
 25
407.8999938964844
 35
0.0
146
0.0
 13
0.0
 23
0.0
 33
0.0
 16
1.0
 26
0.0
 36
0.0
 17
0.0
 27
1.0
 37
0.0
 76
     0
330
2661
  0
MLINESTYLE
  5
265E
102
{ACAD_REACTORS
330
265D
102
}
330
265D
100
AcDbMlineStyle
  2
STANDARD
 70
     0
  3

 62
   256
 51
90.0
 52
90.0
 71
     2
 49
0.5
 62
   256
  6
BYLAYER
 49
-0.5
 62
   256
  6
BYLAYER
  0
ACDBPLACEHOLDER
  5
2656
102
{ACAD_REACTORS
330
2655
102
}
330
2655
  0
DICTIONARYVAR
  5
26AC
102
{ACAD_REACTORS
330
26AB
102
}
330
26AB
100
DictionaryVariables
280
     0
  1
1
  0
ENDSEC
  0
EOF
