  0
SECTION
  2
HEADER
  9
$ACADVER
  1
AC1015
  9
$ACADMAINTVER
 70
    14
  9
$DWGCODEPAGE
  3
ANSI_932
  9
$INSBASE
 10
0.0
 20
0.0
 30
0.0
  9
$EXTMIN
 10
387.0716562954949
 20
132.5813814847733
 30
-0.0000000000112498
  9
$EXTMAX
 10
1238.856288355081
 20
1134.559350984173
 30
0.0000000000002956
  9
$LIMMIN
 10
-580.5701293945312
 20
0.0
  9
$LIMMAX
 10
0.0
 20
407.8999938964844
  9
$ORTHOMODE
 70
     0
  9
$REGENMODE
 70
     1
  9
$FILLMODE
 70
     1
  9
$QTEXTMODE
 70
     0
  9
$MIRRTEXT
 70
     1
  9
$LTSCALE
 40
1.0
  9
$ATTMODE
 70
     1
  9
$TEXTSIZE
 40
0.2
  9
$TRACEWID
 40
0.05
  9
$TEXTSTYLE
  7
STANDARD
  9
$CLAYER
  8
0
  9
$CELTYPE
  6
CONTINUOUS
  9
$CECOLOR
 62
   256
  9
$CELTSCALE
 40
1.0
  9
$DISPSILH
 70
     0
  9
$DIMSCALE
 40
1.0
  9
$DIMASZ
 40
1.0
  9
$DIMEXO
 40
2.54
  9
$DIMDLI
 40
0.38
  9
$DIMRND
 40
0.0
  9
$DIMDLE
 40
0.0
  9
$DIMEXE
 40
2.54
  9
$DIMTP
 40
0.0
  9
$DIMTM
 40
0.0
  9
$DIMTXT
 40
3.200000047683714
  9
$DIMCEN
 40
0.09
  9
$DIMTSZ
 40
0.0
  9
$DIMTOL
 70
     0
  9
$DIMLIM
 70
     0
  9
$DIMTIH
 70
     0
  9
$DIMTOH
 70
     0
  9
$DIMSE1
 70
     0
  9
$DIMSE2
 70
     0
  9
$DIMTAD
 70
     1
  9
$DIMZIN
 70
     0
  9
$DIMBLK
  1

  9
$DIMASO
 70
     1
  9
$DIMSHO
 70
     0
  9
$DIMPOST
  1

  9
$DIMAPOST
  1

  9
$DIMALT
 70
     0
  9
$DIMALTD
 70
     2
  9
$DIMALTF
 40
25.4
  9
$DIMLFAC
 40
1.0
  9
$DIMTOFL
 70
     0
  9
$DIMTVP
 40
1.0
  9
$DIMTIX
 70
     0
  9
$DIMSOXD
 70
     0
  9
$DIMSAH
 70
     1
  9
$DIMBLK1
  1

  9
$DIMBLK2
  1

  9
$DIMSTYLE
  2
STANDARD
  9
$DIMCLRD
 70
     0
  9
$DIMCLRE
 70
     0
  9
$DIMCLRT
 70
     0
  9
$DIMTFAC
 40
1.0
  9
$DIMGAP
 40
1.600000023841857
  9
$DIMJUST
 70
     0
  9
$DIMSD1
 70
     0
  9
$DIMSD2
 70
     0
  9
$DIMTOLJ
 70
     1
  9
$DIMTZIN
 70
     0
  9
$DIMALTZ
 70
     0
  9
$DIMALTTZ
 70
     0
  9
$DIMUPT
 70
     0
  9
$DIMDEC
 70
     4
  9
$DIMTDEC
 70
     4
  9
$DIMALTU
 70
     2
  9
$DIMALTTD
 70
     2
  9
$DIMTXSTY
  7
STANDARD
  9
$DIMAUNIT
 70
     0
  9
$DIMADEC
 70
     0
  9
$DIMALTRND
 40
0.0
  9
$DIMAZIN
 70
     0
  9
$DIMDSEP
 70
    46
  9
$DIMATFIT
 70
     3
  9
$DIMFRAC
 70
     0
  9
$DIMLDRBLK
  1

  9
$DIMLUNIT
 70
     2
  9
$DIMLWD
 70
    -2
  9
$DIMLWE
 70
    -2
  9
$DIMTMOVE
 70
     0
  9
$LUNITS
 70
     2
  9
$LUPREC
 70
     4
  9
$SKETCHINC
 40
0.1
  9
$FILLETRAD
 40
0.0
  9
$AUNITS
 70
     0
  9
$AUPREC
 70
     0
  9
$MENU
  1
.
  9
$ELEVATION
 40
0.0
  9
$PELEVATION
 40
0.0
  9
$THICKNESS
 40
0.0
  9
$LIMCHECK
 70
     0
  9
$CHAMFERA
 40
0.0
  9
$CHAMFERB
 40
0.0
  9
$CHAMFERC
 40
0.0
  9
$CHAMFERD
 40
0.0
  9
$SKPOLY
 70
     0
  9
$TDCREATE
 40
2452717.604314595
  9
$TDUCREATE
 40
2452717.229314595
  9
$TDUPDATE
 40
2456899.681877048
  9
$TDUUPDATE
 40
2456899.306877048
  9
$TDINDWG
 40
0.0986649769
  9
$TDUSRTIMER
 40
0.0986649769
  9
$USRTIMER
 70
     1
  9
$ANGBASE
 50
0.0
  9
$ANGDIR
 70
     0
  9
$PDMODE
 70
     0
  9
$PDSIZE
 40
0.0
  9
$PLINEWID
 40
0.0
  9
$SPLFRAME
 70
     0
  9
$SPLINETYPE
 70
     6
  9
$SPLINESEGS
 70
     8
  9
$HANDSEED
  5
26CB
  9
$SURFTAB1
 70
     6
  9
$SURFTAB2
 70
     6
  9
$SURFTYPE
 70
     6
  9
$SURFU
 70
     6
  9
$SURFV
 70
     6
  9
$UCSBASE
  2

  9
$UCSNAME
  2

  9
$UCSORG
 10
0.0
 20
0.0
 30
0.0
  9
$UCSXDIR
 10
1.0
 20
0.0
 30
0.0
  9
$UCSYDIR
 10
0.0
 20
1.0
 30
0.0
  9
$UCSORTHOREF
  2

  9
$UCSORTHOVIEW
 70
     0
  9
$UCSORGTOP
 10
0.0
 20
0.0
 30
0.0
  9
$UCSORGBOTTOM
 10
0.0
 20
0.0
 30
0.0
  9
$UCSORGLEFT
 10
0.0
 20
0.0
 30
0.0
  9
$UCSORGRIGHT
 10
0.0
 20
0.0
 30
0.0
  9
$UCSORGFRONT
 10
0.0
 20
0.0
 30
0.0
  9
$UCSORGBACK
 10
0.0
 20
0.0
 30
0.0
  9
$PUCSBASE
  2

  9
$PUCSNAME
  2

  9
$PUCSORG
 10
0.0
 20
0.0
 30
0.0
  9
$PUCSXDIR
 10
1.0
 20
0.0
 30
0.0
  9
$PUCSYDIR
 10
0.0
 20
1.0
 30
0.0
  9
$PUCSORTHOREF
  2

  9
$PUCSORTHOVIEW
 70
     0
  9
$PUCSORGTOP
 10
0.0
 20
0.0
 30
0.0
  9
$PUCSORGBOTTOM
 10
0.0
 20
0.0
 30
0.0
  9
$PUCSORGLEFT
 10
0.0
 20
0.0
 30
0.0
  9
$PUCSORGRIGHT
 10
0.0
 20
0.0
 30
0.0
  9
$PUCSORGFRONT
 10
0.0
 20
0.0
 30
0.0
  9
$PUCSORGBACK
 10
0.0
 20
0.0
 30
0.0
  9
$USERI1
 70
     0
  9
$USERI2
 70
     0
  9
$USERI3
 70
     0
  9
$USERI4
 70
     0
  9
$USERI5
 70
     0
  9
$USERR1
 40
0.0
  9
$USERR2
 40
0.0
  9
$USERR3
 40
0.0
  9
$USERR4
 40
0.0
  9
$USERR5
 40
0.0
  9
$WORLDVIEW
 70
     1
  9
$SHADEDGE
 70
     3
  9
$SHADEDIF
 70
    70
  9
$TILEMODE
 70
     1
  9
$MAXACTVP
 70
    48
  9
$PINSBASE
 10
0.0
 20
0.0
 30
0.0
  9
$PLIMCHECK
 70
     0
  9
$PEXTMIN
 10
-580.5701293945312
 20
0.0
 30
0.0
  9
$PEXTMAX
 10
0.0
 20
407.8999938964844
 30
0.0
  9
$PLIMMIN
 10
-580.5701293945312
 20
0.0
  9
$PLIMMAX
 10
0.0
 20
407.8999938964844
  9
$UNITMODE
 70
     0
  9
$VISRETAIN
 70
     1
  9
$PLINEGEN
 70
     0
  9
$PSLTSCALE
 70
     1
  9
$TREEDEPTH
 70
  3020
  9
$CMLSTYLE
  2
Standard
  9
$CMLJUST
 70
     0
  9
$CMLSCALE
 40
1.0
  9
$PROXYGRAPHICS
 70
     1
  9
$MEASUREMENT
 70
     0
  9
$CELWEIGHT
370
    -1
  9
$ENDCAPS
280
     0
  9
$JOINSTYLE
280
     0
  9
$LWDISPLAY
290
     0
  9
$INSUNITS
 70
     0
  9
$HYPERLINKBASE
  1

  9
$STYLESHEET
  1

  9
$XEDIT
290
     1
  9
$CEPSNTYPE
380
     0
  9
$PSTYLEMODE
290
     1
  9
$FINGERPRINTGUID
  2
{C4395264-5A7A-4AA6-BF17-988AEA739E5A}
  9
$VERSIONGUID
  2
{AB257D9A-2895-483A-A61D-1A54BE5DE4BE}
  9
$EXTNAMES
290
     1
  9
$PSVPSCALE
 40
0.0
  9
$OLESTARTUP
290
     0
  0
ENDSEC
  0
SECTION
  2
CLASSES
  0
CLASS
  1
ACDBDICTIONARYWDFLT
  2
AcDbDictionaryWithDefault
  3
AutoCAD 2000
 90
        0
280
     0
281
     0
  0
CLASS
  1
ACDBPLACEHOLDER
  2
AcDbPlaceHolder
  3
AutoCAD 2000
 90
        0
280
     0
281
     0
  0
CLASS
  1
LAYOUT
  2
AcDbLayout
  3
AutoCAD 2000
 90
        0
280
     0
281
     0
  0
CLASS
  1
DICTIONARYVAR
  2
AcDbDictionaryVar
  3
AutoCAD 2000
 90
        0
280
     0
281
     0
  0
CLASS
  1
LONG_TRANSACTION
  2
AcDbLongTransaction
  3
AutoCAD 2000
 90
    32768
280
     0
281
     0
  0
CLASS
  1
LWPOLYLINE
  2
AcDbPolyline
  3
AutoCAD 2000
 90
    32768
280
     0
281
     1
  0
CLASS
  1
HATCH
  2
AcDbHatch
  3
AutoCAD 2000
 90
    32768
280
     0
281
     1
  0
CLASS
  1
XRECORD
  2
AcDbXrecord
  3
AutoCAD 2000
 90
    32768
280
     0
281
     0
  0
ENDSEC
  0
SECTION
  2
TABLES
  0
TABLE
  2
VPORT
  5
264E
330
0
100
AcDbSymbolTable
 70
     2
  0
VPORT
  5
26CA
330
264E
100
AcDbSymbolTableRecord
100
AcDbViewportTableRecord
  2
*Active
 70
     0
 10
0.0
 20
0.0
 11
1.0
 21
1.0
 12
812.963972325288
 22
633.5703662344733
 13
0.0
 23
0.0
 14
1.0
 24
1.0
 15
0.0
 25
0.0
 16
0.0
 26
0.0
 36
1.0
 17
0.0
 27
0.0
 37
0.0
 40
1008.33973438511
 41
1.592161016949152
 42
50.0
 43
0.0
 44
0.0
 50
0.0
 51
0.0
 71
     0
 72
   100
 73
     1
 74
     3
 75
     0
 76
     0
 77
     0
 78
     0
281
     0
 65
     1
110
0.0
120
0.0
130
0.0
111
1.0
121
0.0
131
0.0
112
0.0
122
1.0
132
0.0
 79
     0
146
0.0
  0
ENDTAB
  0
TABLE
  2
LTYPE
  5
264B
330
0
100
AcDbSymbolTable
 70
     2
  0
LTYPE
  5
2659
330
264B
100
AcDbSymbolTableRecord
100
AcDbLinetypeTableRecord
  2
ByBlock
 70
     0
  3

 72
    65
 73
     0
 40
0.0
  0
LTYPE
  5
265A
330
264B
100
AcDbSymbolTableRecord
100
AcDbLinetypeTableRecord
  2
ByLayer
 70
     0
  3

 72
    65
 73
     0
 40
0.0
  0
LTYPE
  5
265B
330
264B
100
AcDbSymbolTableRecord
100
AcDbLinetypeTableRecord
  2
CONTINUOUS
 70
     0
  3
Solid line
 72
    65
 73
     0
 40
0.0
  0
LTYPE
  5
26B0
330
264B
100
AcDbSymbolTableRecord
100
AcDbLinetypeTableRecord
  2
CENTER
 70
     0
  3
__ . __
 72
    65
 73
     4
 40
7.0
 49
4.0
 74
     0
 49
-1.0
 74
     0
 49
1.0
 74
     0
 49
-1.0
 74
     0
  0
ENDTAB
  0
TABLE
  2
LAYER
  5
2648
102
{ACAD_XDICTIONARY
360
26B1
102
}
330
0
100
AcDbSymbolTable
 70
     2
  0
LAYER
  5
2656
330
2648
100
AcDbSymbolTableRecord
100
AcDbLayerTableRecord
  2
0
 70
     0
 62
     7
  6
CONTINUOUS
370
    -3
390
2655
  0
LAYER
  5
2669
330
2648
100
AcDbSymbolTableRecord
100
AcDbLayerTableRecord
  2
DEFPOINTS
 70
     0
 62
     7
  6
CONTINUOUS
290
     0
370
    -3
390
2655
  0
ENDTAB
  0
TABLE
  2
STYLE
  5
2649
330
0
100
AcDbSymbolTable
 70
     1
  0
STYLE
  5
2657
330
2649
100
AcDbSymbolTableRecord
100
AcDbTextStyleTableRecord
  2
STANDARD
 70
     0
 40
0.0
 41
1.0
 50
0.0
 71
     0
 42
0.2
  3
txt
  4
BIGFONT
  0
ENDTAB
  0
TABLE
  2
VIEW
  5
264C
330
0
100
AcDbSymbolTable
 70
     0
  0
ENDTAB
  0
TABLE
  2
UCS
  5
264D
330
0
100
AcDbSymbolTable
 70
     0
  0
ENDTAB
  0
TABLE
  2
APPID
  5
264F
330
0
100
AcDbSymbolTable
 70
     4
  0
APPID
  5
2658
330
264F
100
AcDbSymbolTableRecord
100
AcDbRegAppTableRecord
  2
ACAD
 70
     0
  0
APPID
  5
266A
330
264F
100
AcDbSymbolTableRecord
100
AcDbRegAppTableRecord
  2
MCAD_NO_VIS
 70
     0
  0
APPID
  5
266B
330
264F
100
AcDbSymbolTableRecord
100
AcDbRegAppTableRecord
  2
ACAD_TEMP_GRAPHIC
 70
     0
  0
APPID
  5
266C
330
264F
100
AcDbSymbolTableRecord
100
AcDbRegAppTableRecord
  2
ACATTRIBSERVICES
 70
     0
  0
ENDTAB
  0
TABLE
  2
DIMSTYLE
  5
2650
330
0
100
AcDbSymbolTable
 70
     1
100
AcDbDimStyleTable
 71
     0
  0
DIMSTYLE
105
266D
330
2650
100
AcDbSymbolTableRecord
100
AcDbDimStyleTableRecord
  2
STANDARD
 70
     0
279
     2
340
2657
  0
ENDTAB
  0
TABLE
  2
BLOCK_RECORD
  5
2647
330
0
100
AcDbSymbolTable
 70
     2
  0
BLOCK_RECORD
  5
2664
102
{ACAD_XDICTIONARY
360
2676
102
}
330
2647
100
AcDbSymbolTableRecord
100
AcDbBlockTableRecord
  2
*Model_Space
340
2667
  0
BLOCK_RECORD
  5
2660
102
{ACAD_XDICTIONARY
360
2678
102
}
330
2647
100
AcDbSymbolTableRecord
100
AcDbBlockTableRecord
  2
*Paper_Space
340
2663
  0
BLOCK_RECORD
  5
2670
330
2647
100
AcDbSymbolTableRecord
100
AcDbBlockTableRecord
  2
$MODEL_SPACE
340
0
  0
BLOCK_RECORD
  5
2672
330
2647
100
AcDbSymbolTableRecord
100
AcDbBlockTableRecord
  2
$PAPER_SPACE
340
0
  0
ENDTAB
  0
ENDSEC
  0
SECTION
  2
BLOCKS
  0
BLOCK
  5
2665
330
2664
100
AcDbEntity
  8
0
100
AcDbBlockBegin
  2
*Model_Space
 70
     0
 10
0.0
 20
0.0
 30
0.0
  3
*Model_Space
  1

  0
ENDBLK
  5
2666
330
2664
100
AcDbEntity
  8
0
100
AcDbBlockEnd
  0
BLOCK
  5
2661
330
2660
100
AcDbEntity
 67
     1
  8
0
100
AcDbBlockBegin
  2
*Paper_Space
 70
     0
 10
0.0
 20
0.0
 30
0.0
  3
*Paper_Space
  1

  0
ENDBLK
  5
2662
330
2660
100
AcDbEntity
 67
     1
  8
0
100
AcDbBlockEnd
  0
BLOCK
  5
2671
330
2670
100
AcDbEntity
  8
0
100
AcDbBlockBegin
  2
$MODEL_SPACE
 70
     0
 10
0.0
 20
0.0
 30
0.0
  3
$MODEL_SPACE
  1

  0
ENDBLK
  5
25C7
330
2670
100
AcDbEntity
  8
0
100
AcDbBlockEnd
  0
BLOCK
  5
2673
330
2672
100
AcDbEntity
  8
0
100
AcDbBlockBegin
  2
$PAPER_SPACE
 70
     0
 10
0.0
 20
0.0
 30
0.0
  3
$PAPER_SPACE
  1

  0
ENDBLK
  5
25C3
330
2672
100
AcDbEntity
  8
0
100
AcDbBlockEnd
  0
ENDSEC
  0
SECTION
  2
ENTITIES
  0
LINE
  5
135
330
2664
100
AcDbEntity
  8
0
100
AcDbLine
 10
813.3633403507593
 20
164.29015916545
 30
0.0
 11
813.3633403507593
 21
191.1576959716052
 31
0.0
  0
LINE
  5
139
330
2664
100
AcDbEntity
  8
0
100
AcDbLine
 10
813.3633403507593
 20
191.1576959716052
 30
0.0
 11
806.7595056946583
 21
194.9704217564203
 31
0.0
  0
LINE
  5
13B
330
2664
100
AcDbEntity
  8
0
100
AcDbLine
 10
778.4811541713287
 20
224.5723728578993
 30
0.0
 11
799.5633678165794
 21
224.5723728578993
 31
0.0
  0
LINE
  5
13F
330
2664
100
AcDbEntity
  8
0
100
AcDbLine
 10
799.5633678165794
 20
244.6223301332902
 30
0.0
 11
799.5633678165794
 21
195.3723606508683
 31
0.0
  0
LINE
  5
147
330
2664
100
AcDbEntity
  8
0
100
AcDbLine
 10
852.5633372990014
 20
244.6223301332902
 30
0.0
 11
852.5633372990014
 21
195.3723606508683
 31
0.0
  0
LINE
  5
148
330
2664
100
AcDbEntity
  8
0
100
AcDbLine
 10
838.7633647648216
 20
164.2901878976924
 30
0.0
 11
838.7633647648216
 21
191.1576755165883
 31
0.0
  0
LINE
  5
149
330
2664
100
AcDbEntity
  8
0
100
AcDbLine
 10
799.5633678165794
 20
195.3723606508683
 30
0.0
 11
852.5633372990014
 21
195.3723606508683
 31
0.0
  0
LINE
  5
14A
330
2664
100
AcDbEntity
  8
0
100
AcDbLine
 10
838.7633647648216
 20
191.1576755165883
 30
0.0
 11
845.3672185051233
 21
194.9704123196721
 31
0.0
  0
LINE
  5
150
330
2664
100
AcDbEntity
  8
0
100
AcDbLine
 10
800.8133372990014
 20
156.8723301332902
 30
0.0
 11
851.3133678165795
 21
156.8723301332902
 31
0.0
  0
LINE
  5
151
330
2664
100
AcDbEntity
  8
0
100
AcDbLine
 10
800.8133372990014
 20
156.8723301332902
 30
0.0
 11
800.8133372990014
 21
159.7223314510945
 31
0.0
  0
LINE
  5
153
330
2664
100
AcDbEntity
  8
0
100
AcDbLine
 10
800.8133372990014
 20
159.7223314510945
 30
0.0
 11
813.3633403507593
 21
164.29015916545
 31
0.0
  0
LINE
  5
154
330
2664
100
AcDbEntity
  8
0
100
AcDbLine
 10
851.3133678165795
 20
156.8723301332902
 30
0.0
 11
851.3133678165795
 21
159.7223601833362
 31
0.0
  0
LINE
  5
155
330
2664
100
AcDbEntity
  8
0
100
AcDbLine
 10
851.3133678165795
 20
159.7223601833362
 30
0.0
 11
838.7633647648216
 21
164.2901878976924
 31
0.0
  0
LINE
  5
156
330
2664
100
AcDbEntity
  8
0
100
AcDbLine
 10
838.7633647648216
 20
165.690597955555
 30
0.0
 11
838.7633647648216
 21
182.8223118227433
 31
0.0
  0
LINE
  5
15C
330
2664
100
AcDbEntity
  8
0
100
AcDbLine
 10
771.0633678165794
 20
237.1223301332892
 30
0.0
 11
771.0633678165794
 21
186.6222996157113
 31
0.0
  0
LINE
  5
15D
330
2664
100
AcDbEntity
  8
0
100
AcDbLine
 10
771.0633678165794
 20
237.1223301332892
 30
0.0
 11
773.913343118208
 21
237.1223301332892
 31
0.0
  0
LINE
  5
15E
330
2664
100
AcDbEntity
  8
0
100
AcDbLine
 10
773.913343118208
 20
237.1223301332892
 30
0.0
 11
778.4811541713287
 21
224.5723728578993
 31
0.0
  0
LINE
  5
15F
330
2664
100
AcDbEntity
  8
0
100
AcDbLine
 10
771.0633678165794
 20
186.6222996157113
 30
0.0
 11
773.913361540197
 21
186.6222996157113
 31
0.0
  0
LINE
  5
160
330
2664
100
AcDbEntity
  8
0
100
AcDbLine
 10
773.913361540197
 20
186.6222996157113
 30
0.0
 11
778.4812059157887
 21
199.1723484438363
 31
0.0
  0
LINE
  5
161
330
2664
100
AcDbEntity
  8
0
100
AcDbLine
 10
778.4812059157887
 20
199.1723484438363
 30
0.0
 11
799.5633678165794
 21
199.1723484438363
 31
0.0
  0
LINE
  5
17A
330
2664
100
AcDbEntity
  8
0
100
AcDbLine
 10
788.0633372990014
 20
244.6223301332902
 30
0.0
 11
788.0633372990014
 21
259.1223606508683
 31
0.0
  0
LINE
  5
182
330
2664
100
AcDbEntity
  8
0
100
AcDbLine
 10
864.0633372990015
 20
244.6223301332902
 30
0.0
 11
864.0633372990015
 21
259.1223606508683
 31
0.0
  0
LINE
  5
184
330
2664
100
AcDbEntity
  8
0
100
AcDbLine
 10
864.0633372990015
 20
259.1223606508683
 30
0.0
 11
788.0633372990014
 21
259.1223606508683
 31
0.0
  0
LINE
  5
185
330
2664
100
AcDbEntity
  8
0
100
AcDbLine
 10
864.0633372990015
 20
244.6223301332902
 30
0.0
 11
788.0633372990014
 21
244.6223301332902
 31
0.0
  0
LINE
  5
1CB
330
2664
100
AcDbEntity
  8
0
100
AcDbLine
 10
799.0633525577905
 20
259.1223606508683
 30
0.0
 11
799.0633525577905
 21
299.6222996157122
 31
0.0
  0
LINE
  5
1DB
330
2664
100
AcDbEntity
  8
0
100
AcDbLine
 10
853.0633525577904
 20
259.1223606508683
 30
0.0
 11
853.0633525577904
 21
299.6222996157122
 31
0.0
  0
LINE
  5
1EB
330
2664
100
AcDbEntity
  8
0
100
AcDbLine
 10
798.5633830753686
 20
314.1222996157114
 30
0.0
 11
798.5633830753686
 21
320.372269098133
 31
0.0
  0
LINE
  5
1EE
330
2664
100
AcDbEntity
  8
0
100
AcDbLine
 10
853.5633678165794
 20
314.1222996157114
 30
0.0
 11
853.5633678165794
 21
320.372269098133
 31
0.0
  0
LINE
  5
1F1
330
2664
100
AcDbEntity
  8
0
100
AcDbLine
 10
781.5133495060325
 20
320.372269098133
 30
0.0
 11
781.5133495060325
 21
484.1895603578993
 31
0.0
  0
LINE
  5
1F6
330
2664
100
AcDbEntity
  8
0
100
AcDbLine
 10
781.5133495060325
 20
484.1895603578993
 30
0.0
 11
870.6133556095483
 21
484.1895603578993
 31
0.0
  0
LINE
  5
1FB
330
2664
100
AcDbEntity
  8
0
100
AcDbLine
 10
870.6133556095483
 20
320.372269098133
 30
0.0
 11
870.6133556095483
 21
484.1895603578993
 31
0.0
  0
LINE
  5
1FC
330
2664
100
AcDbEntity
  8
0
100
AcDbLine
 10
781.5133495060325
 20
320.372269098133
 30
0.0
 11
870.6133556095483
 21
320.372269098133
 31
0.0
  0
LINE
  5
203
330
2664
100
AcDbEntity
  8
0
100
AcDbLine
 10
788.0633525577905
 20
314.1222996157114
 30
0.0
 11
788.0633525577905
 21
299.6222996157122
 31
0.0
  0
LINE
  5
20B
330
2664
100
AcDbEntity
  8
0
100
AcDbLine
 10
864.0633525577905
 20
314.1222996157114
 30
0.0
 11
864.0633525577905
 21
299.6222996157122
 31
0.0
  0
LINE
  5
20D
330
2664
100
AcDbEntity
  8
0
100
AcDbLine
 10
864.0633525577905
 20
299.6222996157122
 30
0.0
 11
788.0633525577905
 21
299.6222996157122
 31
0.0
  0
LINE
  5
20E
330
2664
100
AcDbEntity
  8
0
100
AcDbLine
 10
864.0633525577905
 20
314.1222996157114
 30
0.0
 11
788.0633525577905
 21
314.1222996157114
 31
0.0
  0
LINE
  5
9E7
330
2664
100
AcDbEntity
  8
0
  6
Continuous
100
AcDbLine
 10
813.3633403507593
 20
164.29015916545
 30
0.0
 11
838.7633647648216
 21
164.2901878976924
 31
0.0
  0
LINE
  5
9E8
330
2664
100
AcDbEntity
  8
0
  6
Continuous
100
AcDbLine
 10
778.4812059157887
 20
199.1723484438363
 30
0.0
 11
778.4811541713287
 21
224.5723728578993
 31
0.0
  0
TEXT
  5
1104
330
2664
100
AcDbEntity
  8
0
  6
Continuous
100
AcDbText
 10
387.079921725845
 20
1086.542031435114
 30
0.0
 40
48.000002
  1
WTC__08MA100 1S
 41
1.32095
100
AcDbText
  0
CIRCLE
  5
209F
330
2664
100
AcDbEntity
  8
0
  6
Continuous
100
AcDbCircle
 10
826.0633525577903
 20
890.1758720468524
 30
0.0
 40
44.55000305175781
  0
LINE
  5
20B1
330
2664
100
AcDbEntity
  8
0
  6
Continuous
100
AcDbLine
 10
778.4812059157887
 20
877.4759056161883
 30
0.0
 11
778.4811541713287
 21
902.87593003025
 31
0.0
  0
LINE
  5
20B2
330
2664
100
AcDbEntity
  8
0
100
AcDbLine
 10
771.0633678165794
 20
915.4258873056411
 30
0.0
 11
771.0633678165794
 21
864.9258567880634
 31
0.0
  0
LINE
  5
20B3
330
2664
100
AcDbEntity
  8
0
100
AcDbLine
 10
773.913361540197
 20
864.9258567880634
 30
0.0
 11
778.4812059157887
 21
877.4759056161883
 31
0.0
  0
LINE
  5
20B4
330
2664
100
AcDbEntity
  8
0
100
AcDbLine
 10
771.0633678165794
 20
864.9258567880634
 30
0.0
 11
773.913361540197
 21
864.9258567880634
 31
0.0
  0
LINE
  5
20B5
330
2664
100
AcDbEntity
  8
0
100
AcDbLine
 10
773.913343118208
 20
915.4258873056411
 30
0.0
 11
778.4811541713287
 21
902.87593003025
 31
0.0
  0
LINE
  5
20B6
330
2664
100
AcDbEntity
  8
0
100
AcDbLine
 10
771.0633678165794
 20
915.4258873056411
 30
0.0
 11
773.913343118208
 21
915.4258873056411
 31
0.0
  0
LINE
  5
20B7
330
2664
100
AcDbEntity
  8
0
100
AcDbLine
 10
778.4812059157887
 20
877.4759056161883
 30
0.0
 11
783.3619049878118
 21
877.4759056161883
 31
0.0
  0
LINE
  5
20B8
330
2664
100
AcDbEntity
  8
0
100
AcDbLine
 10
778.4811541713287
 20
902.87593003025
 30
0.0
 11
783.3619322168938
 21
902.87593003025
 31
0.0
  0
LINE
  5
217F
330
2664
100
AcDbEntity
  8
0
100
AcDbLine
 10
878.2131987712011
 20
864.925872352745
 30
0.0
 11
873.6453506499174
 21
877.4759198175495
 31
0.0
  0
LINE
  5
2180
330
2664
100
AcDbEntity
  8
0
100
AcDbLine
 10
881.0631774225623
 20
915.4259037209309
 30
0.0
 11
881.0631924948181
 21
864.9258732033553
 31
0.0
  0
LINE
  5
2181
330
2664
100
AcDbEntity
  8
0
100
AcDbLine
 10
881.0631924948181
 20
864.9258732033553
 30
0.0
 11
878.2131987712011
 21
864.925872352745
 31
0.0
  0
LINE
  5
2182
330
2664
100
AcDbEntity
  8
0
100
AcDbLine
 10
873.6453506499174
 20
877.4759198175495
 30
0.0
 11
868.7646515778947
 21
877.4759183608541
 31
0.0
  0
LINE
  5
2183
330
2664
100
AcDbEntity
  8
0
100
AcDbLine
 10
873.6453948134778
 20
902.8759442316264
 30
0.0
 11
868.764616767913
 21
902.875942774907
 31
0.0
  0
LINE
  5
2184
330
2664
100
AcDbEntity
  8
0
100
AcDbLine
 10
881.0631774225623
 20
915.4259037209309
 30
0.0
 11
878.2132021209339
 21
915.425902870327
 31
0.0
  0
LINE
  5
2185
330
2664
100
AcDbEntity
  8
0
100
AcDbLine
 10
878.2132021209339
 20
915.425902870327
 30
0.0
 11
873.6453948134778
 21
902.8759442316264
 31
0.0
  0
LINE
  5
2186
330
2664
100
AcDbEntity
  8
0
  6
Continuous
100
AcDbLine
 10
873.6453506499174
 20
877.4759198175495
 30
0.0
 11
873.6453948134778
 21
902.8759442316264
 31
0.0
  0
LINE
  5
2187
330
2664
100
AcDbEntity
  8
0
100
AcDbLine
 10
881.0633133475571
 20
237.1223465486002
 30
0.0
 11
881.0633284198129
 21
186.6223160310244
 31
0.0
  0
LINE
  5
2188
330
2664
100
AcDbEntity
  8
0
  6
Continuous
100
AcDbLine
 10
873.6454865749124
 20
199.1723626452183
 30
0.0
 11
873.6455307384726
 21
224.5723870592954
 31
0.0
  0
LINE
  5
2189
330
2664
100
AcDbEntity
  8
0
100
AcDbLine
 10
881.0633284198129
 20
186.6223160310244
 30
0.0
 11
878.2133346961957
 21
186.6223151804142
 31
0.0
  0
LINE
  5
218A
330
2664
100
AcDbEntity
  8
0
100
AcDbLine
 10
878.2133346961957
 20
186.6223151804142
 30
0.0
 11
873.6454865749124
 21
199.1723626452183
 31
0.0
  0
LINE
  5
218B
330
2664
100
AcDbEntity
  8
0
100
AcDbLine
 10
881.0633133475571
 20
237.1223465486002
 30
0.0
 11
878.2133380459283
 21
237.1223456979953
 31
0.0
  0
LINE
  5
218C
330
2664
100
AcDbEntity
  8
0
100
AcDbLine
 10
878.2133380459283
 20
237.1223456979953
 30
0.0
 11
873.6455307384726
 21
224.5723870592954
 31
0.0
  0
LINE
  5
218D
330
2664
100
AcDbEntity
  8
0
100
AcDbLine
 10
873.6454865749124
 20
199.1723626452183
 30
0.0
 11
852.5633246741223
 21
199.1723563530289
 31
0.0
  0
LINE
  5
218E
330
2664
100
AcDbEntity
  8
0
100
AcDbLine
 10
873.6455307384726
 20
224.5723870592954
 30
0.0
 11
852.5633170932229
 21
224.5723807670902
 31
0.0
  0
LINE
  5
2616
330
2664
100
AcDbEntity
  8
0
100
AcDbLine
 10
776.64823955779
 20
602.7564803578992
 30
0.0
 11
772.0633545577903
 21
537.1895613578991
 31
0.0
  0
LINE
  5
2617
330
2664
100
AcDbEntity
  8
0
100
AcDbLine
 10
875.47846955779
 20
602.7564803578992
 30
0.0
 11
880.06335455779
 21
537.1895613578991
 31
0.0
  0
LINE
  5
2618
330
2664
100
AcDbEntity
  8
0
100
AcDbLine
 10
868.56335055779
 20
484.1895603578993
 30
0.0
 11
783.5633545577906
 21
484.1895603578993
 31
0.0
  0
LINE
  5
2619
330
2664
100
AcDbEntity
  8
0
100
AcDbLine
 10
772.0633545577903
 20
537.1895603578994
 30
0.0
 11
772.0633545577903
 21
504.1081603578987
 31
0.0
  0
LINE
  5
261A
330
2664
100
AcDbEntity
  8
0
100
AcDbLine
 10
772.0633535577904
 20
504.1081613578992
 30
0.0
 11
783.56336055779
 21
484.1895637404632
 31
0.0
  0
LINE
  5
261B
330
2664
100
AcDbEntity
  8
0
100
AcDbLine
 10
880.0633555577901
 20
504.1081613578992
 30
0.0
 11
868.5633495577903
 21
484.1895653922751
 31
0.0
  0
LINE
  5
261C
330
2664
100
AcDbEntity
  8
0
100
AcDbLine
 10
880.06335455779
 20
537.1895603578994
 30
0.0
 11
880.06335455779
 21
504.1081603578987
 31
0.0
  0
CIRCLE
  5
261D
330
2664
100
AcDbEntity
  8
0
100
AcDbCircle
 10
826.0633525577903
 20
890.1758720468524
 30
0.0
 40
54.0
  0
CIRCLE
  5
261E
330
2664
100
AcDbEntity
  8
0
100
AcDbCircle
 10
826.0633525577903
 20
890.1758720468524
 30
0.0
 40
54.0
  0
LINE
  5
261F
330
2664
100
AcDbEntity
  8
0
100
AcDbLine
 10
816.06335555779
 20
645.1895603578994
 30
0.0
 11
836.0633565577908
 21
645.1895603578994
 31
0.0
  0
LINE
  5
2620
330
2664
100
AcDbEntity
  8
0
100
AcDbLine
 10
839.5633545577901
 20
612.1895603578994
 30
0.0
 11
812.5633545577906
 21
612.1895603578994
 31
0.0
  0
LINE
  5
2621
330
2664
100
AcDbEntity
  8
0
100
AcDbLine
 10
839.5633545577901
 20
605.8986403578992
 30
0.0
 11
812.5633545577906
 21
605.8986403578992
 31
0.0
  0
LINE
  5
2622
330
2664
100
AcDbEntity
  8
0
100
AcDbLine
 10
812.5633545577906
 20
605.8986403578992
 30
0.0
 11
776.6482405577902
 21
602.7564703578994
 31
0.0
  0
LINE
  5
2623
330
2664
100
AcDbEntity
  8
0
100
AcDbLine
 10
816.06335555779
 20
612.1895603578994
 30
0.0
 11
816.06335555779
 21
645.1895603578994
 31
0.0
  0
LINE
  5
2624
330
2664
100
AcDbEntity
  8
0
100
AcDbLine
 10
812.5633545577906
 20
612.1895603578994
 30
0.0
 11
812.5633545577906
 21
605.8986403578992
 31
0.0
  0
LINE
  5
2625
330
2664
100
AcDbEntity
  8
0
100
AcDbLine
 10
812.5633545577906
 20
611.1895503578994
 30
0.0
 11
812.5633545577906
 21
610.3271703578992
 31
0.0
  0
LINE
  5
2626
330
2664
100
AcDbEntity
  8
0
100
AcDbLine
 10
839.5633545577901
 20
605.8986403578992
 30
0.0
 11
875.4784685577901
 21
602.7564703578994
 31
0.0
  0
LINE
  5
2627
330
2664
100
AcDbEntity
  8
0
100
AcDbLine
 10
836.0633565577908
 20
612.1895603578994
 30
0.0
 11
836.0633565577908
 21
645.1895603578994
 31
0.0
  0
LINE
  5
2628
330
2664
100
AcDbEntity
  8
0
100
AcDbLine
 10
839.5633545577901
 20
612.1895603578994
 30
0.0
 11
839.5633545577901
 21
605.8986403578992
 31
0.0
  0
LINE
  5
2629
330
2664
100
AcDbEntity
  8
0
100
AcDbLine
 10
839.5633545577901
 20
611.1895603578992
 30
0.0
 11
839.5633545577901
 21
610.3271803578993
 31
0.0
  0
CIRCLE
  5
262A
330
2664
100
AcDbEntity
  8
0
100
AcDbCircle
 10
826.0633525577903
 20
890.1758720468524
 30
0.0
 40
13.5
  0
CIRCLE
  5
262B
330
2664
100
AcDbEntity
  8
0
100
AcDbCircle
 10
826.0633525577903
 20
890.1758720468524
 30
0.0
 40
9.999999
  0
CIRCLE
  5
262C
330
2664
100
AcDbEntity
  8
0
100
AcDbCircle
 10
826.0633525577903
 20
890.1758720468524
 30
0.0
 40
13.5
  0
CIRCLE
  5
262D
330
2664
100
AcDbEntity
  8
0
100
AcDbCircle
 10
826.0633525577903
 20
890.1758720468524
 30
0.0
 40
9.999999
  0
LINE
  5
26BC
330
2664
100
AcDbEntity
  8
0
  6
CENTER
100
AcDbLine
 10
826.0633525577903
 20
833.3962281915503
 30
0.0
 11
826.0633525577903
 21
946.9555159021545
 31
0.0
  0
LINE
  5
26BD
330
2664
100
AcDbEntity
  8
0
  6
CENTER
100
AcDbLine
 10
746.8677960358313
 20
211.8723312898123
 30
0.0
 11
905.2588785621715
 21
211.8723312898123
 31
0.0
  0
LINE
  5
26BE
330
2664
100
AcDbEntity
  8
0
  6
CENTER
100
AcDbLine
 10
826.0633372990014
 20
132.5898943046695
 30
0.0
 11
826.0633372990014
 21
676.6198730641795
 31
0.0
  0
LINE
  5
26C4
330
2664
100
AcDbEntity
  8
0
  6
CENTER
100
AcDbLine
 10
746.8678112946202
 20
890.1758720468524
 30
0.0
 11
905.2588938209604
 21
890.1758720468524
 31
0.0
  0
ENDSEC
  0
SECTION
  2
OBJECTS
  0
DICTIONARY
  5
2652
330
0
100
AcDbDictionary
281
     1
  3
ACAD_GROUP
350
2653
  3
ACAD_LAYOUT
350
265F
  3
ACAD_MLINESTYLE
350
265C
  3
ACAD_PLOTSETTINGS
350
265E
  3
ACAD_PLOTSTYLENAME
350
2654
  3
AcDbVariableDictionary
350
26AA
  0
DICTIONARY
  5
26B1
330
2648
100
AcDbDictionary
280
     1
281
     1
  3
ACAD_LAYERSTATES
360
26B2
  0
DICTIONARY
  5
2676
330
2664
100
AcDbDictionary
280
     1
281
     1
  3
ACAD_LAYOUTSELFREF
360
26A5
  0
DICTIONARY
  5
2678
330
2660
100
AcDbDictionary
280
     1
281
     1
  3
ACAD_LAYOUTSELFREF
360
26A4
  0
DICTIONARY
  5
2653
102
{ACAD_REACTORS
330
2652
102
}
330
2652
100
AcDbDictionary
281
     1
  0
DICTIONARY
  5
265F
102
{ACAD_REACTORS
330
2652
102
}
330
2652
100
AcDbDictionary
281
     1
  3
Model
350
2667
  3
ﾚｲｱｳﾄ1
350
2663
  0
DICTIONARY
  5
265C
102
{ACAD_REACTORS
330
2652
102
}
330
2652
100
AcDbDictionary
281
     1
  3
Standard
350
265D
  0
DICTIONARY
  5
265E
102
{ACAD_REACTORS
330
2652
102
}
330
2652
100
AcDbDictionary
281
     1
  0
ACDBDICTIONARYWDFLT
  5
2654
102
{ACAD_REACTORS
330
2652
102
}
330
2652
100
AcDbDictionary
281
     1
  3
Normal
350
2655
100
AcDbDictionaryWithDefault
340
2655
  0
DICTIONARY
  5
26AA
102
{ACAD_REACTORS
330
2652
102
}
330
2652
100
AcDbDictionary
281
     1
  3
DIMASSOC
350
26AB
  0
DICTIONARY
  5
26B2
102
{ACAD_REACTORS
330
26B1
102
}
330
26B1
100
AcDbDictionary
281
     1
  0
XRECORD
  5
26A5
102
{ACAD_REACTORS
330
2676
102
}
330
2676
100
AcDbXrecord
280
     1
340
2664
  0
XRECORD
  5
26A4
102
{ACAD_REACTORS
330
2678
102
}
330
2678
100
AcDbXrecord
280
     1
340
2660
  0
LAYOUT
  5
2667
102
{ACAD_REACTORS
330
265F
102
}
330
265F
100
AcDbPlotSettings
  1

  2
SII LP-2150 (D-SCAN C2)
  4

  6

 40
0.0
 41
0.0
 42
0.0
 43
0.0
 44
0.0
 45
0.0
 46
0.0
 47
0.0
 48
0.0
 49
0.0
140
0.0
141
0.0
142
1.0
143
1.0
 70
  1712
 72
     0
 73
     0
 74
     0
  7

 75
     0
147
1.0
148
0.0
149
0.0
100
AcDbLayout
  1
Model
 70
     1
 71
     0
 10
0.0
 20
0.0
 11
12.0
 21
9.0
 12
0.0
 22
0.0
 32
0.0
 14
0.0
 24
0.0
 34
0.0
 15
0.0
 25
0.0
 35
0.0
146
0.0
 13
0.0
 23
0.0
 33
0.0
 16
1.0
 26
0.0
 36
0.0
 17
0.0
 27
1.0
 37
0.0
 76
     0
330
2664
  0
LAYOUT
  5
2663
102
{ACAD_REACTORS
330
265F
102
}
330
265F
100
AcDbPlotSettings
  1

  2
SII LP-2150 (D-SCAN C2)
  4

  6

 40
0.0
 41
0.0
 42
0.0
 43
0.0
 44
0.0
 45
0.0
 46
0.0
 47
0.0
 48
0.0
 49
0.0
140
0.0
141
0.0
142
1.0
143
1.0
 70
   688
 72
     0
 73
     0
 74
     5
  7

 75
    16
147
1.0
148
0.0
149
0.0
100
AcDbLayout
  1
ﾚｲｱｳﾄ1
 70
     1
 71
     1
 10
-580.5701293945312
 20
0.0
 11
0.0
 21
407.8999938964844
 12
0.0
 22
0.0
 32
0.0
 14
-580.5701293945312
 24
0.0
 34
0.0
 15
0.0
 25
407.8999938964844
 35
0.0
146
0.0
 13
0.0
 23
0.0
 33
0.0
 16
1.0
 26
0.0
 36
0.0
 17
0.0
 27
1.0
 37
0.0
 76
     0
330
2660
  0
MLINESTYLE
  5
265D
102
{ACAD_REACTORS
330
265C
102
}
330
265C
100
AcDbMlineStyle
  2
STANDARD
 70
     0
  3

 62
   256
 51
90.0
 52
90.0
 71
     2
 49
0.5
 62
   256
  6
BYLAYER
 49
-0.5
 62
   256
  6
BYLAYER
  0
ACDBPLACEHOLDER
  5
2655
102
{ACAD_REACTORS
330
2654
102
}
330
2654
  0
DICTIONARYVAR
  5
26AB
102
{ACAD_REACTORS
330
26AA
102
}
330
26AA
100
DictionaryVariables
280
     0
  1
1
  0
ENDSEC
  0
EOF
