  0
SECTION
  2
HEADER
  9
$ACADVER
  1
AC1015
  9
$ACADMAINTVER
 70
    14
  9
$DWGCODEPAGE
  3
ANSI_932
  9
$INSBASE
 10
0.0
 20
0.0
 30
0.0
  9
$EXTMIN
 10
701.2167195340116
 20
103.7946559714046
 30
-0.0000000349181948
  9
$EXTMAX
 10
1267.822458196322
 20
1022.470166083911
 30
0.0000000814935746
  9
$LIMMIN
 10
-580.5701293945312
 20
0.0
  9
$LIMMAX
 10
0.0
 20
407.8999938964844
  9
$ORTHOMODE
 70
     0
  9
$REGENMODE
 70
     1
  9
$FILLMODE
 70
     1
  9
$QTEXTMODE
 70
     0
  9
$MIRRTEXT
 70
     1
  9
$LTSCALE
 40
1.0
  9
$ATTMODE
 70
     1
  9
$TEXTSIZE
 40
0.2
  9
$TRACEWID
 40
0.05
  9
$TEXTSTYLE
  7
STANDARD
  9
$CLAYER
  8
0
  9
$CELTYPE
  6
CONTINUOUS
  9
$CECOLOR
 62
   256
  9
$CELTSCALE
 40
1.0
  9
$DISPSILH
 70
     0
  9
$DIMSCALE
 40
1.0
  9
$DIMASZ
 40
1.0
  9
$DIMEXO
 40
2.54
  9
$DIMDLI
 40
0.38
  9
$DIMRND
 40
0.0
  9
$DIMDLE
 40
0.0
  9
$DIMEXE
 40
2.54
  9
$DIMTP
 40
0.0
  9
$DIMTM
 40
0.0
  9
$DIMTXT
 40
3.200000047683714
  9
$DIMCEN
 40
0.09
  9
$DIMTSZ
 40
0.0
  9
$DIMTOL
 70
     0
  9
$DIMLIM
 70
     0
  9
$DIMTIH
 70
     0
  9
$DIMTOH
 70
     0
  9
$DIMSE1
 70
     0
  9
$DIMSE2
 70
     0
  9
$DIMTAD
 70
     1
  9
$DIMZIN
 70
     0
  9
$DIMBLK
  1

  9
$DIMASO
 70
     1
  9
$DIMSHO
 70
     0
  9
$DIMPOST
  1

  9
$DIMAPOST
  1

  9
$DIMALT
 70
     0
  9
$DIMALTD
 70
     2
  9
$DIMALTF
 40
25.4
  9
$DIMLFAC
 40
1.0
  9
$DIMTOFL
 70
     0
  9
$DIMTVP
 40
1.0
  9
$DIMTIX
 70
     0
  9
$DIMSOXD
 70
     0
  9
$DIMSAH
 70
     1
  9
$DIMBLK1
  1

  9
$DIMBLK2
  1

  9
$DIMSTYLE
  2
STANDARD
  9
$DIMCLRD
 70
     0
  9
$DIMCLRE
 70
     0
  9
$DIMCLRT
 70
     0
  9
$DIMTFAC
 40
1.0
  9
$DIMGAP
 40
1.600000023841857
  9
$DIMJUST
 70
     0
  9
$DIMSD1
 70
     0
  9
$DIMSD2
 70
     0
  9
$DIMTOLJ
 70
     1
  9
$DIMTZIN
 70
     0
  9
$DIMALTZ
 70
     0
  9
$DIMALTTZ
 70
     0
  9
$DIMUPT
 70
     0
  9
$DIMDEC
 70
     4
  9
$DIMTDEC
 70
     4
  9
$DIMALTU
 70
     2
  9
$DIMALTTD
 70
     2
  9
$DIMTXSTY
  7
STANDARD
  9
$DIMAUNIT
 70
     0
  9
$DIMADEC
 70
     0
  9
$DIMALTRND
 40
0.0
  9
$DIMAZIN
 70
     0
  9
$DIMDSEP
 70
    46
  9
$DIMATFIT
 70
     3
  9
$DIMFRAC
 70
     0
  9
$DIMLDRBLK
  1

  9
$DIMLUNIT
 70
     2
  9
$DIMLWD
 70
    -2
  9
$DIMLWE
 70
    -2
  9
$DIMTMOVE
 70
     0
  9
$LUNITS
 70
     2
  9
$LUPREC
 70
     4
  9
$SKETCHINC
 40
0.1
  9
$FILLETRAD
 40
0.0
  9
$AUNITS
 70
     0
  9
$AUPREC
 70
     0
  9
$MENU
  1
.
  9
$ELEVATION
 40
0.0
  9
$PELEVATION
 40
0.0
  9
$THICKNESS
 40
0.0
  9
$LIMCHECK
 70
     0
  9
$CHAMFERA
 40
0.0
  9
$CHAMFERB
 40
0.0
  9
$CHAMFERC
 40
0.0
  9
$CHAMFERD
 40
0.0
  9
$SKPOLY
 70
     0
  9
$TDCREATE
 40
2452717.604314595
  9
$TDUCREATE
 40
2452717.229314595
  9
$TDUPDATE
 40
2456899.681375115
  9
$TDUUPDATE
 40
2456899.306375115
  9
$TDINDWG
 40
0.1610555787
  9
$TDUSRTIMER
 40
0.1610555787
  9
$USRTIMER
 70
     1
  9
$ANGBASE
 50
0.0
  9
$ANGDIR
 70
     0
  9
$PDMODE
 70
     0
  9
$PDSIZE
 40
0.0
  9
$PLINEWID
 40
0.0
  9
$SPLFRAME
 70
     0
  9
$SPLINETYPE
 70
     6
  9
$SPLINESEGS
 70
     8
  9
$HANDSEED
  5
3222
  9
$SURFTAB1
 70
     6
  9
$SURFTAB2
 70
     6
  9
$SURFTYPE
 70
     6
  9
$SURFU
 70
     6
  9
$SURFV
 70
     6
  9
$UCSBASE
  2

  9
$UCSNAME
  2

  9
$UCSORG
 10
0.0
 20
0.0
 30
0.0
  9
$UCSXDIR
 10
1.0
 20
0.0
 30
0.0
  9
$UCSYDIR
 10
0.0
 20
1.0
 30
0.0
  9
$UCSORTHOREF
  2

  9
$UCSORTHOVIEW
 70
     0
  9
$UCSORGTOP
 10
0.0
 20
0.0
 30
0.0
  9
$UCSORGBOTTOM
 10
0.0
 20
0.0
 30
0.0
  9
$UCSORGLEFT
 10
0.0
 20
0.0
 30
0.0
  9
$UCSORGRIGHT
 10
0.0
 20
0.0
 30
0.0
  9
$UCSORGFRONT
 10
0.0
 20
0.0
 30
0.0
  9
$UCSORGBACK
 10
0.0
 20
0.0
 30
0.0
  9
$PUCSBASE
  2

  9
$PUCSNAME
  2

  9
$PUCSORG
 10
0.0
 20
0.0
 30
0.0
  9
$PUCSXDIR
 10
1.0
 20
0.0
 30
0.0
  9
$PUCSYDIR
 10
0.0
 20
1.0
 30
0.0
  9
$PUCSORTHOREF
  2

  9
$PUCSORTHOVIEW
 70
     0
  9
$PUCSORGTOP
 10
0.0
 20
0.0
 30
0.0
  9
$PUCSORGBOTTOM
 10
0.0
 20
0.0
 30
0.0
  9
$PUCSORGLEFT
 10
0.0
 20
0.0
 30
0.0
  9
$PUCSORGRIGHT
 10
0.0
 20
0.0
 30
0.0
  9
$PUCSORGFRONT
 10
0.0
 20
0.0
 30
0.0
  9
$PUCSORGBACK
 10
0.0
 20
0.0
 30
0.0
  9
$USERI1
 70
     0
  9
$USERI2
 70
     0
  9
$USERI3
 70
     0
  9
$USERI4
 70
     0
  9
$USERI5
 70
     0
  9
$USERR1
 40
0.0
  9
$USERR2
 40
0.0
  9
$USERR3
 40
0.0
  9
$USERR4
 40
0.0
  9
$USERR5
 40
0.0
  9
$WORLDVIEW
 70
     1
  9
$SHADEDGE
 70
     3
  9
$SHADEDIF
 70
    70
  9
$TILEMODE
 70
     1
  9
$MAXACTVP
 70
    48
  9
$PINSBASE
 10
0.0
 20
0.0
 30
0.0
  9
$PLIMCHECK
 70
     0
  9
$PEXTMIN
 10
-580.5701293945312
 20
0.0
 30
0.0
  9
$PEXTMAX
 10
0.0
 20
407.8999938964844
 30
0.0
  9
$PLIMMIN
 10
-580.5701293945312
 20
0.0
  9
$PLIMMAX
 10
0.0
 20
407.8999938964844
  9
$UNITMODE
 70
     0
  9
$VISRETAIN
 70
     1
  9
$PLINEGEN
 70
     0
  9
$PSLTSCALE
 70
     1
  9
$TREEDEPTH
 70
  3020
  9
$CMLSTYLE
  2
Standard
  9
$CMLJUST
 70
     0
  9
$CMLSCALE
 40
1.0
  9
$PROXYGRAPHICS
 70
     1
  9
$MEASUREMENT
 70
     0
  9
$CELWEIGHT
370
    -1
  9
$ENDCAPS
280
     0
  9
$JOINSTYLE
280
     0
  9
$LWDISPLAY
290
     0
  9
$INSUNITS
 70
     0
  9
$HYPERLINKBASE
  1

  9
$STYLESHEET
  1

  9
$XEDIT
290
     1
  9
$CEPSNTYPE
380
     0
  9
$PSTYLEMODE
290
     1
  9
$FINGERPRINTGUID
  2
{216DEA8D-6220-404A-A25D-C4DDEF1AFDE9}
  9
$VERSIONGUID
  2
{D906816D-0BFC-42B5-A052-F2CB11577ED4}
  9
$EXTNAMES
290
     1
  9
$PSVPSCALE
 40
0.0
  9
$OLESTARTUP
290
     0
  0
ENDSEC
  0
SECTION
  2
CLASSES
  0
CLASS
  1
ACDBDICTIONARYWDFLT
  2
AcDbDictionaryWithDefault
  3
AutoCAD 2000
 90
        0
280
     0
281
     0
  0
CLASS
  1
ACDBPLACEHOLDER
  2
AcDbPlaceHolder
  3
AutoCAD 2000
 90
        0
280
     0
281
     0
  0
CLASS
  1
LAYOUT
  2
AcDbLayout
  3
AutoCAD 2000
 90
        0
280
     0
281
     0
  0
CLASS
  1
DICTIONARYVAR
  2
AcDbDictionaryVar
  3
AutoCAD 2000
 90
        0
280
     0
281
     0
  0
CLASS
  1
LONG_TRANSACTION
  2
AcDbLongTransaction
  3
AutoCAD 2000
 90
    32768
280
     0
281
     0
  0
CLASS
  1
LWPOLYLINE
  2
AcDbPolyline
  3
AutoCAD 2000
 90
    32768
280
     0
281
     1
  0
CLASS
  1
HATCH
  2
AcDbHatch
  3
AutoCAD 2000
 90
    32768
280
     0
281
     1
  0
CLASS
  1
XRECORD
  2
AcDbXrecord
  3
AutoCAD 2000
 90
    32768
280
     0
281
     0
  0
ENDSEC
  0
SECTION
  2
TABLES
  0
TABLE
  2
VPORT
  5
31AA
330
0
100
AcDbSymbolTable
 70
     2
  0
VPORT
  5
3221
330
31AA
100
AcDbSymbolTableRecord
100
AcDbViewportTableRecord
  2
*Active
 70
     0
 10
0.0
 20
0.0
 11
1.0
 21
1.0
 12
984.5195888651668
 22
563.132411027658
 13
0.0
 23
0.0
 14
1.0
 24
1.0
 15
0.0
 25
0.0
 16
0.0
 26
0.0
 36
1.0
 17
0.0
 27
0.0
 37
0.0
 40
924.5083704941734
 41
1.592161016949152
 42
50.0
 43
0.0
 44
0.0
 50
0.0
 51
0.0
 71
     0
 72
   100
 73
     1
 74
     3
 75
     0
 76
     0
 77
     0
 78
     0
281
     0
 65
     1
110
0.0
120
0.0
130
0.0
111
1.0
121
0.0
131
0.0
112
0.0
122
1.0
132
0.0
 79
     0
146
0.0
  0
ENDTAB
  0
TABLE
  2
LTYPE
  5
31A7
330
0
100
AcDbSymbolTable
 70
     2
  0
LTYPE
  5
31B5
330
31A7
100
AcDbSymbolTableRecord
100
AcDbLinetypeTableRecord
  2
ByBlock
 70
     0
  3

 72
    65
 73
     0
 40
0.0
  0
LTYPE
  5
31B6
330
31A7
100
AcDbSymbolTableRecord
100
AcDbLinetypeTableRecord
  2
ByLayer
 70
     0
  3

 72
    65
 73
     0
 40
0.0
  0
LTYPE
  5
31B7
330
31A7
100
AcDbSymbolTableRecord
100
AcDbLinetypeTableRecord
  2
CONTINUOUS
 70
     0
  3
Solid line
 72
    65
 73
     0
 40
0.0
  0
LTYPE
  5
320C
330
31A7
100
AcDbSymbolTableRecord
100
AcDbLinetypeTableRecord
  2
CENTER
 70
     0
  3
__ . __
 72
    65
 73
     4
 40
7.0
 49
4.0
 74
     0
 49
-1.0
 74
     0
 49
1.0
 74
     0
 49
-1.0
 74
     0
  0
ENDTAB
  0
TABLE
  2
LAYER
  5
31A4
102
{ACAD_XDICTIONARY
360
320D
102
}
330
0
100
AcDbSymbolTable
 70
     2
  0
LAYER
  5
31B2
330
31A4
100
AcDbSymbolTableRecord
100
AcDbLayerTableRecord
  2
0
 70
     0
 62
     7
  6
CONTINUOUS
370
    -3
390
31B1
  0
LAYER
  5
31C5
330
31A4
100
AcDbSymbolTableRecord
100
AcDbLayerTableRecord
  2
DEFPOINTS
 70
     0
 62
     7
  6
CONTINUOUS
290
     0
370
    -3
390
31B1
  0
ENDTAB
  0
TABLE
  2
STYLE
  5
31A5
330
0
100
AcDbSymbolTable
 70
     1
  0
STYLE
  5
31B3
330
31A5
100
AcDbSymbolTableRecord
100
AcDbTextStyleTableRecord
  2
STANDARD
 70
     0
 40
0.0
 41
1.0
 50
0.0
 71
     0
 42
0.2
  3
txt
  4
BIGFONT
  0
ENDTAB
  0
TABLE
  2
VIEW
  5
31A8
330
0
100
AcDbSymbolTable
 70
     0
  0
ENDTAB
  0
TABLE
  2
UCS
  5
31A9
330
0
100
AcDbSymbolTable
 70
     0
  0
ENDTAB
  0
TABLE
  2
APPID
  5
31AB
330
0
100
AcDbSymbolTable
 70
     4
  0
APPID
  5
31B4
330
31AB
100
AcDbSymbolTableRecord
100
AcDbRegAppTableRecord
  2
ACAD
 70
     0
  0
APPID
  5
31C6
330
31AB
100
AcDbSymbolTableRecord
100
AcDbRegAppTableRecord
  2
MCAD_NO_VIS
 70
     0
  0
APPID
  5
31C7
330
31AB
100
AcDbSymbolTableRecord
100
AcDbRegAppTableRecord
  2
ACAD_TEMP_GRAPHIC
 70
     0
  0
APPID
  5
31C8
330
31AB
100
AcDbSymbolTableRecord
100
AcDbRegAppTableRecord
  2
ACATTRIBSERVICES
 70
     0
  0
ENDTAB
  0
TABLE
  2
DIMSTYLE
  5
31AC
330
0
100
AcDbSymbolTable
 70
     1
100
AcDbDimStyleTable
 71
     0
  0
DIMSTYLE
105
31C9
330
31AC
100
AcDbSymbolTableRecord
100
AcDbDimStyleTableRecord
  2
STANDARD
 70
     0
279
     2
340
31B3
  0
ENDTAB
  0
TABLE
  2
BLOCK_RECORD
  5
31A3
330
0
100
AcDbSymbolTable
 70
     2
  0
BLOCK_RECORD
  5
31C0
102
{ACAD_XDICTIONARY
360
31D2
102
}
330
31A3
100
AcDbSymbolTableRecord
100
AcDbBlockTableRecord
  2
*Model_Space
340
31C3
  0
BLOCK_RECORD
  5
31BC
102
{ACAD_XDICTIONARY
360
31D4
102
}
330
31A3
100
AcDbSymbolTableRecord
100
AcDbBlockTableRecord
  2
*Paper_Space
340
31BF
  0
BLOCK_RECORD
  5
31CC
330
31A3
100
AcDbSymbolTableRecord
100
AcDbBlockTableRecord
  2
$MODEL_SPACE
340
0
  0
BLOCK_RECORD
  5
31CE
330
31A3
100
AcDbSymbolTableRecord
100
AcDbBlockTableRecord
  2
$PAPER_SPACE
340
0
  0
ENDTAB
  0
ENDSEC
  0
SECTION
  2
BLOCKS
  0
BLOCK
  5
31C1
330
31C0
100
AcDbEntity
  8
0
100
AcDbBlockBegin
  2
*Model_Space
 70
     0
 10
0.0
 20
0.0
 30
0.0
  3
*Model_Space
  1

  0
ENDBLK
  5
31C2
330
31C0
100
AcDbEntity
  8
0
100
AcDbBlockEnd
  0
BLOCK
  5
31BD
330
31BC
100
AcDbEntity
 67
     1
  8
0
100
AcDbBlockBegin
  2
*Paper_Space
 70
     0
 10
0.0
 20
0.0
 30
0.0
  3
*Paper_Space
  1

  0
ENDBLK
  5
31BE
330
31BC
100
AcDbEntity
 67
     1
  8
0
100
AcDbBlockEnd
  0
BLOCK
  5
31CD
330
31CC
100
AcDbEntity
  8
0
100
AcDbBlockBegin
  2
$MODEL_SPACE
 70
     0
 10
0.0
 20
0.0
 30
0.0
  3
$MODEL_SPACE
  1

  0
ENDBLK
  5
318D
330
31CC
100
AcDbEntity
  8
0
100
AcDbBlockEnd
  0
BLOCK
  5
31CF
330
31CE
100
AcDbEntity
  8
0
100
AcDbBlockBegin
  2
$PAPER_SPACE
 70
     0
 10
0.0
 20
0.0
 30
0.0
  3
$PAPER_SPACE
  1

  0
ENDBLK
  5
3189
330
31CE
100
AcDbEntity
  8
0
100
AcDbBlockEnd
  0
ENDSEC
  0
SECTION
  2
ENTITIES
  0
LINE
  5
1484
330
31C0
100
AcDbEntity
  8
0
100
AcDbLine
 10
967.5892300954162
 20
442.8931700594024
 30
0.0
 11
967.5892336348622
 21
453.6948668367458
 31
0.0
  0
LINE
  5
1494
330
31C0
100
AcDbEntity
  8
0
100
AcDbLine
 10
1005.589230095415
 20
299.3931957342308
 30
0.0
 11
967.5892300954142
 21
299.3931957342308
 31
0.0
  0
LINE
  5
150A
330
31C0
100
AcDbEntity
  8
0
100
AcDbLine
 10
1005.589230095414
 20
442.8931603142976
 30
0.0
 11
1005.58923363486
 21
453.6948570916409
 31
0.0
  0
LINE
  5
153D
330
31C0
100
AcDbEntity
  8
0
100
AcDbLine
 10
1008.089269153211
 20
532.6948564505089
 30
0.0
 11
965.0892538944241
 21
532.6948674778689
 31
0.0
  0
LINE
  5
1540
330
31C0
100
AcDbEntity
  8
0
100
AcDbLine
 10
1008.089268640312
 20
530.694856450509
 30
0.0
 11
964.5892686403126
 21
530.6948676060908
 31
0.0
  0
LINE
  5
1542
330
31C0
100
AcDbEntity
  8
0
100
AcDbLine
 10
964.5892488936519
 20
453.6948676060928
 30
0.0
 11
964.5892686403126
 21
530.6948676060908
 31
0.0
  0
LINE
  5
1545
330
31C0
100
AcDbEntity
  8
0
100
AcDbLine
 10
1008.58923363486
 20
453.6948563222896
 30
0.0
 11
964.5892488936519
 21
453.6948676060928
 31
0.0
  0
LINE
  5
1546
330
31C0
100
AcDbEntity
  8
0
100
AcDbLine
 10
964.589266973383
 20
524.194852347302
 30
0.0
 11
953.5892669733838
 21
524.1948551682528
 31
0.0
  0
LINE
  5
1547
330
31C0
100
AcDbEntity
  8
0
100
AcDbLine
 10
964.5892631266324
 20
509.1948523473017
 30
0.0
 11
953.5892631266325
 21
509.1948551682537
 31
0.0
  0
LINE
  5
1551
330
31C0
100
AcDbEntity
  8
0
100
AcDbLine
 10
949.0892487654262
 20
512.6948868398608
 30
0.0
 11
953.589264024216
 21
512.6948856858316
 31
0.0
  0
LINE
  5
1552
330
31C0
100
AcDbEntity
  8
0
100
AcDbLine
 10
949.0892508170189
 20
520.694856322283
 30
0.0
 11
953.5892660758086
 21
520.6948551682528
 31
0.0
  0
LINE
  5
1553
330
31C0
100
AcDbEntity
  8
0
100
AcDbLine
 10
949.0892487654262
 20
512.6948868398608
 30
0.0
 11
949.0892508170189
 21
520.694856322283
 31
0.0
  0
LINE
  5
1558
330
31C0
100
AcDbEntity
  8
0
100
AcDbLine
 10
953.5892631266325
 20
509.1948551682537
 30
0.0
 11
953.5892669733838
 21
524.1948551682528
 31
0.0
  0
LINE
  5
1562
330
31C0
100
AcDbEntity
  8
0
100
AcDbLine
 10
965.0892533815239
 20
530.6948674778689
 30
0.0
 11
965.0892538944241
 21
532.6948674778689
 31
0.0
  0
LINE
  5
156C
330
31C0
100
AcDbEntity
  8
0
100
AcDbLine
 10
978.5892551766751
 20
537.6948640157925
 30
0.0
 11
978.589253894424
 21
532.6948640157925
 31
0.0
  0
LINE
  5
1571
330
31C0
100
AcDbEntity
  8
0
100
AcDbLine
 10
994.5892551766743
 20
537.6948599125896
 30
0.0
 11
978.5892551766751
 21
537.6948640157925
 31
0.0
  0
LINE
  5
1575
330
31C0
100
AcDbEntity
  8
0
100
AcDbLine
 10
1074.589236243396
 20
523.3665716139356
 30
0.0
 11
1074.589256971816
 21
604.1948393965799
 31
0.0
  0
LINE
  5
1576
330
31C0
100
AcDbEntity
  8
0
100
AcDbLine
 10
1057.58926851208
 20
530.1948284974375
 30
0.0
 11
1057.589287489396
 21
604.1948437562249
 31
0.0
  0
LINE
  5
1579
330
31C0
100
AcDbEntity
  8
0
100
AcDbLine
 10
1074.589236243396
 20
523.3665716139356
 30
0.0
 11
1008.589251331221
 21
522.6999220047506
 31
0.0
  0
LINE
  5
157A
330
31C0
100
AcDbEntity
  8
0
100
AcDbLine
 10
1065.089237994503
 20
530.1948265740698
 30
0.0
 11
1008.089268512083
 21
530.19484119172
 31
0.0
  0
LINE
  5
157B
330
31C0
100
AcDbEntity
  8
0
100
AcDbLine
 10
1008.58923363486
 20
453.6948563222896
 30
0.0
 11
1008.589251331221
 21
522.6999220047506
 31
0.0
  0
LINE
  5
1583
330
31C0
100
AcDbEntity
  8
0
100
AcDbLine
 10
994.5892551766743
 20
537.6948599125896
 30
0.0
 11
994.5892538944232
 21
532.6948599125898
 31
0.0
  0
LINE
  5
1589
330
31C0
100
AcDbEntity
  8
0
100
AcDbLine
 10
1008.089268512083
 20
530.19484119172
 30
0.0
 11
1008.089269153211
 21
532.6948564505089
 31
0.0
  0
LINE
  5
1592
330
31C0
100
AcDbEntity
  8
0
100
AcDbLine
 10
1074.58923825095
 20
531.1948241377929
 30
0.0
 11
1057.589268768529
 21
531.1948284974375
 31
0.0
  0
LINE
  5
15A0
330
31C0
100
AcDbEntity
  8
0
100
AcDbLine
 10
1074.589256971816
 20
604.1948393965799
 30
0.0
 11
1057.589287489396
 21
604.1948437562249
 31
0.0
  0
LINE
  5
15A3
330
31C0
100
AcDbEntity
  8
0
100
AcDbLine
 10
1047.089231898455
 20
281.8931952126908
 30
0.0
 11
1047.089231898455
 21
299.3931957342308
 31
0.0
  0
LINE
  5
15A4
330
31C0
100
AcDbEntity
  8
0
100
AcDbLine
 10
1026.589128226238
 20
210.1431649558828
 30
0.0
 11
1018.339214836625
 21
205.3800751541089
 31
0.0
  0
LINE
  5
15A5
330
31C0
100
AcDbEntity
  8
0
100
AcDbLine
 10
946.5892016875331
 20
210.1431649558828
 30
0.0
 11
954.8392224660201
 21
205.3800131531136
 31
0.0
  0
LINE
  5
15A6
330
31C0
100
AcDbEntity
  8
0
100
AcDbLine
 10
1033.58922246602
 20
281.8931802146716
 30
0.0
 11
1033.58922246602
 21
210.1431649558828
 31
0.0
  0
LINE
  5
15A7
330
31C0
100
AcDbEntity
  8
0
100
AcDbLine
 10
926.0892282923746
 20
281.8931952126908
 30
0.0
 11
926.0892282923746
 21
299.3931957342308
 31
0.0
  0
LINE
  5
15A8
330
31C0
100
AcDbEntity
  8
0
100
AcDbLine
 10
881.5892300954143
 20
286.6431649558828
 30
0.0
 11
884.4392110762742
 21
286.6431649558828
 31
0.0
  0
LINE
  5
15A9
330
31C0
100
AcDbEntity
  8
0
100
AcDbLine
 10
884.4392110762742
 20
286.6431649558828
 30
0.0
 11
886.9869972536248
 21
279.6431802146715
 31
0.0
  0
LINE
  5
15AA
330
31C0
100
AcDbEntity
  8
0
100
AcDbLine
 10
886.9869972536248
 20
279.6431802146715
 30
0.0
 11
939.5892148366256
 21
279.6431802146715
 31
0.0
  0
LINE
  5
15AB
330
31C0
100
AcDbEntity
  8
0
100
AcDbLine
 10
881.5892300954143
 20
209.1431802146715
 30
0.0
 11
884.439216363908
 21
209.1431802146715
 31
0.0
  0
LINE
  5
15AC
330
31C0
100
AcDbEntity
  8
0
100
AcDbLine
 10
884.439216363908
 20
209.1431802146715
 30
0.0
 11
886.9870025412582
 21
216.1431649558827
 31
0.0
  0
LINE
  5
15AD
330
31C0
100
AcDbEntity
  8
0
100
AcDbLine
 10
886.9870025412582
 20
216.1431649558827
 30
0.0
 11
939.5892148366256
 21
216.1431649558827
 31
0.0
  0
LINE
  5
15AE
330
31C0
100
AcDbEntity
  8
0
100
AcDbLine
 10
939.5892148366256
 20
281.8931952126908
 30
0.0
 11
939.5892148366256
 21
210.1431649558828
 31
0.0
  0
LINE
  5
15AF
330
31C0
100
AcDbEntity
  8
0
100
AcDbLine
 10
881.5892300954143
 20
209.1431802146715
 30
0.0
 11
881.5892300954143
 21
286.6431649558828
 31
0.0
  0
LINE
  5
15B0
330
31C0
100
AcDbEntity
  8
0
  6
Continuous
100
AcDbLine
 10
886.9870025412582
 20
216.1431649558827
 30
0.0
 11
886.9869972536248
 21
279.6431802146715
 31
0.0
  0
LINE
  5
15B1
330
31C0
100
AcDbEntity
  8
0
100
AcDbLine
 10
939.5892148366256
 20
210.1431649558828
 30
0.0
 11
1033.58922246602
 21
210.1431649558828
 31
0.0
  0
LINE
  5
15B2
330
31C0
100
AcDbEntity
  8
0
100
AcDbLine
 10
1025.33922246602
 20
145.7431574481709
 30
0.0
 11
1018.339214836625
 21
148.2909519561385
 31
0.0
  0
LINE
  5
15B3
330
31C0
100
AcDbEntity
  8
0
100
AcDbLine
 10
1025.33922246602
 20
142.8931954734605
 30
0.0
 11
1025.33922246602
 21
145.7431574481709
 31
0.0
  0
LINE
  5
15B4
330
31C0
100
AcDbEntity
  8
0
100
AcDbLine
 10
947.8392148366259
 20
145.7431845399337
 30
0.0
 11
954.8392224660206
 21
148.290979047902
 31
0.0
  0
LINE
  5
15B5
330
31C0
100
AcDbEntity
  8
0
100
AcDbLine
 10
947.8392148366259
 20
142.8931954734605
 30
0.0
 11
947.8392148366259
 21
145.7431845399337
 31
0.0
  0
LINE
  5
15B6
330
31C0
100
AcDbEntity
  8
0
  6
Continuous
100
AcDbLine
 10
954.8392224660206
 20
148.290979047902
 30
0.0
 11
1018.339214836625
 21
148.2909519561385
 31
0.0
  0
LINE
  5
15B7
330
31C0
100
AcDbEntity
  8
0
100
AcDbLine
 10
947.8392148366259
 20
142.8931954734605
 30
0.0
 11
1025.33922246602
 21
142.8931954734605
 31
0.0
  0
LINE
  5
15B8
330
31C0
100
AcDbEntity
  8
0
100
AcDbLine
 10
1018.339214836625
 20
148.2909519561385
 30
0.0
 11
1018.339214836625
 21
205.3800751541089
 31
0.0
  0
LINE
  5
15B9
330
31C0
100
AcDbEntity
  8
0
100
AcDbLine
 10
954.8392224660206
 20
148.290979047902
 30
0.0
 11
954.8392224660201
 21
205.3800131531136
 31
0.0
  0
LINE
  5
15BC
330
31C0
100
AcDbEntity
  8
0
100
AcDbLine
 10
1047.089231898455
 20
299.3931957342308
 30
0.0
 11
926.0892282923746
 21
299.3931957342308
 31
0.0
  0
LINE
  5
15BD
330
31C0
100
AcDbEntity
  8
0
100
AcDbLine
 10
1047.089231898455
 20
281.8931952126908
 30
0.0
 11
926.0892282923746
 21
281.8931952126908
 31
0.0
  0
LINE
  5
2043
330
31C0
100
AcDbEntity
  8
0
  6
Continuous
 62
     7
100
AcDbLine
 10
1066.089298759965
 20
744.5426880460566
 30
0.0
 11
1019.555103813676
 21
744.5426880460566
 31
0.0
  0
LINE
  5
2044
330
31C0
100
AcDbEntity
  8
0
  6
Continuous
 62
     7
100
AcDbLine
 10
1066.089298759965
 20
761.5427033048453
 30
0.0
 11
1019.555103813676
 21
761.5427033048453
 31
0.0
  0
CIRCLE
  5
2045
330
31C0
100
AcDbEntity
  8
0
  6
Continuous
 62
     7
100
AcDbCircle
 10
1066.089161430862
 20
753.0427643400011
 30
0.0
 40
8.499999761581419
  0
CIRCLE
  5
2046
330
31C0
100
AcDbEntity
  8
0
  6
Continuous
 62
     7
100
AcDbCircle
 10
986.5892300954142
 20
753.0427643400011
 30
0.0
 40
22.00000047683715
  0
CIRCLE
  5
2047
330
31C0
100
AcDbEntity
  8
0
  6
Continuous
 62
     7
100
AcDbCircle
 10
986.5892300954142
 20
767.0426880460559
 30
0.0
 40
4.500000134110448
  0
ARC
  5
2048
330
31C0
100
AcDbEntity
  8
0
  6
Continuous
 62
     7
100
AcDbCircle
 10
1019.555080925493
 20
786.5426880460558
 30
0.0
 40
25.0000019073486
100
AcDbArc
 50
225.4604149695246
 51
270.0
  0
ARC
  5
2049
330
31C0
100
AcDbEntity
  8
0
  6
Continuous
 62
     7
100
AcDbCircle
 10
1019.555080925493
 20
719.5427033048453
 30
0.0
 40
25.0000019073486
100
AcDbArc
 50
89.99997768819374
 51
134.5395593035806
  0
CIRCLE
  5
204A
330
31C0
100
AcDbEntity
  8
0
  6
Continuous
 62
     7
100
AcDbCircle
 10
986.5892300954142
 20
739.0427033048446
 30
0.0
 40
4.500000134110448
  0
CIRCLE
  5
204B
330
31C0
100
AcDbEntity
  8
0
  6
Continuous
 62
     7
100
AcDbCircle
 10
986.5892300954142
 20
753.0427643400011
 30
0.0
 40
5.500000119209286
  0
POINT
  5
204C
330
31C0
100
AcDbEntity
  8
0
  6
Continuous
 62
     7
100
AcDbPoint
 10
986.5892300954142
 20
767.0426880460563
 30
0.0
  0
POINT
  5
204D
330
31C0
100
AcDbEntity
  8
0
  6
Continuous
 62
     7
100
AcDbPoint
 10
986.5892300954142
 20
767.0426880460563
 30
0.0
  0
POINT
  5
204E
330
31C0
100
AcDbEntity
  8
0
  6
Continuous
 62
     7
100
AcDbPoint
 10
986.5892300954142
 20
767.0426880460563
 30
0.0
  0
POINT
  5
204F
330
31C0
100
AcDbEntity
  8
0
  6
Continuous
 62
     7
100
AcDbPoint
 10
986.5892300954142
 20
739.042703304845
 30
0.0
  0
POINT
  5
2050
330
31C0
100
AcDbEntity
  8
0
  6
Continuous
 62
     7
100
AcDbPoint
 10
986.5892300954142
 20
739.042703304845
 30
0.0
  0
LINE
  5
2051
330
31C0
100
AcDbEntity
  8
0
  6
Continuous
 62
     7
100
AcDbLine
 10
966.2976376498246
 20
744.5426880460566
 30
0.0
 11
953.589230095415
 21
744.5426880460559
 31
0.0
  0
LINE
  5
2052
330
31C0
100
AcDbEntity
  8
0
  6
Continuous
 62
     7
100
AcDbLine
 10
966.2975801236964
 20
761.5427033048453
 30
0.0
 11
953.589230095415
 21
761.5427033048453
 31
0.0
  0
LINE
  5
2053
330
31C0
100
AcDbEntity
  8
0
  6
Continuous
 62
     7
100
AcDbLine
 10
951.0891995778361
 20
757.0425659757443
 30
0.0
 11
951.0891995778361
 21
749.0425507169552
 31
0.0
  0
LINE
  5
2054
330
31C0
100
AcDbEntity
  8
0
  6
Continuous
 62
     7
100
AcDbLine
 10
953.589230095415
 20
761.5427033048453
 30
0.0
 11
953.589230095415
 21
744.5426880460559
 31
0.0
  0
LINE
  5
2055
330
31C0
100
AcDbEntity
  8
0
  6
Continuous
 62
     7
100
AcDbLine
 10
953.589230095415
 20
749.0426880460566
 30
0.0
 11
951.0891995778361
 21
749.0426880460566
 31
0.0
  0
LINE
  5
2056
330
31C0
100
AcDbEntity
  8
0
  6
Continuous
 62
     7
100
AcDbLine
 10
953.589230095415
 20
757.0427033048453
 30
0.0
 11
951.0891995778361
 21
757.0427033048453
 31
0.0
  0
ARC
  5
206B
330
31C0
100
AcDbEntity
  8
0
  6
Continuous
100
AcDbCircle
 10
986.5892300954142
 20
753.0427643400011
 30
0.0
 40
60.5000018030405
100
AcDbArc
 50
8.076482360849189
 51
351.9233862804067
  0
LINE
  5
2086
330
31C0
100
AcDbEntity
  8
0
  6
Continuous
100
AcDbLine
 10
886.9870025412582
 20
721.2927567106063
 30
0.0
 11
886.9869972536248
 21
784.7927719693954
 31
0.0
  0
LINE
  5
2087
330
31C0
100
AcDbEntity
  8
0
100
AcDbLine
 10
881.5892300954143
 20
714.2927719693954
 30
0.0
 11
881.5892300954143
 21
791.7927567106063
 31
0.0
  0
LINE
  5
2088
330
31C0
100
AcDbEntity
  8
0
100
AcDbLine
 10
884.439216363908
 20
714.2927719693954
 30
0.0
 11
886.9870025412582
 21
721.2927567106063
 31
0.0
  0
LINE
  5
2089
330
31C0
100
AcDbEntity
  8
0
100
AcDbLine
 10
881.5892300954143
 20
714.2927719693954
 30
0.0
 11
884.439216363908
 21
714.2927719693954
 31
0.0
  0
LINE
  5
208A
330
31C0
100
AcDbEntity
  8
0
100
AcDbLine
 10
884.4392110762742
 20
791.7927567106063
 30
0.0
 11
886.9869972536248
 21
784.7927719693954
 31
0.0
  0
LINE
  5
208B
330
31C0
100
AcDbEntity
  8
0
100
AcDbLine
 10
881.5892300954143
 20
791.7927567106063
 30
0.0
 11
884.4392110762742
 21
791.7927567106063
 31
0.0
  0
LINE
  5
208C
330
31C0
100
AcDbEntity
  8
0
100
AcDbLine
 10
886.9870025412582
 20
721.2927567106063
 30
0.0
 11
935.0898394805611
 21
721.2927567106063
 31
0.0
  0
LINE
  5
208D
330
31C0
100
AcDbEntity
  8
0
100
AcDbLine
 10
886.9869972536248
 20
784.7927719693954
 30
0.0
 11
935.0898394805611
 21
784.7927719693966
 31
0.0
  0
LINE
  5
2D85
330
31C0
100
AcDbEntity
  8
0
  6
Continuous
100
AcDbLine
 10
886.9870191013841
 20
356.1431802146717
 30
0.0
 11
886.9870494050788
 21
419.6431954734607
 31
0.0
  0
LINE
  5
2D86
330
31C0
100
AcDbEntity
  8
0
  6
Continuous
100
AcDbLine
 10
881.5892529835981
 20
426.6431802146708
 30
0.0
 11
881.5892529835981
 21
349.1431496970928
 31
0.0
  0
LINE
  5
2D87
330
31C0
100
AcDbEntity
  8
0
  6
Continuous
100
AcDbLine
 10
886.9870191013841
 20
356.1431802146717
 30
0.0
 11
954.3392300954153
 21
356.1431802146717
 31
0.0
  0
LINE
  5
2D88
330
31C0
100
AcDbEntity
  8
0
  6
Continuous
100
AcDbLine
 10
884.4392162627983
 20
349.1431496970928
 30
0.0
 11
886.9870191013841
 21
356.1431802146717
 31
0.0
  0
LINE
  5
2D89
330
31C0
100
AcDbEntity
  8
0
  6
Continuous
100
AcDbLine
 10
881.5892529835981
 20
349.1431496970928
 30
0.0
 11
884.4392162627983
 21
349.1431496970928
 31
0.0
  0
LINE
  5
2D8A
330
31C0
100
AcDbEntity
  8
0
  6
Continuous
100
AcDbLine
 10
886.9870494050788
 20
419.6431954734607
 30
0.0
 11
954.3392300954153
 21
419.6431954734607
 31
0.0
  0
LINE
  5
2D8B
330
31C0
100
AcDbEntity
  8
0
  6
Continuous
100
AcDbLine
 10
881.5892529835981
 20
426.6431802146708
 30
0.0
 11
884.4392632277285
 21
426.6431802146708
 31
0.0
  0
LINE
  5
2D8C
330
31C0
100
AcDbEntity
  8
0
  6
Continuous
100
AcDbLine
 10
884.4392632277285
 20
426.6431802146708
 30
0.0
 11
886.9870494050788
 21
419.6431954734607
 31
0.0
  0
LINE
  5
2D8D
330
31C0
100
AcDbEntity
  8
0
  6
Continuous
100
AcDbLine
 10
940.8392287319584
 20
427.3931647249146
 30
0.0
 11
1032.339231458869
 21
427.3931647249146
 31
0.0
  0
LINE
  5
2D8F
330
31C0
100
AcDbEntity
  8
0
  6
Continuous
100
AcDbLine
 10
940.8392287319584
 20
442.89316518685
 30
0.0
 11
1032.339231458869
 21
442.89316518685
 31
0.0
  0
LINE
  5
2D90
330
31C0
100
AcDbEntity
  8
0
  6
Continuous
100
AcDbLine
 10
940.8392287319584
 20
427.3931647249146
 30
0.0
 11
940.8392287319584
 21
442.89316518685
 31
0.0
  0
LINE
  5
2D91
330
31C0
100
AcDbEntity
  8
0
  6
Continuous
100
AcDbLine
 10
1032.339231458869
 20
427.3931647249146
 30
0.0
 11
1032.339231458869
 21
442.89316518685
 31
0.0
  0
LINE
  5
2D93
330
31C0
100
AcDbEntity
  8
0
  6
Continuous
100
AcDbLine
 10
954.3392300954153
 20
427.3931647249146
 30
0.0
 11
954.3392300954153
 21
299.3931957342308
 31
0.0
  0
LINE
  5
2D94
330
31C0
100
AcDbEntity
  8
0
  6
Continuous
100
AcDbLine
 10
1018.839230095415
 20
427.3931802146708
 30
0.0
 11
1018.839230095415
 21
299.3931957342308
 31
0.0
  0
TEXT
  5
315A
330
31C0
100
AcDbEntity
  8
0
  6
Continuous
100
AcDbText
 10
701.2862542224996
 20
974.4077555533113
 30
0.0
 40
48.000002
  1
WFM__ 2.5S
 41
1.32095
100
AcDbText
  0
LINE
  5
3217
330
31C0
100
AcDbEntity
  8
0
  6
CENTER
100
AcDbLine
 10
852.6152496156019
 20
753.0427643400011
 30
0.0
 11
1093.073278496229
 21
753.0427643400011
 31
0.0
  0
LINE
  5
3218
330
31C0
100
AcDbEntity
  8
0
  6
CENTER
100
AcDbLine
 10
986.5892300954142
 20
680.1337030017346
 30
0.0
 11
986.5892300954142
 21
825.9518256782676
 31
0.0
  0
LINE
  5
3219
330
31C0
100
AcDbEntity
  8
0
  6
CENTER
100
AcDbLine
 10
847.3678577720349
 20
247.8931725852771
 30
0.0
 11
986.5892300954147
 21
247.8931725852771
 31
0.0
  0
LINE
  5
321A
330
31C0
100
AcDbEntity
  8
0
  6
CENTER
100
AcDbLine
 10
986.5892300954147
 20
103.8208838481937
 30
0.0
 11
986.5892300954147
 21
568.9706163404662
 31
0.0
  0
LINE
  5
321B
330
31C0
100
AcDbEntity
  8
0
  6
CENTER
100
AcDbLine
 10
847.3678806602189
 20
387.8931649558818
 30
0.0
 11
986.5892529835987
 21
387.8931649558818
 31
0.0
  0
ENDSEC
  0
SECTION
  2
OBJECTS
  0
DICTIONARY
  5
31AE
330
0
100
AcDbDictionary
281
     1
  3
ACAD_GROUP
350
31AF
  3
ACAD_LAYOUT
350
31BB
  3
ACAD_MLINESTYLE
350
31B8
  3
ACAD_PLOTSETTINGS
350
31BA
  3
ACAD_PLOTSTYLENAME
350
31B0
  3
AcDbVariableDictionary
350
3206
  0
DICTIONARY
  5
320D
330
31A4
100
AcDbDictionary
280
     1
281
     1
  3
ACAD_LAYERSTATES
360
320E
  0
DICTIONARY
  5
31D2
330
31C0
100
AcDbDictionary
280
     1
281
     1
  3
ACAD_LAYOUTSELFREF
360
3201
  0
DICTIONARY
  5
31D4
330
31BC
100
AcDbDictionary
280
     1
281
     1
  3
ACAD_LAYOUTSELFREF
360
3200
  0
DICTIONARY
  5
31AF
102
{ACAD_REACTORS
330
31AE
102
}
330
31AE
100
AcDbDictionary
281
     1
  0
DICTIONARY
  5
31BB
102
{ACAD_REACTORS
330
31AE
102
}
330
31AE
100
AcDbDictionary
281
     1
  3
Model
350
31C3
  3
ﾚｲｱｳﾄ1
350
31BF
  0
DICTIONARY
  5
31B8
102
{ACAD_REACTORS
330
31AE
102
}
330
31AE
100
AcDbDictionary
281
     1
  3
Standard
350
31B9
  0
DICTIONARY
  5
31BA
102
{ACAD_REACTORS
330
31AE
102
}
330
31AE
100
AcDbDictionary
281
     1
  0
ACDBDICTIONARYWDFLT
  5
31B0
102
{ACAD_REACTORS
330
31AE
102
}
330
31AE
100
AcDbDictionary
281
     1
  3
Normal
350
31B1
100
AcDbDictionaryWithDefault
340
31B1
  0
DICTIONARY
  5
3206
102
{ACAD_REACTORS
330
31AE
102
}
330
31AE
100
AcDbDictionary
281
     1
  3
DIMASSOC
350
3207
  0
DICTIONARY
  5
320E
102
{ACAD_REACTORS
330
320D
102
}
330
320D
100
AcDbDictionary
281
     1
  0
XRECORD
  5
3201
102
{ACAD_REACTORS
330
31D2
102
}
330
31D2
100
AcDbXrecord
280
     1
340
31C0
  0
XRECORD
  5
3200
102
{ACAD_REACTORS
330
31D4
102
}
330
31D4
100
AcDbXrecord
280
     1
340
31BC
  0
LAYOUT
  5
31C3
102
{ACAD_REACTORS
330
31BB
102
}
330
31BB
100
AcDbPlotSettings
  1

  2
SII LP-2150 (D-SCAN C2)
  4

  6

 40
0.0
 41
0.0
 42
0.0
 43
0.0
 44
0.0
 45
0.0
 46
0.0
 47
0.0
 48
0.0
 49
0.0
140
0.0
141
0.0
142
1.0
143
1.0
 70
  1712
 72
     0
 73
     0
 74
     0
  7

 75
     0
147
1.0
148
0.0
149
0.0
100
AcDbLayout
  1
Model
 70
     1
 71
     0
 10
0.0
 20
0.0
 11
12.0
 21
9.0
 12
0.0
 22
0.0
 32
0.0
 14
0.0
 24
0.0
 34
0.0
 15
0.0
 25
0.0
 35
0.0
146
0.0
 13
0.0
 23
0.0
 33
0.0
 16
1.0
 26
0.0
 36
0.0
 17
0.0
 27
1.0
 37
0.0
 76
     0
330
31C0
  0
LAYOUT
  5
31BF
102
{ACAD_REACTORS
330
31BB
102
}
330
31BB
100
AcDbPlotSettings
  1

  2
SII LP-2150 (D-SCAN C2)
  4

  6

 40
0.0
 41
0.0
 42
0.0
 43
0.0
 44
0.0
 45
0.0
 46
0.0
 47
0.0
 48
0.0
 49
0.0
140
0.0
141
0.0
142
1.0
143
1.0
 70
   688
 72
     0
 73
     0
 74
     5
  7

 75
    16
147
1.0
148
0.0
149
0.0
100
AcDbLayout
  1
ﾚｲｱｳﾄ1
 70
     1
 71
     1
 10
-580.5701293945312
 20
0.0
 11
0.0
 21
407.8999938964844
 12
0.0
 22
0.0
 32
0.0
 14
-580.5701293945312
 24
0.0
 34
0.0
 15
0.0
 25
407.8999938964844
 35
0.0
146
0.0
 13
0.0
 23
0.0
 33
0.0
 16
1.0
 26
0.0
 36
0.0
 17
0.0
 27
1.0
 37
0.0
 76
     0
330
31BC
  0
MLINESTYLE
  5
31B9
102
{ACAD_REACTORS
330
31B8
102
}
330
31B8
100
AcDbMlineStyle
  2
STANDARD
 70
     0
  3

 62
   256
 51
90.0
 52
90.0
 71
     2
 49
0.5
 62
   256
  6
BYLAYER
 49
-0.5
 62
   256
  6
BYLAYER
  0
ACDBPLACEHOLDER
  5
31B1
102
{ACAD_REACTORS
330
31B0
102
}
330
31B0
  0
DICTIONARYVAR
  5
3207
102
{ACAD_REACTORS
330
3206
102
}
330
3206
100
DictionaryVariables
280
     0
  1
1
  0
ENDSEC
  0
EOF
