  0
SECTION
  2
HEADER
  9
$ACADVER
  1
AC1015
  9
$ACADMAINTVER
 70
    14
  9
$DWGCODEPAGE
  3
ANSI_932
  9
$INSBASE
 10
0.0
 20
0.0
 30
0.0
  9
$EXTMIN
 10
615.9433304419216
 20
144.2522165491322
 30
-0.0000000349181948
  9
$EXTMAX
 10
1097.949904980363
 20
1011.339497741168
 30
0.0000000814935746
  9
$LIMMIN
 10
-580.5701293945312
 20
0.0
  9
$LIMMAX
 10
0.0
 20
407.8999938964844
  9
$ORTHOMODE
 70
     0
  9
$REGENMODE
 70
     1
  9
$FILLMODE
 70
     1
  9
$QTEXTMODE
 70
     0
  9
$MIRRTEXT
 70
     1
  9
$LTSCALE
 40
1.0
  9
$ATTMODE
 70
     1
  9
$TEXTSIZE
 40
0.2
  9
$TRACEWID
 40
0.05
  9
$TEXTSTYLE
  7
STANDARD
  9
$CLAYER
  8
0
  9
$CELTYPE
  6
CONTINUOUS
  9
$CECOLOR
 62
   256
  9
$CELTSCALE
 40
1.0
  9
$DISPSILH
 70
     0
  9
$DIMSCALE
 40
1.0
  9
$DIMASZ
 40
1.0
  9
$DIMEXO
 40
2.54
  9
$DIMDLI
 40
0.38
  9
$DIMRND
 40
0.0
  9
$DIMDLE
 40
0.0
  9
$DIMEXE
 40
2.54
  9
$DIMTP
 40
0.0
  9
$DIMTM
 40
0.0
  9
$DIMTXT
 40
3.200000047683714
  9
$DIMCEN
 40
0.09
  9
$DIMTSZ
 40
0.0
  9
$DIMTOL
 70
     0
  9
$DIMLIM
 70
     0
  9
$DIMTIH
 70
     0
  9
$DIMTOH
 70
     0
  9
$DIMSE1
 70
     0
  9
$DIMSE2
 70
     0
  9
$DIMTAD
 70
     1
  9
$DIMZIN
 70
     0
  9
$DIMBLK
  1

  9
$DIMASO
 70
     1
  9
$DIMSHO
 70
     0
  9
$DIMPOST
  1

  9
$DIMAPOST
  1

  9
$DIMALT
 70
     0
  9
$DIMALTD
 70
     2
  9
$DIMALTF
 40
25.4
  9
$DIMLFAC
 40
1.0
  9
$DIMTOFL
 70
     0
  9
$DIMTVP
 40
1.0
  9
$DIMTIX
 70
     0
  9
$DIMSOXD
 70
     0
  9
$DIMSAH
 70
     1
  9
$DIMBLK1
  1

  9
$DIMBLK2
  1

  9
$DIMSTYLE
  2
STANDARD
  9
$DIMCLRD
 70
     0
  9
$DIMCLRE
 70
     0
  9
$DIMCLRT
 70
     0
  9
$DIMTFAC
 40
1.0
  9
$DIMGAP
 40
1.600000023841857
  9
$DIMJUST
 70
     0
  9
$DIMSD1
 70
     0
  9
$DIMSD2
 70
     0
  9
$DIMTOLJ
 70
     1
  9
$DIMTZIN
 70
     0
  9
$DIMALTZ
 70
     0
  9
$DIMALTTZ
 70
     0
  9
$DIMUPT
 70
     0
  9
$DIMDEC
 70
     4
  9
$DIMTDEC
 70
     4
  9
$DIMALTU
 70
     2
  9
$DIMALTTD
 70
     2
  9
$DIMTXSTY
  7
STANDARD
  9
$DIMAUNIT
 70
     0
  9
$DIMADEC
 70
     0
  9
$DIMALTRND
 40
0.0
  9
$DIMAZIN
 70
     0
  9
$DIMDSEP
 70
    46
  9
$DIMATFIT
 70
     3
  9
$DIMFRAC
 70
     0
  9
$DIMLDRBLK
  1

  9
$DIMLUNIT
 70
     2
  9
$DIMLWD
 70
    -2
  9
$DIMLWE
 70
    -2
  9
$DIMTMOVE
 70
     0
  9
$LUNITS
 70
     2
  9
$LUPREC
 70
     4
  9
$SKETCHINC
 40
0.1
  9
$FILLETRAD
 40
0.0
  9
$AUNITS
 70
     0
  9
$AUPREC
 70
     0
  9
$MENU
  1
.
  9
$ELEVATION
 40
0.0
  9
$PELEVATION
 40
0.0
  9
$THICKNESS
 40
0.0
  9
$LIMCHECK
 70
     0
  9
$CHAMFERA
 40
0.0
  9
$CHAMFERB
 40
0.0
  9
$CHAMFERC
 40
0.0
  9
$CHAMFERD
 40
0.0
  9
$SKPOLY
 70
     0
  9
$TDCREATE
 40
2452717.604314595
  9
$TDUCREATE
 40
2452717.229314595
  9
$TDUPDATE
 40
2456899.681391840
  9
$TDUUPDATE
 40
2456899.306391840
  9
$TDINDWG
 40
0.1617924306
  9
$TDUSRTIMER
 40
0.1617924306
  9
$USRTIMER
 70
     1
  9
$ANGBASE
 50
0.0
  9
$ANGDIR
 70
     0
  9
$PDMODE
 70
     0
  9
$PDSIZE
 40
0.0
  9
$PLINEWID
 40
0.0
  9
$SPLFRAME
 70
     0
  9
$SPLINETYPE
 70
     6
  9
$SPLINESEGS
 70
     8
  9
$HANDSEED
  5
3223
  9
$SURFTAB1
 70
     6
  9
$SURFTAB2
 70
     6
  9
$SURFTYPE
 70
     6
  9
$SURFU
 70
     6
  9
$SURFV
 70
     6
  9
$UCSBASE
  2

  9
$UCSNAME
  2

  9
$UCSORG
 10
0.0
 20
0.0
 30
0.0
  9
$UCSXDIR
 10
1.0
 20
0.0
 30
0.0
  9
$UCSYDIR
 10
0.0
 20
1.0
 30
0.0
  9
$UCSORTHOREF
  2

  9
$UCSORTHOVIEW
 70
     0
  9
$UCSORGTOP
 10
0.0
 20
0.0
 30
0.0
  9
$UCSORGBOTTOM
 10
0.0
 20
0.0
 30
0.0
  9
$UCSORGLEFT
 10
0.0
 20
0.0
 30
0.0
  9
$UCSORGRIGHT
 10
0.0
 20
0.0
 30
0.0
  9
$UCSORGFRONT
 10
0.0
 20
0.0
 30
0.0
  9
$UCSORGBACK
 10
0.0
 20
0.0
 30
0.0
  9
$PUCSBASE
  2

  9
$PUCSNAME
  2

  9
$PUCSORG
 10
0.0
 20
0.0
 30
0.0
  9
$PUCSXDIR
 10
1.0
 20
0.0
 30
0.0
  9
$PUCSYDIR
 10
0.0
 20
1.0
 30
0.0
  9
$PUCSORTHOREF
  2

  9
$PUCSORTHOVIEW
 70
     0
  9
$PUCSORGTOP
 10
0.0
 20
0.0
 30
0.0
  9
$PUCSORGBOTTOM
 10
0.0
 20
0.0
 30
0.0
  9
$PUCSORGLEFT
 10
0.0
 20
0.0
 30
0.0
  9
$PUCSORGRIGHT
 10
0.0
 20
0.0
 30
0.0
  9
$PUCSORGFRONT
 10
0.0
 20
0.0
 30
0.0
  9
$PUCSORGBACK
 10
0.0
 20
0.0
 30
0.0
  9
$USERI1
 70
     0
  9
$USERI2
 70
     0
  9
$USERI3
 70
     0
  9
$USERI4
 70
     0
  9
$USERI5
 70
     0
  9
$USERR1
 40
0.0
  9
$USERR2
 40
0.0
  9
$USERR3
 40
0.0
  9
$USERR4
 40
0.0
  9
$USERR5
 40
0.0
  9
$WORLDVIEW
 70
     1
  9
$SHADEDGE
 70
     3
  9
$SHADEDIF
 70
    70
  9
$TILEMODE
 70
     1
  9
$MAXACTVP
 70
    48
  9
$PINSBASE
 10
0.0
 20
0.0
 30
0.0
  9
$PLIMCHECK
 70
     0
  9
$PEXTMIN
 10
-580.5701293945312
 20
0.0
 30
0.0
  9
$PEXTMAX
 10
0.0
 20
407.8999938964844
 30
0.0
  9
$PLIMMIN
 10
-580.5701293945312
 20
0.0
  9
$PLIMMAX
 10
0.0
 20
407.8999938964844
  9
$UNITMODE
 70
     0
  9
$VISRETAIN
 70
     1
  9
$PLINEGEN
 70
     0
  9
$PSLTSCALE
 70
     1
  9
$TREEDEPTH
 70
  3020
  9
$CMLSTYLE
  2
Standard
  9
$CMLJUST
 70
     0
  9
$CMLSCALE
 40
1.0
  9
$PROXYGRAPHICS
 70
     1
  9
$MEASUREMENT
 70
     0
  9
$CELWEIGHT
370
    -1
  9
$ENDCAPS
280
     0
  9
$JOINSTYLE
280
     0
  9
$LWDISPLAY
290
     0
  9
$INSUNITS
 70
     0
  9
$HYPERLINKBASE
  1

  9
$STYLESHEET
  1

  9
$XEDIT
290
     1
  9
$CEPSNTYPE
380
     0
  9
$PSTYLEMODE
290
     1
  9
$FINGERPRINTGUID
  2
{B7665B05-60A5-4056-B6C1-B7BA7BF3814D}
  9
$VERSIONGUID
  2
{0C4379E1-D948-4B1E-8D3D-98C75351EF94}
  9
$EXTNAMES
290
     1
  9
$PSVPSCALE
 40
0.0
  9
$OLESTARTUP
290
     0
  0
ENDSEC
  0
SECTION
  2
CLASSES
  0
CLASS
  1
ACDBDICTIONARYWDFLT
  2
AcDbDictionaryWithDefault
  3
AutoCAD 2000
 90
        0
280
     0
281
     0
  0
CLASS
  1
ACDBPLACEHOLDER
  2
AcDbPlaceHolder
  3
AutoCAD 2000
 90
        0
280
     0
281
     0
  0
CLASS
  1
LAYOUT
  2
AcDbLayout
  3
AutoCAD 2000
 90
        0
280
     0
281
     0
  0
CLASS
  1
DICTIONARYVAR
  2
AcDbDictionaryVar
  3
AutoCAD 2000
 90
        0
280
     0
281
     0
  0
CLASS
  1
LONG_TRANSACTION
  2
AcDbLongTransaction
  3
AutoCAD 2000
 90
    32768
280
     0
281
     0
  0
CLASS
  1
LWPOLYLINE
  2
AcDbPolyline
  3
AutoCAD 2000
 90
    32768
280
     0
281
     1
  0
CLASS
  1
HATCH
  2
AcDbHatch
  3
AutoCAD 2000
 90
    32768
280
     0
281
     1
  0
CLASS
  1
XRECORD
  2
AcDbXrecord
  3
AutoCAD 2000
 90
    32768
280
     0
281
     0
  0
ENDSEC
  0
SECTION
  2
TABLES
  0
TABLE
  2
VPORT
  5
31AA
330
0
100
AcDbSymbolTable
 70
     2
  0
VPORT
  5
3222
330
31AA
100
AcDbSymbolTableRecord
100
AcDbViewportTableRecord
  2
*Active
 70
     0
 10
0.0
 20
0.0
 11
1.0
 21
1.0
 12
856.9466177111426
 22
577.7958571451504
 13
0.0
 23
0.0
 14
1.0
 24
1.0
 15
0.0
 25
0.0
 16
0.0
 26
0.0
 36
1.0
 17
0.0
 27
0.0
 37
0.0
 40
872.5925972630969
 41
1.592161016949152
 42
50.0
 43
0.0
 44
0.0
 50
0.0
 51
0.0
 71
     0
 72
   100
 73
     1
 74
     3
 75
     0
 76
     0
 77
     0
 78
     0
281
     0
 65
     1
110
0.0
120
0.0
130
0.0
111
1.0
121
0.0
131
0.0
112
0.0
122
1.0
132
0.0
 79
     0
146
0.0
  0
ENDTAB
  0
TABLE
  2
LTYPE
  5
31A7
330
0
100
AcDbSymbolTable
 70
     2
  0
LTYPE
  5
31B5
330
31A7
100
AcDbSymbolTableRecord
100
AcDbLinetypeTableRecord
  2
ByBlock
 70
     0
  3

 72
    65
 73
     0
 40
0.0
  0
LTYPE
  5
31B6
330
31A7
100
AcDbSymbolTableRecord
100
AcDbLinetypeTableRecord
  2
ByLayer
 70
     0
  3

 72
    65
 73
     0
 40
0.0
  0
LTYPE
  5
31B7
330
31A7
100
AcDbSymbolTableRecord
100
AcDbLinetypeTableRecord
  2
CONTINUOUS
 70
     0
  3
Solid line
 72
    65
 73
     0
 40
0.0
  0
LTYPE
  5
320C
330
31A7
100
AcDbSymbolTableRecord
100
AcDbLinetypeTableRecord
  2
CENTER
 70
     0
  3
__ . __
 72
    65
 73
     4
 40
7.0
 49
4.0
 74
     0
 49
-1.0
 74
     0
 49
1.0
 74
     0
 49
-1.0
 74
     0
  0
ENDTAB
  0
TABLE
  2
LAYER
  5
31A4
102
{ACAD_XDICTIONARY
360
320D
102
}
330
0
100
AcDbSymbolTable
 70
     2
  0
LAYER
  5
31B2
330
31A4
100
AcDbSymbolTableRecord
100
AcDbLayerTableRecord
  2
0
 70
     0
 62
     7
  6
CONTINUOUS
370
    -3
390
31B1
  0
LAYER
  5
31C5
330
31A4
100
AcDbSymbolTableRecord
100
AcDbLayerTableRecord
  2
DEFPOINTS
 70
     0
 62
     7
  6
CONTINUOUS
290
     0
370
    -3
390
31B1
  0
ENDTAB
  0
TABLE
  2
STYLE
  5
31A5
330
0
100
AcDbSymbolTable
 70
     1
  0
STYLE
  5
31B3
330
31A5
100
AcDbSymbolTableRecord
100
AcDbTextStyleTableRecord
  2
STANDARD
 70
     0
 40
0.0
 41
1.0
 50
0.0
 71
     0
 42
0.2
  3
txt
  4
BIGFONT
  0
ENDTAB
  0
TABLE
  2
VIEW
  5
31A8
330
0
100
AcDbSymbolTable
 70
     0
  0
ENDTAB
  0
TABLE
  2
UCS
  5
31A9
330
0
100
AcDbSymbolTable
 70
     0
  0
ENDTAB
  0
TABLE
  2
APPID
  5
31AB
330
0
100
AcDbSymbolTable
 70
     4
  0
APPID
  5
31B4
330
31AB
100
AcDbSymbolTableRecord
100
AcDbRegAppTableRecord
  2
ACAD
 70
     0
  0
APPID
  5
31C6
330
31AB
100
AcDbSymbolTableRecord
100
AcDbRegAppTableRecord
  2
MCAD_NO_VIS
 70
     0
  0
APPID
  5
31C7
330
31AB
100
AcDbSymbolTableRecord
100
AcDbRegAppTableRecord
  2
ACAD_TEMP_GRAPHIC
 70
     0
  0
APPID
  5
31C8
330
31AB
100
AcDbSymbolTableRecord
100
AcDbRegAppTableRecord
  2
ACATTRIBSERVICES
 70
     0
  0
ENDTAB
  0
TABLE
  2
DIMSTYLE
  5
31AC
330
0
100
AcDbSymbolTable
 70
     1
100
AcDbDimStyleTable
 71
     0
  0
DIMSTYLE
105
31C9
330
31AC
100
AcDbSymbolTableRecord
100
AcDbDimStyleTableRecord
  2
STANDARD
 70
     0
279
     2
340
31B3
  0
ENDTAB
  0
TABLE
  2
BLOCK_RECORD
  5
31A3
330
0
100
AcDbSymbolTable
 70
     2
  0
BLOCK_RECORD
  5
31C0
102
{ACAD_XDICTIONARY
360
31D2
102
}
330
31A3
100
AcDbSymbolTableRecord
100
AcDbBlockTableRecord
  2
*Model_Space
340
31C3
  0
BLOCK_RECORD
  5
31BC
102
{ACAD_XDICTIONARY
360
31D4
102
}
330
31A3
100
AcDbSymbolTableRecord
100
AcDbBlockTableRecord
  2
*Paper_Space
340
31BF
  0
BLOCK_RECORD
  5
31CC
330
31A3
100
AcDbSymbolTableRecord
100
AcDbBlockTableRecord
  2
$MODEL_SPACE
340
0
  0
BLOCK_RECORD
  5
31CE
330
31A3
100
AcDbSymbolTableRecord
100
AcDbBlockTableRecord
  2
$PAPER_SPACE
340
0
  0
ENDTAB
  0
ENDSEC
  0
SECTION
  2
BLOCKS
  0
BLOCK
  5
31C1
330
31C0
100
AcDbEntity
  8
0
100
AcDbBlockBegin
  2
*Model_Space
 70
     0
 10
0.0
 20
0.0
 30
0.0
  3
*Model_Space
  1

  0
ENDBLK
  5
31C2
330
31C0
100
AcDbEntity
  8
0
100
AcDbBlockEnd
  0
BLOCK
  5
31BD
330
31BC
100
AcDbEntity
 67
     1
  8
0
100
AcDbBlockBegin
  2
*Paper_Space
 70
     0
 10
0.0
 20
0.0
 30
0.0
  3
*Paper_Space
  1

  0
ENDBLK
  5
31BE
330
31BC
100
AcDbEntity
 67
     1
  8
0
100
AcDbBlockEnd
  0
BLOCK
  5
31CD
330
31CC
100
AcDbEntity
  8
0
100
AcDbBlockBegin
  2
$MODEL_SPACE
 70
     0
 10
0.0
 20
0.0
 30
0.0
  3
$MODEL_SPACE
  1

  0
ENDBLK
  5
318D
330
31CC
100
AcDbEntity
  8
0
100
AcDbBlockEnd
  0
BLOCK
  5
31CF
330
31CE
100
AcDbEntity
  8
0
100
AcDbBlockBegin
  2
$PAPER_SPACE
 70
     0
 10
0.0
 20
0.0
 30
0.0
  3
$PAPER_SPACE
  1

  0
ENDBLK
  5
3189
330
31CE
100
AcDbEntity
  8
0
100
AcDbBlockEnd
  0
ENDSEC
  0
SECTION
  2
ENTITIES
  0
LINE
  5
1AF7
330
31C0
100
AcDbEntity
  8
0
100
AcDbLine
 10
882.1507172168733
 20
446.6502241079656
 30
0.0
 11
882.1506921470172
 21
515.6553052422687
 31
0.0
  0
LINE
  5
1B05
330
31C0
100
AcDbEntity
  8
0
100
AcDbLine
 10
882.1507172168733
 20
446.6502241079656
 30
0.0
 11
838.1507324756659
 21
446.6502081225727
 31
0.0
  0
LINE
  5
1B1A
330
31C0
100
AcDbEntity
  8
0
100
AcDbLine
 10
841.1507219586283
 20
438.4002472504637
 30
0.0
 11
841.1507172168761
 21
446.6502092124819
 31
0.0
  0
LINE
  5
1B3D
330
31C0
100
AcDbEntity
  8
0
100
AcDbLine
 10
879.1507219586268
 20
438.4002610560356
 30
0.0
 11
879.1507172168744
 21
446.6502230180516
 31
0.0
  0
LINE
  5
1B55
330
31C0
100
AcDbEntity
  8
0
100
AcDbLine
 10
931.1506973345949
 20
516.1502726099532
 30
0.0
 11
882.1506921470172
 21
515.6553052422687
 31
0.0
  0
LINE
  5
1B56
330
31C0
100
AcDbEntity
  8
0
100
AcDbLine
 10
938.6506894240753
 20
523.1502446346659
 30
0.0
 11
881.6507046828682
 21
523.1502239263145
 31
0.0
  0
LINE
  5
1B5A
330
31C0
100
AcDbEntity
  8
0
100
AcDbLine
 10
881.650703774601
 20
525.6502391851028
 30
0.0
 11
838.6506885158153
 21
525.6502235630039
 31
0.0
  0
LINE
  5
1B5B
330
31C0
100
AcDbEntity
  8
0
100
AcDbLine
 10
838.650689242424
 20
523.6502235630039
 30
0.0
 11
838.6506885158153
 21
525.6502235630039
 31
0.0
  0
LINE
  5
1B61
330
31C0
100
AcDbEntity
  8
0
100
AcDbLine
 10
822.6507034112954
 20
505.6502330089251
 30
0.0
 11
827.1507186700846
 21
505.6502346438008
 31
0.0
  0
LINE
  5
1B62
330
31C0
100
AcDbEntity
  8
0
100
AcDbLine
 10
822.6507005048697
 20
513.6502024913458
 30
0.0
 11
827.1507157636593
 21
513.6502041262217
 31
0.0
  0
LINE
  5
1B65
330
31C0
100
AcDbEntity
  8
0
100
AcDbLine
 10
822.6507034112954
 20
505.6502330089251
 30
0.0
 11
822.6507005048697
 21
513.6502024913458
 31
0.0
  0
LINE
  5
1B6B
330
31C0
100
AcDbEntity
  8
0
100
AcDbLine
 10
827.150719941661
 20
502.1502041262228
 30
0.0
 11
827.1507144920931
 21
517.1502041262207
 31
0.0
  0
LINE
  5
1B6C
330
31C0
100
AcDbEntity
  8
0
100
AcDbLine
 10
838.150712312267
 20
502.1502081225697
 30
0.0
 11
827.150719941661
 21
502.1502041262228
 31
0.0
  0
LINE
  5
1B6E
330
31C0
100
AcDbEntity
  8
0
100
AcDbLine
 10
838.150706862698
 20
517.1502081225688
 30
0.0
 11
827.1507144920931
 21
517.1502041262207
 31
0.0
  0
LINE
  5
1B71
330
31C0
100
AcDbEntity
  8
0
100
AcDbLine
 10
838.1507324756659
 20
446.6502081225727
 30
0.0
 11
838.1507045012149
 21
523.6502233813569
 31
0.0
  0
LINE
  5
1B78
330
31C0
100
AcDbEntity
  8
0
100
AcDbLine
 10
881.6507046828682
 20
523.1502239263145
 30
0.0
 11
881.650703774601
 21
525.6502391851028
 31
0.0
  0
LINE
  5
1BB5
330
31C0
100
AcDbEntity
  8
0
100
AcDbLine
 10
881.6507045012102
 20
523.6502391851026
 30
0.0
 11
838.1507045012149
 21
523.6502233813569
 31
0.0
  0
LINE
  5
1BB9
330
31C0
100
AcDbEntity
  8
0
100
AcDbLine
 10
868.1507019580847
 20
530.6502190217029
 30
0.0
 11
852.150717216875
 21
530.6502132088369
 31
0.0
  0
LINE
  5
1BC4
330
31C0
100
AcDbEntity
  8
0
100
AcDbLine
 10
852.150717216875
 20
530.6502132088369
 30
0.0
 11
852.1507188517457
 21
526.1502132088369
 31
0.0
  0
LINE
  5
1BCA
330
31C0
100
AcDbEntity
  8
0
100
AcDbLine
 10
868.1507019580847
 20
530.6502190217029
 30
0.0
 11
868.1507035929554
 21
526.1502190217028
 31
0.0
  0
LINE
  5
1BD0
330
31C0
100
AcDbEntity
  8
0
100
AcDbLine
 10
931.1507046828651
 20
523.1502419098879
 30
0.0
 11
931.1506777983247
 21
597.150257168672
 31
0.0
  0
LINE
  5
1BD1
330
31C0
100
AcDbEntity
  8
0
100
AcDbLine
 10
948.1506919672009
 20
516.1502633448479
 30
0.0
 11
948.1506625395359
 21
597.1502633448428
 31
0.0
  0
LINE
  5
1BD4
330
31C0
100
AcDbEntity
  8
0
100
AcDbLine
 10
948.1506890607711
 20
524.1502480860588
 30
0.0
 11
931.1507043195604
 21
524.1502419098877
 31
0.0
  0
LINE
  5
1BD5
330
31C0
100
AcDbEntity
  8
0
100
AcDbLine
 10
948.1506919672009
 20
516.1502633448479
 30
0.0
 11
931.1507072259912
 21
516.1502571686772
 31
0.0
  0
LINE
  5
1BDC
330
31C0
100
AcDbEntity
  8
0
100
AcDbLine
 10
948.1506625395359
 20
597.1502633448428
 30
0.0
 11
931.1506777983247
 21
597.150257168672
 31
0.0
  0
LINE
  5
1BE1
330
31C0
100
AcDbEntity
  8
0
  6
Continuous
100
AcDbLine
 10
834.7507767261514
 20
192.5024491983428
 30
0.0
 11
885.5507568897266
 21
192.5024776723078
 31
0.0
  0
LINE
  5
1BE2
330
31C0
100
AcDbEntity
  8
0
  6
Continuous
100
AcDbLine
 10
783.4029449307463
 20
243.8502661069628
 30
0.0
 11
783.4029870256753
 21
294.6502233823537
 31
0.0
  0
LINE
  5
1BE3
330
31C0
100
AcDbEntity
  8
0
100
AcDbLine
 10
891.1507340448075
 20
239.1502233823538
 30
0.0
 11
885.5507568897266
 21
235.917075006382
 31
0.0
  0
LINE
  5
1BE4
330
31C0
100
AcDbEntity
  8
0
100
AcDbLine
 10
829.1506913340812
 20
239.1502233823538
 30
0.0
 11
834.7507767261529
 21
235.9170125157256
 31
0.0
  0
LINE
  5
1BE7
330
31C0
100
AcDbEntity
  8
0
100
AcDbLine
 10
822.000776726152
 20
297.6502536466118
 30
0.0
 11
822.000776726152
 21
239.1502233823538
 31
0.0
  0
LINE
  5
1BE8
330
31C0
100
AcDbEntity
  8
0
100
AcDbLine
 10
783.4029870256753
 20
294.6502233823537
 30
0.0
 11
822.000776726152
 21
294.6502233823537
 31
0.0
  0
LINE
  5
1BE9
330
31C0
100
AcDbEntity
  8
0
100
AcDbLine
 10
783.4029449307463
 20
243.8502661069628
 30
0.0
 11
822.000776726152
 21
243.8502661069628
 31
0.0
  0
LINE
  5
1BEA
330
31C0
100
AcDbEntity
  8
0
100
AcDbLine
 10
912.650734040285
 20
297.6502536466139
 30
0.0
 11
912.650734040285
 21
314.6502541532508
 31
0.0
  0
LINE
  5
1BEB
330
31C0
100
AcDbEntity
  8
0
100
AcDbLine
 10
807.6507309110425
 20
314.6502541532508
 30
0.0
 11
912.650734040285
 21
314.6502541532508
 31
0.0
  0
LINE
  5
1BEC
330
31C0
100
AcDbEntity
  8
0
100
AcDbLine
 10
807.6507309110425
 20
297.6502536466118
 30
0.0
 11
912.650734040285
 21
297.6502536466139
 31
0.0
  0
LINE
  5
1BED
330
31C0
100
AcDbEntity
  8
0
100
AcDbLine
 10
807.6507309110425
 20
297.6502536466118
 30
0.0
 11
807.6507309110425
 21
314.6502541532508
 31
0.0
  0
LINE
  5
1BEE
330
31C0
100
AcDbEntity
  8
0
100
AcDbLine
 10
781.0007700645094
 20
301.2502600034465
 30
0.0
 11
783.4029870256753
 21
294.6502233823537
 31
0.0
  0
LINE
  5
1BEF
330
31C0
100
AcDbEntity
  8
0
100
AcDbLine
 10
778.1507477344525
 20
301.2502600034465
 30
0.0
 11
781.0007700645094
 21
301.2502600034465
 31
0.0
  0
LINE
  5
1BF0
330
31C0
100
AcDbEntity
  8
0
100
AcDbLine
 10
778.1507477344525
 20
237.2502294858688
 30
0.0
 11
781.0007279695834
 21
237.2502294858688
 31
0.0
  0
LINE
  5
1BF1
330
31C0
100
AcDbEntity
  8
0
100
AcDbLine
 10
781.0007279695834
 20
237.2502294858688
 30
0.0
 11
783.4029449307463
 21
243.8502661069628
 31
0.0
  0
LINE
  5
1BF2
330
31C0
100
AcDbEntity
  8
0
100
AcDbLine
 10
892.15079351082
 20
187.2502600034465
 30
0.0
 11
892.15079351082
 21
190.1002607111431
 31
0.0
  0
LINE
  5
1BF3
330
31C0
100
AcDbEntity
  8
0
100
AcDbLine
 10
892.15079351082
 20
190.1002607111431
 30
0.0
 11
885.5507568897266
 21
192.5024776723078
 31
0.0
  0
LINE
  5
1BF4
330
31C0
100
AcDbEntity
  8
0
100
AcDbLine
 10
885.5507568897266
 20
192.5024776723078
 30
0.0
 11
885.5507568897266
 21
235.917075006382
 31
0.0
  0
LINE
  5
1BF5
330
31C0
100
AcDbEntity
  8
0
100
AcDbLine
 10
828.1507401050587
 20
190.1002322371791
 30
0.0
 11
834.7507767261514
 21
192.5024491983428
 31
0.0
  0
LINE
  5
1BF6
330
31C0
100
AcDbEntity
  8
0
100
AcDbLine
 10
828.1507401050587
 20
187.2502600034465
 30
0.0
 11
828.1507401050587
 21
190.1002322371791
 31
0.0
  0
LINE
  5
1BF7
330
31C0
100
AcDbEntity
  8
0
100
AcDbLine
 10
834.7507767261514
 20
192.5024491983428
 30
0.0
 11
834.7507767261529
 21
235.9170125157256
 31
0.0
  0
LINE
  5
1BF8
330
31C0
100
AcDbEntity
  8
0
100
AcDbLine
 10
898.3007568897267
 20
239.1502233823538
 30
0.0
 11
822.000776726152
 21
239.1502233823538
 31
0.0
  0
LINE
  5
1BF9
330
31C0
100
AcDbEntity
  8
0
100
AcDbLine
 10
898.3007568897267
 20
297.6502233823537
 30
0.0
 11
898.3007568897267
 21
239.1502233823538
 31
0.0
  0
LINE
  5
1BFA
330
31C0
100
AcDbEntity
  8
0
100
AcDbLine
 10
828.1507401050587
 20
187.2502600034465
 30
0.0
 11
892.15079351082
 21
187.2502600034465
 31
0.0
  0
LINE
  5
1BFB
330
31C0
100
AcDbEntity
  8
0
100
AcDbLine
 10
828.3469376148232
 20
239.1502233823538
 30
0.0
 11
825.0007767261521
 21
239.1502233823538
 31
0.0
  0
LINE
  5
1BFC
330
31C0
100
AcDbEntity
  8
0
100
AcDbLine
 10
778.1507477344525
 20
237.2502294858688
 30
0.0
 11
778.1507477344525
 21
301.2502600034465
 31
0.0
  0
LINE
  5
202F
330
31C0
100
AcDbEntity
  8
0
  6
Continuous
 62
     7
100
AcDbLine
 10
939.6508011402143
 20
748.1459122133651
 30
0.0
 11
893.1166061939251
 21
748.1459122133651
 31
0.0
  0
LINE
  5
2030
330
31C0
100
AcDbEntity
  8
0
  6
Continuous
 62
     7
100
AcDbLine
 10
939.6508011402143
 20
765.1459274721545
 30
0.0
 11
893.1166061939251
 21
765.1459274721545
 31
0.0
  0
CIRCLE
  5
2031
330
31C0
100
AcDbEntity
  8
0
  6
Continuous
 62
     7
100
AcDbCircle
 10
939.6506638111134
 20
756.6459885073109
 30
0.0
 40
8.499999761581419
  0
CIRCLE
  5
2032
330
31C0
100
AcDbEntity
  8
0
  6
Continuous
 62
     7
100
AcDbCircle
 10
860.1507324756633
 20
756.6459885073109
 30
0.0
 40
22.00000047683715
  0
CIRCLE
  5
2033
330
31C0
100
AcDbEntity
  8
0
  6
Continuous
 62
     7
100
AcDbCircle
 10
860.1507324756633
 20
770.6459122133654
 30
0.0
 40
4.500000134110448
  0
ARC
  5
2034
330
31C0
100
AcDbEntity
  8
0
  6
Continuous
 62
     7
100
AcDbCircle
 10
893.1165833057407
 20
790.1459122133651
 30
0.0
 40
25.0000019073486
100
AcDbArc
 50
225.4604149695246
 51
270.0
  0
ARC
  5
2035
330
31C0
100
AcDbEntity
  8
0
  6
Continuous
 62
     7
100
AcDbCircle
 10
893.1165833057407
 20
723.1459274721545
 30
0.0
 40
25.0000019073486
100
AcDbArc
 50
89.99997768819374
 51
134.5395593035806
  0
CIRCLE
  5
2036
330
31C0
100
AcDbEntity
  8
0
  6
Continuous
 62
     7
100
AcDbCircle
 10
860.1507324756633
 20
742.6459274721545
 30
0.0
 40
4.500000134110448
  0
CIRCLE
  5
2037
330
31C0
100
AcDbEntity
  8
0
  6
Continuous
 62
     7
100
AcDbCircle
 10
860.1507324756633
 20
756.6459885073109
 30
0.0
 40
5.500000119209286
  0
POINT
  5
2038
330
31C0
100
AcDbEntity
  8
0
  6
Continuous
 62
     7
100
AcDbPoint
 10
860.1507324756633
 20
770.6459122133654
 30
0.0
  0
POINT
  5
2039
330
31C0
100
AcDbEntity
  8
0
  6
Continuous
 62
     7
100
AcDbPoint
 10
860.1507324756633
 20
770.6459122133654
 30
0.0
  0
POINT
  5
203A
330
31C0
100
AcDbEntity
  8
0
  6
Continuous
 62
     7
100
AcDbPoint
 10
860.1507324756633
 20
770.6459122133654
 30
0.0
  0
POINT
  5
203B
330
31C0
100
AcDbEntity
  8
0
  6
Continuous
 62
     7
100
AcDbPoint
 10
860.1507324756633
 20
742.6459274721545
 30
0.0
  0
POINT
  5
203C
330
31C0
100
AcDbEntity
  8
0
  6
Continuous
 62
     7
100
AcDbPoint
 10
860.1507324756633
 20
742.6459274721545
 30
0.0
  0
LINE
  5
203D
330
31C0
100
AcDbEntity
  8
0
  6
Continuous
 62
     7
100
AcDbLine
 10
839.8591400300729
 20
748.1459122133651
 30
0.0
 11
827.1507324756633
 21
748.1459122133651
 31
0.0
  0
LINE
  5
203E
330
31C0
100
AcDbEntity
  8
0
  6
Continuous
 62
     7
100
AcDbLine
 10
839.859082503945
 20
765.1459274721553
 30
0.0
 11
827.1507324756642
 21
765.1459274721545
 31
0.0
  0
LINE
  5
203F
330
31C0
100
AcDbEntity
  8
0
  6
Continuous
 62
     7
100
AcDbLine
 10
824.650701958085
 20
760.6457901430538
 30
0.0
 11
824.650701958085
 21
752.6457748842647
 31
0.0
  0
LINE
  5
2040
330
31C0
100
AcDbEntity
  8
0
  6
Continuous
 62
     7
100
AcDbLine
 10
827.1507324756642
 20
765.1459274721545
 30
0.0
 11
827.1507324756633
 21
748.1459122133651
 31
0.0
  0
LINE
  5
2041
330
31C0
100
AcDbEntity
  8
0
  6
Continuous
 62
     7
100
AcDbLine
 10
827.1507324756633
 20
752.6459122133651
 30
0.0
 11
824.650701958085
 21
752.6459122133651
 31
0.0
  0
LINE
  5
2042
330
31C0
100
AcDbEntity
  8
0
  6
Continuous
 62
     7
100
AcDbLine
 10
827.1507324756633
 20
760.6459274721545
 30
0.0
 11
824.650701958085
 21
760.6459274721545
 31
0.0
  0
ARC
  5
206C
330
31C0
100
AcDbEntity
  8
0
  6
Continuous
100
AcDbCircle
 10
860.1507324756633
 20
756.6459885073109
 30
0.0
 40
52.50000156462192
100
AcDbArc
 50
9.317404953865946
 51
350.6824431684551
  0
LINE
  5
207E
330
31C0
100
AcDbEntity
  8
0
100
AcDbLine
 10
778.1507477344525
 20
724.6459732485209
 30
0.0
 11
778.1507477344525
 21
788.6460037660997
 31
0.0
  0
LINE
  5
207F
330
31C0
100
AcDbEntity
  8
0
100
AcDbLine
 10
781.0007279695834
 20
724.6459732485209
 30
0.0
 11
783.4029449307463
 21
731.2460098696154
 31
0.0
  0
LINE
  5
2080
330
31C0
100
AcDbEntity
  8
0
100
AcDbLine
 10
778.1507477344525
 20
724.6459732485209
 30
0.0
 11
781.0007279695834
 21
724.6459732485209
 31
0.0
  0
LINE
  5
2081
330
31C0
100
AcDbEntity
  8
0
100
AcDbLine
 10
778.1507477344525
 20
788.6460037660997
 30
0.0
 11
781.0007700645094
 21
788.6460037660997
 31
0.0
  0
LINE
  5
2082
330
31C0
100
AcDbEntity
  8
0
100
AcDbLine
 10
781.0007700645094
 20
788.6460037660997
 30
0.0
 11
783.4029870256753
 21
782.0459671450055
 31
0.0
  0
LINE
  5
2083
330
31C0
100
AcDbEntity
  8
0
  6
Continuous
100
AcDbLine
 10
783.4029449307463
 20
731.2460098696154
 30
0.0
 11
783.4029870256753
 21
782.0459671450055
 31
0.0
  0
LINE
  5
2084
330
31C0
100
AcDbEntity
  8
0
100
AcDbLine
 10
783.4029449307463
 20
731.2460098696154
 30
0.0
 11
814.2041194395551
 21
731.2460098696146
 31
0.0
  0
LINE
  5
2085
330
31C0
100
AcDbEntity
  8
0
100
AcDbLine
 10
783.4029870256753
 20
782.0459671450055
 30
0.0
 11
814.2041194395551
 21
782.0459671450055
 31
0.0
  0
LINE
  5
2767
330
31C0
100
AcDbEntity
  8
0
  6
Continuous
 62
     7
100
AcDbLine
 10
781.0008153343515
 20
421.250260256767
 30
0.0
 11
783.403021188025
 21
414.6502541532509
 31
0.0
  0
LINE
  5
2768
330
31C0
100
AcDbEntity
  8
0
  6
Continuous
 62
     7
100
AcDbLine
 10
778.1507477344529
 20
357.250260256767
 30
0.0
 11
778.1507477344529
 21
421.250260256767
 31
0.0
  0
LINE
  5
276D
330
31C0
100
AcDbEntity
  8
0
  6
Continuous
 62
     7
100
AcDbLine
 10
781.0007528347564
 20
357.250260256767
 30
0.0
 11
783.4029586884303
 21
363.8502663602828
 31
0.0
  0
LINE
  5
2770
330
31C0
100
AcDbEntity
  8
0
  6
Continuous
 62
     7
100
AcDbLine
 10
778.1507477344529
 20
357.250260256767
 30
0.0
 11
781.0007528347564
 21
357.250260256767
 31
0.0
  0
LINE
  5
277E
330
31C0
100
AcDbEntity
  8
0
  6
Continuous
 62
     7
100
AcDbLine
 10
778.1507477344529
 20
421.250260256767
 30
0.0
 11
781.0008153343515
 21
421.250260256767
 31
0.0
  0
LINE
  5
2781
330
31C0
100
AcDbEntity
  8
0
  6
Continuous
 62
     7
100
AcDbLine
 10
783.403021188025
 20
414.6502541532509
 30
0.0
 11
834.150747734453
 21
414.6502541532509
 31
0.0
  0
LINE
  5
2783
330
31C0
100
AcDbEntity
  8
0
  6
Continuous
 62
     7
100
AcDbLine
 10
783.4029586884303
 20
363.8502663602828
 30
0.0
 11
834.150747734453
 21
363.8502663602828
 31
0.0
  0
LINE
  5
2784
330
31C0
100
AcDbEntity
  8
0
  6
Continuous
 62
     7
100
AcDbLine
 10
886.1507172168742
 20
314.6502541532508
 30
0.0
 11
886.1507172168742
 21
423.9002541532506
 31
0.0
  0
LINE
  5
2787
330
31C0
100
AcDbEntity
  8
0
  6
Continuous
 62
     7
100
AcDbLine
 10
834.150747734453
 20
314.6502541532508
 30
0.0
 11
834.150747734453
 21
423.9002541532506
 31
0.0
  0
LINE
  5
27F5
330
31C0
100
AcDbEntity
  8
0
  6
Continuous
 62
     7
100
AcDbLine
 10
898.1507324756645
 20
423.9002541532506
 30
0.0
 11
822.1507324756643
 21
423.9002541532506
 31
0.0
  0
LINE
  5
27F7
330
31C0
100
AcDbEntity
  8
0
  6
Continuous
 62
     7
100
AcDbLine
 10
898.1507324756645
 20
423.9002541532506
 30
0.0
 11
898.1507324756645
 21
438.4002541532509
 31
0.0
  0
LINE
  5
2843
330
31C0
100
AcDbEntity
  8
0
  6
Continuous
 62
     7
100
AcDbLine
 10
822.1507324756643
 20
423.9002541532506
 30
0.0
 11
822.1507324756643
 21
438.40025415325
 31
0.0
  0
LINE
  5
2846
330
31C0
100
AcDbEntity
  8
0
  6
Continuous
 62
     7
100
AcDbLine
 10
898.1507324756645
 20
438.4002541532509
 30
0.0
 11
822.1507324756643
 21
438.40025415325
 31
0.0
  0
LINE
  5
2847
330
31C0
100
AcDbEntity
  8
0
  6
Continuous
100
AcDbLine
 10
783.403021188025
 20
414.6502541532509
 30
0.0
 11
783.4029586884303
 21
363.8502663602828
 31
0.0
  0
TEXT
  5
3159
330
31C0
100
AcDbEntity
  8
0
  6
Continuous
100
AcDbText
 10
615.9648730432746
 20
963.2777665933799
 30
0.0
 40
48.000002
  1
WFM__ 2S
 41
1.32095
100
AcDbText
  0
LINE
  5
3217
330
31C0
100
AcDbEntity
  8
0
  6
CENTER
100
AcDbLine
 10
743.0918842748906
 20
756.6459885073109
 30
0.0
 11
966.6347808764781
 21
756.6459885073109
 31
0.0
  0
LINE
  5
3218
330
31C0
100
AcDbEntity
  8
0
  6
CENTER
100
AcDbLine
 10
860.1507324756633
 20
691.7456181630508
 30
0.0
 11
860.1507324756633
 21
821.546358851571
 31
0.0
  0
LINE
  5
3219
330
31C0
100
AcDbEntity
  8
0
  6
CENTER
100
AcDbLine
 10
747.082506025466
 20
389.2502602567669
 30
0.0
 11
860.1503738941213
 21
389.2502602567669
 31
0.0
  0
LINE
  5
321A
330
31C0
100
AcDbEntity
  8
0
  6
CENTER
100
AcDbLine
 10
860.1507324756637
 20
144.3139980485635
 30
0.0
 11
860.1507324756637
 21
563.3180447042055
 31
0.0
  0
LINE
  5
321C
330
31C0
100
AcDbEntity
  8
0
  6
CENTER
100
AcDbLine
 10
747.082506025466
 20
269.2502447446576
 30
0.0
 11
860.1503738941213
 21
269.2502447446576
 31
0.0
  0
ENDSEC
  0
SECTION
  2
OBJECTS
  0
DICTIONARY
  5
31AE
330
0
100
AcDbDictionary
281
     1
  3
ACAD_GROUP
350
31AF
  3
ACAD_LAYOUT
350
31BB
  3
ACAD_MLINESTYLE
350
31B8
  3
ACAD_PLOTSETTINGS
350
31BA
  3
ACAD_PLOTSTYLENAME
350
31B0
  3
AcDbVariableDictionary
350
3206
  0
DICTIONARY
  5
320D
330
31A4
100
AcDbDictionary
280
     1
281
     1
  3
ACAD_LAYERSTATES
360
320E
  0
DICTIONARY
  5
31D2
330
31C0
100
AcDbDictionary
280
     1
281
     1
  3
ACAD_LAYOUTSELFREF
360
3201
  0
DICTIONARY
  5
31D4
330
31BC
100
AcDbDictionary
280
     1
281
     1
  3
ACAD_LAYOUTSELFREF
360
3200
  0
DICTIONARY
  5
31AF
102
{ACAD_REACTORS
330
31AE
102
}
330
31AE
100
AcDbDictionary
281
     1
  0
DICTIONARY
  5
31BB
102
{ACAD_REACTORS
330
31AE
102
}
330
31AE
100
AcDbDictionary
281
     1
  3
Model
350
31C3
  3
ﾚｲｱｳﾄ1
350
31BF
  0
DICTIONARY
  5
31B8
102
{ACAD_REACTORS
330
31AE
102
}
330
31AE
100
AcDbDictionary
281
     1
  3
Standard
350
31B9
  0
DICTIONARY
  5
31BA
102
{ACAD_REACTORS
330
31AE
102
}
330
31AE
100
AcDbDictionary
281
     1
  0
ACDBDICTIONARYWDFLT
  5
31B0
102
{ACAD_REACTORS
330
31AE
102
}
330
31AE
100
AcDbDictionary
281
     1
  3
Normal
350
31B1
100
AcDbDictionaryWithDefault
340
31B1
  0
DICTIONARY
  5
3206
102
{ACAD_REACTORS
330
31AE
102
}
330
31AE
100
AcDbDictionary
281
     1
  3
DIMASSOC
350
3207
  0
DICTIONARY
  5
320E
102
{ACAD_REACTORS
330
320D
102
}
330
320D
100
AcDbDictionary
281
     1
  0
XRECORD
  5
3201
102
{ACAD_REACTORS
330
31D2
102
}
330
31D2
100
AcDbXrecord
280
     1
340
31C0
  0
XRECORD
  5
3200
102
{ACAD_REACTORS
330
31D4
102
}
330
31D4
100
AcDbXrecord
280
     1
340
31BC
  0
LAYOUT
  5
31C3
102
{ACAD_REACTORS
330
31BB
102
}
330
31BB
100
AcDbPlotSettings
  1

  2
SII LP-2150 (D-SCAN C2)
  4

  6

 40
0.0
 41
0.0
 42
0.0
 43
0.0
 44
0.0
 45
0.0
 46
0.0
 47
0.0
 48
0.0
 49
0.0
140
0.0
141
0.0
142
1.0
143
1.0
 70
  1712
 72
     0
 73
     0
 74
     0
  7

 75
     0
147
1.0
148
0.0
149
0.0
100
AcDbLayout
  1
Model
 70
     1
 71
     0
 10
0.0
 20
0.0
 11
12.0
 21
9.0
 12
0.0
 22
0.0
 32
0.0
 14
0.0
 24
0.0
 34
0.0
 15
0.0
 25
0.0
 35
0.0
146
0.0
 13
0.0
 23
0.0
 33
0.0
 16
1.0
 26
0.0
 36
0.0
 17
0.0
 27
1.0
 37
0.0
 76
     0
330
31C0
  0
LAYOUT
  5
31BF
102
{ACAD_REACTORS
330
31BB
102
}
330
31BB
100
AcDbPlotSettings
  1

  2
SII LP-2150 (D-SCAN C2)
  4

  6

 40
0.0
 41
0.0
 42
0.0
 43
0.0
 44
0.0
 45
0.0
 46
0.0
 47
0.0
 48
0.0
 49
0.0
140
0.0
141
0.0
142
1.0
143
1.0
 70
   688
 72
     0
 73
     0
 74
     5
  7

 75
    16
147
1.0
148
0.0
149
0.0
100
AcDbLayout
  1
ﾚｲｱｳﾄ1
 70
     1
 71
     1
 10
-580.5701293945312
 20
0.0
 11
0.0
 21
407.8999938964844
 12
0.0
 22
0.0
 32
0.0
 14
-580.5701293945312
 24
0.0
 34
0.0
 15
0.0
 25
407.8999938964844
 35
0.0
146
0.0
 13
0.0
 23
0.0
 33
0.0
 16
1.0
 26
0.0
 36
0.0
 17
0.0
 27
1.0
 37
0.0
 76
     0
330
31BC
  0
MLINESTYLE
  5
31B9
102
{ACAD_REACTORS
330
31B8
102
}
330
31B8
100
AcDbMlineStyle
  2
STANDARD
 70
     0
  3

 62
   256
 51
90.0
 52
90.0
 71
     2
 49
0.5
 62
   256
  6
BYLAYER
 49
-0.5
 62
   256
  6
BYLAYER
  0
ACDBPLACEHOLDER
  5
31B1
102
{ACAD_REACTORS
330
31B0
102
}
330
31B0
  0
DICTIONARYVAR
  5
3207
102
{ACAD_REACTORS
330
3206
102
}
330
3206
100
DictionaryVariables
280
     0
  1
1
  0
ENDSEC
  0
EOF
