  0
SECTION
  2
HEADER
  9
$ACADVER
  1
AC1015
  9
$ACADMAINTVER
 70
    14
  9
$DWGCODEPAGE
  3
ANSI_932
  9
$INSBASE
 10
0.0
 20
0.0
 30
0.0
  9
$EXTMIN
 10
419.9104933293528
 20
51.86292374930054
 30
-0.0000000349181948
  9
$EXTMAX
 10
1356.318738146387
 20
1044.879231848319
 30
0.0000000814935746
  9
$LIMMIN
 10
-580.5701293945312
 20
0.0
  9
$LIMMAX
 10
0.0
 20
407.8999938964844
  9
$ORTHOMODE
 70
     0
  9
$REGENMODE
 70
     1
  9
$FILLMODE
 70
     1
  9
$QTEXTMODE
 70
     0
  9
$MIRRTEXT
 70
     1
  9
$LTSCALE
 40
1.0
  9
$ATTMODE
 70
     1
  9
$TEXTSIZE
 40
0.2
  9
$TRACEWID
 40
0.05
  9
$TEXTSTYLE
  7
STANDARD
  9
$CLAYER
  8
0
  9
$CELTYPE
  6
CONTINUOUS
  9
$CECOLOR
 62
   256
  9
$CELTSCALE
 40
1.0
  9
$DISPSILH
 70
     0
  9
$DIMSCALE
 40
1.0
  9
$DIMASZ
 40
1.0
  9
$DIMEXO
 40
2.54
  9
$DIMDLI
 40
0.38
  9
$DIMRND
 40
0.0
  9
$DIMDLE
 40
0.0
  9
$DIMEXE
 40
2.54
  9
$DIMTP
 40
0.0
  9
$DIMTM
 40
0.0
  9
$DIMTXT
 40
3.200000047683714
  9
$DIMCEN
 40
0.09
  9
$DIMTSZ
 40
0.0
  9
$DIMTOL
 70
     0
  9
$DIMLIM
 70
     0
  9
$DIMTIH
 70
     0
  9
$DIMTOH
 70
     0
  9
$DIMSE1
 70
     0
  9
$DIMSE2
 70
     0
  9
$DIMTAD
 70
     1
  9
$DIMZIN
 70
     0
  9
$DIMBLK
  1

  9
$DIMASO
 70
     1
  9
$DIMSHO
 70
     0
  9
$DIMPOST
  1

  9
$DIMAPOST
  1

  9
$DIMALT
 70
     0
  9
$DIMALTD
 70
     2
  9
$DIMALTF
 40
25.4
  9
$DIMLFAC
 40
1.0
  9
$DIMTOFL
 70
     0
  9
$DIMTVP
 40
1.0
  9
$DIMTIX
 70
     0
  9
$DIMSOXD
 70
     0
  9
$DIMSAH
 70
     1
  9
$DIMBLK1
  1

  9
$DIMBLK2
  1

  9
$DIMSTYLE
  2
STANDARD
  9
$DIMCLRD
 70
     0
  9
$DIMCLRE
 70
     0
  9
$DIMCLRT
 70
     0
  9
$DIMTFAC
 40
1.0
  9
$DIMGAP
 40
1.600000023841857
  9
$DIMJUST
 70
     0
  9
$DIMSD1
 70
     0
  9
$DIMSD2
 70
     0
  9
$DIMTOLJ
 70
     1
  9
$DIMTZIN
 70
     0
  9
$DIMALTZ
 70
     0
  9
$DIMALTTZ
 70
     0
  9
$DIMUPT
 70
     0
  9
$DIMDEC
 70
     4
  9
$DIMTDEC
 70
     4
  9
$DIMALTU
 70
     2
  9
$DIMALTTD
 70
     2
  9
$DIMTXSTY
  7
STANDARD
  9
$DIMAUNIT
 70
     0
  9
$DIMADEC
 70
     0
  9
$DIMALTRND
 40
0.0
  9
$DIMAZIN
 70
     0
  9
$DIMDSEP
 70
    46
  9
$DIMATFIT
 70
     3
  9
$DIMFRAC
 70
     0
  9
$DIMLDRBLK
  1

  9
$DIMLUNIT
 70
     2
  9
$DIMLWD
 70
    -2
  9
$DIMLWE
 70
    -2
  9
$DIMTMOVE
 70
     0
  9
$LUNITS
 70
     2
  9
$LUPREC
 70
     4
  9
$SKETCHINC
 40
0.1
  9
$FILLETRAD
 40
0.0
  9
$AUNITS
 70
     0
  9
$AUPREC
 70
     0
  9
$MENU
  1
.
  9
$ELEVATION
 40
0.0
  9
$PELEVATION
 40
0.0
  9
$THICKNESS
 40
0.0
  9
$LIMCHECK
 70
     0
  9
$CHAMFERA
 40
0.0
  9
$CHAMFERB
 40
0.0
  9
$CHAMFERC
 40
0.0
  9
$CHAMFERD
 40
0.0
  9
$SKPOLY
 70
     0
  9
$TDCREATE
 40
2452717.604314595
  9
$TDUCREATE
 40
2452717.229314595
  9
$TDUPDATE
 40
2456899.681248958
  9
$TDUUPDATE
 40
2456899.306248958
  9
$TDINDWG
 40
0.1615569560
  9
$TDUSRTIMER
 40
0.1615567824
  9
$USRTIMER
 70
     1
  9
$ANGBASE
 50
0.0
  9
$ANGDIR
 70
     0
  9
$PDMODE
 70
     0
  9
$PDSIZE
 40
0.0
  9
$PLINEWID
 40
0.0
  9
$SPLFRAME
 70
     0
  9
$SPLINETYPE
 70
     6
  9
$SPLINESEGS
 70
     8
  9
$HANDSEED
  5
325B
  9
$SURFTAB1
 70
     6
  9
$SURFTAB2
 70
     6
  9
$SURFTYPE
 70
     6
  9
$SURFU
 70
     6
  9
$SURFV
 70
     6
  9
$UCSBASE
  2

  9
$UCSNAME
  2

  9
$UCSORG
 10
0.0
 20
0.0
 30
0.0
  9
$UCSXDIR
 10
1.0
 20
0.0
 30
0.0
  9
$UCSYDIR
 10
0.0
 20
1.0
 30
0.0
  9
$UCSORTHOREF
  2

  9
$UCSORTHOVIEW
 70
     0
  9
$UCSORGTOP
 10
0.0
 20
0.0
 30
0.0
  9
$UCSORGBOTTOM
 10
0.0
 20
0.0
 30
0.0
  9
$UCSORGLEFT
 10
0.0
 20
0.0
 30
0.0
  9
$UCSORGRIGHT
 10
0.0
 20
0.0
 30
0.0
  9
$UCSORGFRONT
 10
0.0
 20
0.0
 30
0.0
  9
$UCSORGBACK
 10
0.0
 20
0.0
 30
0.0
  9
$PUCSBASE
  2

  9
$PUCSNAME
  2

  9
$PUCSORG
 10
0.0
 20
0.0
 30
0.0
  9
$PUCSXDIR
 10
1.0
 20
0.0
 30
0.0
  9
$PUCSYDIR
 10
0.0
 20
1.0
 30
0.0
  9
$PUCSORTHOREF
  2

  9
$PUCSORTHOVIEW
 70
     0
  9
$PUCSORGTOP
 10
0.0
 20
0.0
 30
0.0
  9
$PUCSORGBOTTOM
 10
0.0
 20
0.0
 30
0.0
  9
$PUCSORGLEFT
 10
0.0
 20
0.0
 30
0.0
  9
$PUCSORGRIGHT
 10
0.0
 20
0.0
 30
0.0
  9
$PUCSORGFRONT
 10
0.0
 20
0.0
 30
0.0
  9
$PUCSORGBACK
 10
0.0
 20
0.0
 30
0.0
  9
$USERI1
 70
     0
  9
$USERI2
 70
     0
  9
$USERI3
 70
     0
  9
$USERI4
 70
     0
  9
$USERI5
 70
     0
  9
$USERR1
 40
0.0
  9
$USERR2
 40
0.0
  9
$USERR3
 40
0.0
  9
$USERR4
 40
0.0
  9
$USERR5
 40
0.0
  9
$WORLDVIEW
 70
     1
  9
$SHADEDGE
 70
     3
  9
$SHADEDIF
 70
    70
  9
$TILEMODE
 70
     1
  9
$MAXACTVP
 70
    48
  9
$PINSBASE
 10
0.0
 20
0.0
 30
0.0
  9
$PLIMCHECK
 70
     0
  9
$PEXTMIN
 10
-580.5701293945312
 20
0.0
 30
0.0
  9
$PEXTMAX
 10
0.0
 20
407.8999938964844
 30
0.0
  9
$PLIMMIN
 10
-580.5701293945312
 20
0.0
  9
$PLIMMAX
 10
0.0
 20
407.8999938964844
  9
$UNITMODE
 70
     0
  9
$VISRETAIN
 70
     1
  9
$PLINEGEN
 70
     0
  9
$PSLTSCALE
 70
     1
  9
$TREEDEPTH
 70
  3020
  9
$CMLSTYLE
  2
Standard
  9
$CMLJUST
 70
     0
  9
$CMLSCALE
 40
1.0
  9
$PROXYGRAPHICS
 70
     1
  9
$MEASUREMENT
 70
     0
  9
$CELWEIGHT
370
    -1
  9
$ENDCAPS
280
     0
  9
$JOINSTYLE
280
     0
  9
$LWDISPLAY
290
     0
  9
$INSUNITS
 70
     0
  9
$HYPERLINKBASE
  1

  9
$STYLESHEET
  1

  9
$XEDIT
290
     1
  9
$CEPSNTYPE
380
     0
  9
$PSTYLEMODE
290
     1
  9
$FINGERPRINTGUID
  2
{A4D4C0A9-C570-4840-8C85-753E154948AA}
  9
$VERSIONGUID
  2
{5BB9668F-657C-48DE-BEA4-9048CE67C7E0}
  9
$EXTNAMES
290
     1
  9
$PSVPSCALE
 40
0.0
  9
$OLESTARTUP
290
     0
  0
ENDSEC
  0
SECTION
  2
CLASSES
  0
CLASS
  1
ACDBDICTIONARYWDFLT
  2
AcDbDictionaryWithDefault
  3
AutoCAD 2000
 90
        0
280
     0
281
     0
  0
CLASS
  1
ACDBPLACEHOLDER
  2
AcDbPlaceHolder
  3
AutoCAD 2000
 90
        0
280
     0
281
     0
  0
CLASS
  1
LAYOUT
  2
AcDbLayout
  3
AutoCAD 2000
 90
        0
280
     0
281
     0
  0
CLASS
  1
DICTIONARYVAR
  2
AcDbDictionaryVar
  3
AutoCAD 2000
 90
        0
280
     0
281
     0
  0
CLASS
  1
LONG_TRANSACTION
  2
AcDbLongTransaction
  3
AutoCAD 2000
 90
    32768
280
     0
281
     0
  0
CLASS
  1
LWPOLYLINE
  2
AcDbPolyline
  3
AutoCAD 2000
 90
    32768
280
     0
281
     1
  0
CLASS
  1
HATCH
  2
AcDbHatch
  3
AutoCAD 2000
 90
    32768
280
     0
281
     1
  0
CLASS
  1
XRECORD
  2
AcDbXrecord
  3
AutoCAD 2000
 90
    32768
280
     0
281
     0
  0
ENDSEC
  0
SECTION
  2
TABLES
  0
TABLE
  2
VPORT
  5
31E5
330
0
100
AcDbSymbolTable
 70
     2
  0
VPORT
  5
325A
330
31E5
100
AcDbSymbolTableRecord
100
AcDbViewportTableRecord
  2
*Active
 70
     0
 10
0.0
 20
0.0
 11
1.0
 21
1.0
 12
888.1146157378701
 22
548.3710777988099
 13
0.0
 23
0.0
 14
1.0
 24
1.0
 15
0.0
 25
0.0
 16
0.0
 26
0.0
 36
1.0
 17
0.0
 27
0.0
 37
0.0
 40
999.3211735472664
 41
1.592161016949152
 42
50.0
 43
0.0
 44
0.0
 50
0.0
 51
0.0
 71
     0
 72
   100
 73
     1
 74
     3
 75
     0
 76
     0
 77
     0
 78
     0
281
     0
 65
     1
110
0.0
120
0.0
130
0.0
111
1.0
121
0.0
131
0.0
112
0.0
122
1.0
132
0.0
 79
     0
146
0.0
  0
ENDTAB
  0
TABLE
  2
LTYPE
  5
31E2
330
0
100
AcDbSymbolTable
 70
     2
  0
LTYPE
  5
31F0
330
31E2
100
AcDbSymbolTableRecord
100
AcDbLinetypeTableRecord
  2
ByBlock
 70
     0
  3

 72
    65
 73
     0
 40
0.0
  0
LTYPE
  5
31F1
330
31E2
100
AcDbSymbolTableRecord
100
AcDbLinetypeTableRecord
  2
ByLayer
 70
     0
  3

 72
    65
 73
     0
 40
0.0
  0
LTYPE
  5
31F2
330
31E2
100
AcDbSymbolTableRecord
100
AcDbLinetypeTableRecord
  2
CONTINUOUS
 70
     0
  3
Solid line
 72
    65
 73
     0
 40
0.0
  0
LTYPE
  5
3247
330
31E2
100
AcDbSymbolTableRecord
100
AcDbLinetypeTableRecord
  2
CENTER
 70
     0
  3
__ . __
 72
    65
 73
     4
 40
7.0
 49
4.0
 74
     0
 49
-1.0
 74
     0
 49
1.0
 74
     0
 49
-1.0
 74
     0
  0
ENDTAB
  0
TABLE
  2
LAYER
  5
31DF
102
{ACAD_XDICTIONARY
360
3248
102
}
330
0
100
AcDbSymbolTable
 70
     2
  0
LAYER
  5
31ED
330
31DF
100
AcDbSymbolTableRecord
100
AcDbLayerTableRecord
  2
0
 70
     0
 62
     7
  6
CONTINUOUS
370
    -3
390
31EC
  0
LAYER
  5
3200
330
31DF
100
AcDbSymbolTableRecord
100
AcDbLayerTableRecord
  2
DEFPOINTS
 70
     0
 62
     7
  6
CONTINUOUS
290
     0
370
    -3
390
31EC
  0
ENDTAB
  0
TABLE
  2
STYLE
  5
31E0
330
0
100
AcDbSymbolTable
 70
     1
  0
STYLE
  5
31EE
330
31E0
100
AcDbSymbolTableRecord
100
AcDbTextStyleTableRecord
  2
STANDARD
 70
     0
 40
0.0
 41
1.0
 50
0.0
 71
     0
 42
0.2
  3
txt
  4
BIGFONT
  0
ENDTAB
  0
TABLE
  2
VIEW
  5
31E3
330
0
100
AcDbSymbolTable
 70
     0
  0
ENDTAB
  0
TABLE
  2
UCS
  5
31E4
330
0
100
AcDbSymbolTable
 70
     0
  0
ENDTAB
  0
TABLE
  2
APPID
  5
31E6
330
0
100
AcDbSymbolTable
 70
     4
  0
APPID
  5
31EF
330
31E6
100
AcDbSymbolTableRecord
100
AcDbRegAppTableRecord
  2
ACAD
 70
     0
  0
APPID
  5
3201
330
31E6
100
AcDbSymbolTableRecord
100
AcDbRegAppTableRecord
  2
MCAD_NO_VIS
 70
     0
  0
APPID
  5
3202
330
31E6
100
AcDbSymbolTableRecord
100
AcDbRegAppTableRecord
  2
ACAD_TEMP_GRAPHIC
 70
     0
  0
APPID
  5
3203
330
31E6
100
AcDbSymbolTableRecord
100
AcDbRegAppTableRecord
  2
ACATTRIBSERVICES
 70
     0
  0
ENDTAB
  0
TABLE
  2
DIMSTYLE
  5
31E7
330
0
100
AcDbSymbolTable
 70
     1
100
AcDbDimStyleTable
 71
     0
  0
DIMSTYLE
105
3204
330
31E7
100
AcDbSymbolTableRecord
100
AcDbDimStyleTableRecord
  2
STANDARD
 70
     0
279
     2
340
31EE
  0
ENDTAB
  0
TABLE
  2
BLOCK_RECORD
  5
31DE
330
0
100
AcDbSymbolTable
 70
     2
  0
BLOCK_RECORD
  5
31FB
102
{ACAD_XDICTIONARY
360
320D
102
}
330
31DE
100
AcDbSymbolTableRecord
100
AcDbBlockTableRecord
  2
*Model_Space
340
31FE
  0
BLOCK_RECORD
  5
31F7
102
{ACAD_XDICTIONARY
360
320F
102
}
330
31DE
100
AcDbSymbolTableRecord
100
AcDbBlockTableRecord
  2
*Paper_Space
340
31FA
  0
BLOCK_RECORD
  5
3207
330
31DE
100
AcDbSymbolTableRecord
100
AcDbBlockTableRecord
  2
$MODEL_SPACE
340
0
  0
BLOCK_RECORD
  5
3209
330
31DE
100
AcDbSymbolTableRecord
100
AcDbBlockTableRecord
  2
$PAPER_SPACE
340
0
  0
ENDTAB
  0
ENDSEC
  0
SECTION
  2
BLOCKS
  0
BLOCK
  5
31FC
330
31FB
100
AcDbEntity
  8
0
100
AcDbBlockBegin
  2
*Model_Space
 70
     0
 10
0.0
 20
0.0
 30
0.0
  3
*Model_Space
  1

  0
ENDBLK
  5
31FD
330
31FB
100
AcDbEntity
  8
0
100
AcDbBlockEnd
  0
BLOCK
  5
31F8
330
31F7
100
AcDbEntity
 67
     1
  8
0
100
AcDbBlockBegin
  2
*Paper_Space
 70
     0
 10
0.0
 20
0.0
 30
0.0
  3
*Paper_Space
  1

  0
ENDBLK
  5
31F9
330
31F7
100
AcDbEntity
 67
     1
  8
0
100
AcDbBlockEnd
  0
BLOCK
  5
3208
330
3207
100
AcDbEntity
  8
0
100
AcDbBlockBegin
  2
$MODEL_SPACE
 70
     0
 10
0.0
 20
0.0
 30
0.0
  3
$MODEL_SPACE
  1

  0
ENDBLK
  5
31C8
330
3207
100
AcDbEntity
  8
0
100
AcDbBlockEnd
  0
BLOCK
  5
320A
330
3209
100
AcDbEntity
  8
0
100
AcDbBlockBegin
  2
$PAPER_SPACE
 70
     0
 10
0.0
 20
0.0
 30
0.0
  3
$PAPER_SPACE
  1

  0
ENDBLK
  5
31C4
330
3209
100
AcDbEntity
  8
0
100
AcDbBlockEnd
  0
ENDSEC
  0
SECTION
  2
ENTITIES
  0
LINE
  5
808
330
31FB
100
AcDbEntity
  8
0
100
AcDbLine
 10
935.9055958789447
 20
374.7233576604759
 30
0.0
 11
935.9055958789447
 21
538.5406031438742
 31
0.0
  0
LINE
  5
809
330
31FB
100
AcDbEntity
  8
0
100
AcDbLine
 10
846.8055897754286
 20
374.7233576604759
 30
0.0
 11
846.8055897754286
 21
538.5406031438742
 31
0.0
  0
LINE
  5
812
330
31FB
100
AcDbEntity
  8
0
100
AcDbLine
 10
846.8055897754286
 20
374.7233576604759
 30
0.0
 11
935.9055958789447
 21
374.7233576604759
 31
0.0
  0
LINE
  5
81D
330
31FB
100
AcDbEntity
  8
0
100
AcDbLine
 10
866.1055775683976
 20
84.37329052180277
 30
0.0
 11
916.605592827187
 21
84.37329052180277
 31
0.0
  0
LINE
  5
820
330
31FB
100
AcDbEntity
  8
0
100
AcDbLine
 10
910.4055806201548
 20
89.47991793163714
 30
0.0
 11
910.4055806201548
 21
127.0881070643079
 31
0.0
  0
LINE
  5
824
330
31FB
100
AcDbEntity
  8
0
100
AcDbLine
 10
916.605592827187
 20
87.22329795538419
 30
0.0
 11
910.4055806201548
 21
89.47991793163714
 31
0.0
  0
LINE
  5
825
330
31FB
100
AcDbEntity
  8
0
100
AcDbLine
 10
916.605592827187
 20
84.37329052180277
 30
0.0
 11
916.605592827187
 21
87.22329795538419
 31
0.0
  0
LINE
  5
82F
330
31FB
100
AcDbEntity
  8
0
100
AcDbLine
 10
923.3555928271869
 20
177.4733271428971
 30
0.0
 11
923.3555928271869
 21
130.5233149358659
 31
0.0
  0
LINE
  5
831
330
31FB
100
AcDbEntity
  8
0
100
AcDbLine
 10
923.3555928271869
 20
130.5233149358659
 30
0.0
 11
859.3555775683975
 21
130.5233149358659
 31
0.0
  0
LINE
  5
833
330
31FB
100
AcDbEntity
  8
0
100
AcDbLine
 10
916.355535081464
 20
130.5233149358659
 30
0.0
 11
910.4055806201548
 21
127.0881070643079
 31
0.0
  0
LINE
  5
866
330
31FB
100
AcDbEntity
  8
0
100
AcDbLine
 10
845.6055928271869
 20
192.9733271428971
 30
0.0
 11
937.105592827187
 21
192.9733271428971
 31
0.0
  0
LINE
  5
867
330
31FB
100
AcDbEntity
  8
0
100
AcDbLine
 10
845.6055928271869
 20
177.4733271428971
 30
0.0
 11
937.105592827187
 21
177.4733271428971
 31
0.0
  0
LINE
  5
86E
330
31FB
100
AcDbEntity
  8
0
100
AcDbLine
 10
937.105592827187
 20
177.4733271428971
 30
0.0
 11
937.105592827187
 21
192.9733271428971
 31
0.0
  0
LINE
  5
8BA
330
31FB
100
AcDbEntity
  8
0
100
AcDbLine
 10
929.3555928271869
 20
353.9733576604759
 30
0.0
 11
929.3555928271869
 21
368.4733576604759
 31
0.0
  0
LINE
  5
8C6
330
31FB
100
AcDbEntity
  8
0
100
AcDbLine
 10
918.355592827187
 20
297.473357660476
 30
0.0
 11
918.355592827187
 21
353.9733576604759
 31
0.0
  0
LINE
  5
8F2
330
31FB
100
AcDbEntity
  8
0
100
AcDbLine
 10
918.8555928271869
 20
368.4733576604759
 30
0.0
 11
918.8555928271869
 21
374.7233576604759
 31
0.0
  0
LINE
  5
900
330
31FB
100
AcDbEntity
  8
0
100
AcDbLine
 10
872.3055592578507
 20
89.47991610065217
 30
0.0
 11
872.3055592578507
 21
127.0881011551528
 31
0.0
  0
LINE
  5
905
330
31FB
100
AcDbEntity
  8
0
100
AcDbLine
 10
866.1055775683976
 20
84.37329052180277
 30
0.0
 11
866.1055775683976
 21
87.22330723189021
 31
0.0
  0
LINE
  5
90A
330
31FB
100
AcDbEntity
  8
0
100
AcDbLine
 10
866.1055775683976
 20
87.22330723189021
 30
0.0
 11
872.3055592578507
 21
89.47991610065217
 31
0.0
  0
LINE
  5
90E
330
31FB
100
AcDbEntity
  8
0
100
AcDbLine
 10
864.3555775683976
 20
297.473357660476
 30
0.0
 11
864.3555775683976
 21
353.9733576604759
 31
0.0
  0
LINE
  5
90F
330
31FB
100
AcDbEntity
  8
0
100
AcDbLine
 10
821.3555623096089
 20
129.1232905218028
 30
0.0
 11
821.3555623096089
 21
179.6232905218028
 31
0.0
  0
LINE
  5
911
330
31FB
100
AcDbEntity
  8
0
100
AcDbLine
 10
826.4621960352386
 20
135.3233027288354
 30
0.0
 11
859.3555775683975
 21
135.3233027288354
 31
0.0
  0
LINE
  5
913
330
31FB
100
AcDbEntity
  8
0
100
AcDbLine
 10
866.3555945615868
 20
130.5233149358659
 30
0.0
 11
872.3055592578507
 21
127.0881011551528
 31
0.0
  0
LINE
  5
926
330
31FB
100
AcDbEntity
  8
0
100
AcDbLine
 10
824.2055760589853
 20
129.1232905218028
 30
0.0
 11
826.4621960352386
 21
135.3233027288354
 31
0.0
  0
LINE
  5
929
330
31FB
100
AcDbEntity
  8
0
100
AcDbLine
 10
821.3555623096089
 20
129.1232905218028
 30
0.0
 11
824.2055760589853
 21
129.1232905218028
 31
0.0
  0
LINE
  5
934
330
31FB
100
AcDbEntity
  8
0
100
AcDbLine
 10
826.4622090308547
 20
173.4232783147721
 30
0.0
 11
859.3555775683975
 21
173.4232783147721
 31
0.0
  0
LINE
  5
936
330
31FB
100
AcDbEntity
  8
0
100
AcDbLine
 10
845.6055928271869
 20
177.4733271428971
 30
0.0
 11
845.6055928271869
 21
192.9733271428971
 31
0.0
  0
LINE
  5
946
330
31FB
100
AcDbEntity
  8
0
100
AcDbLine
 10
859.3555775683975
 20
177.4733271428971
 30
0.0
 11
859.3555775683975
 21
130.5233149358659
 31
0.0
  0
LINE
  5
96A
330
31FB
100
AcDbEntity
  8
0
100
AcDbLine
 10
824.2055890546028
 20
179.6232905218028
 30
0.0
 11
826.4622090308547
 21
173.4232783147721
 31
0.0
  0
LINE
  5
974
330
31FB
100
AcDbEntity
  8
0
100
AcDbLine
 10
821.3555623096089
 20
179.6232905218028
 30
0.0
 11
824.2055890546028
 21
179.6232905218028
 31
0.0
  0
LINE
  5
976
330
31FB
100
AcDbEntity
  8
0
100
AcDbLine
 10
853.3555928271869
 20
353.9733576604759
 30
0.0
 11
853.3555928271869
 21
368.4733576604759
 31
0.0
  0
LINE
  5
97F
330
31FB
100
AcDbEntity
  8
0
100
AcDbLine
 10
929.3555928271869
 20
353.9733576604759
 30
0.0
 11
853.3555928271869
 21
353.9733576604759
 31
0.0
  0
LINE
  5
986
330
31FB
100
AcDbEntity
  8
0
100
AcDbLine
 10
863.8556080859762
 20
368.4733576604759
 30
0.0
 11
863.8556080859762
 21
374.7233576604759
 31
0.0
  0
LINE
  5
98F
330
31FB
100
AcDbEntity
  8
0
100
AcDbLine
 10
929.3555928271869
 20
368.4733576604759
 30
0.0
 11
853.3555928271869
 21
368.4733576604759
 31
0.0
  0
LINE
  5
99F
330
31FB
100
AcDbEntity
  8
0
100
AcDbLine
 10
846.8055897754286
 20
538.5406031438742
 30
0.0
 11
935.9055958789447
 21
538.5406031438742
 31
0.0
  0
LINE
  5
9E5
330
31FB
100
AcDbEntity
  8
0
  6
Continuous
100
AcDbLine
 10
826.4621960352386
 20
135.3233027288354
 30
0.0
 11
826.4622090308547
 21
173.4232783147721
 31
0.0
  0
LINE
  5
9E6
330
31FB
100
AcDbEntity
  8
0
  6
Continuous
100
AcDbLine
 10
872.3055592578507
 20
89.47991610065217
 30
0.0
 11
910.4055806201548
 21
89.47991793163714
 31
0.0
  0
CIRCLE
  5
1FDD
330
31FB
100
AcDbEntity
  8
0
  6
Continuous
100
AcDbCircle
 10
891.3555928271865
 20
845.96699860035
 30
0.0
 40
44.55000305175781
  0
CIRCLE
  5
1FDF
330
31FB
100
AcDbEntity
  8
0
  6
Continuous
100
AcDbCircle
 10
891.3555928271865
 20
845.96699860035
 30
0.0
 40
45.75
  0
LINE
  5
1FE0
330
31FB
100
AcDbEntity
  8
0
100
AcDbLine
 10
824.2055966839981
 20
871.2169986003502
 30
0.0
 11
826.4622166602498
 21
865.0169863933188
 31
0.0
  0
LINE
  5
1FE1
330
31FB
100
AcDbEntity
  8
0
100
AcDbLine
 10
821.3555699390024
 20
871.2169986003502
 30
0.0
 11
824.2055966839981
 21
871.2169986003502
 31
0.0
  0
LINE
  5
1FE2
330
31FB
100
AcDbEntity
  8
0
100
AcDbLine
 10
824.2055836883803
 20
820.7169986003501
 30
0.0
 11
826.4622036646326
 21
826.917010807381
 31
0.0
  0
LINE
  5
1FE3
330
31FB
100
AcDbEntity
  8
0
100
AcDbLine
 10
821.3555699390024
 20
820.7169986003501
 30
0.0
 11
824.2055836883803
 21
820.7169986003501
 31
0.0
  0
LINE
  5
1FE4
330
31FB
100
AcDbEntity
  8
0
100
AcDbLine
 10
821.3555699390024
 20
820.7169986003501
 30
0.0
 11
821.3555699390024
 21
871.2169986003502
 31
0.0
  0
LINE
  5
1FE5
330
31FB
100
AcDbEntity
  8
0
  6
Continuous
100
AcDbLine
 10
826.4622036646326
 20
826.917010807381
 30
0.0
 11
826.4622166602498
 21
865.0169863933188
 31
0.0
  0
LINE
  5
1FE6
330
31FB
100
AcDbEntity
  8
0
100
AcDbLine
 10
826.4622166602498
 20
865.0169863933188
 30
0.0
 11
849.7603952066947
 21
865.0169863933188
 31
0.0
  0
LINE
  5
1FE7
330
31FB
100
AcDbEntity
  8
0
100
AcDbLine
 10
826.4622036646326
 20
826.917010807381
 30
0.0
 11
849.7603952066947
 21
826.917010807381
 31
0.0
  0
LINE
  5
2E28
330
31FB
100
AcDbEntity
  8
0
  6
Continuous
100
AcDbLine
 10
922.6055928271865
 20
297.473357660476
 30
0.0
 11
922.6055928271865
 21
282.9733576604759
 31
0.0
  0
LINE
  5
2E29
330
31FB
100
AcDbEntity
  8
0
  6
Continuous
100
AcDbLine
 10
860.1055928271865
 20
297.473357660476
 30
0.0
 11
860.1055928271865
 21
282.9733576604759
 31
0.0
  0
LINE
  5
2E2A
330
31FB
100
AcDbEntity
  8
0
  6
Continuous
100
AcDbLine
 10
826.4622155842989
 20
273.4233088323509
 30
0.0
 11
871.7556172412489
 21
273.4233088323509
 31
0.0
  0
LINE
  5
2E2B
330
31FB
100
AcDbEntity
  8
0
  6
Continuous
100
AcDbLine
 10
826.4622250667667
 20
235.3233027288353
 30
0.0
 11
871.7556172412489
 21
235.3233027288353
 31
0.0
  0
LINE
  5
2E2C
330
31FB
100
AcDbEntity
  8
0
  6
Continuous
100
AcDbLine
 10
824.2056161980057
 20
229.1233210393821
 30
0.0
 11
826.4622250667667
 21
235.3233027288353
 31
0.0
  0
LINE
  5
2E2D
330
31FB
100
AcDbEntity
  8
0
  6
Continuous
100
AcDbLine
 10
821.3556080859762
 20
229.1233210393821
 30
0.0
 11
821.3556080859762
 21
279.6232905218041
 31
0.0
  0
LINE
  5
2E2E
330
31FB
100
AcDbEntity
  8
0
  6
Continuous
100
AcDbLine
 10
821.3556080859762
 20
229.1233210393821
 30
0.0
 11
824.2056161980057
 21
229.1233210393821
 31
0.0
  0
LINE
  5
2E2F
330
31FB
100
AcDbEntity
  8
0
  6
Continuous
100
AcDbLine
 10
824.2056067155358
 20
279.6232905218041
 30
0.0
 11
826.4622155842989
 21
273.4233088323509
 31
0.0
  0
LINE
  5
2E30
330
31FB
100
AcDbEntity
  8
0
  6
Continuous
100
AcDbLine
 10
821.3556080859762
 20
279.6232905218041
 30
0.0
 11
824.2056067155358
 21
279.6232905218041
 31
0.0
  0
LINE
  5
2E31
330
31FB
100
AcDbEntity
  8
0
  6
Continuous
100
AcDbLine
 10
826.4622250667667
 20
235.3233027288353
 30
0.0
 11
826.4622155842989
 21
273.4233088323509
 31
0.0
  0
LINE
  5
2E32
330
31FB
100
AcDbEntity
  8
0
  6
Continuous
100
AcDbLine
 10
922.6055928271865
 20
282.9733576604759
 30
0.0
 11
860.1055928271865
 21
282.9733576604759
 31
0.0
  0
LINE
  5
2E33
330
31FB
100
AcDbEntity
  8
0
  6
Continuous
100
AcDbLine
 10
922.6055928271865
 20
297.473357660476
 30
0.0
 11
860.1055928271865
 21
297.473357660476
 31
0.0
  0
LINE
  5
2E34
330
31FB
100
AcDbEntity
  8
0
  6
Continuous
100
AcDbLine
 10
910.9555684131239
 20
192.9733271428981
 30
0.0
 11
910.9555684131239
 21
282.9733576604759
 31
0.0
  0
LINE
  5
2E35
330
31FB
100
AcDbEntity
  8
0
  6
Continuous
100
AcDbLine
 10
871.7556172412489
 20
192.9733271428981
 30
0.0
 11
871.7556172412489
 21
282.9733576604759
 31
0.0
  0
TEXT
  5
3158
330
31FB
100
AcDbEntity
  8
0
  6
Continuous
100
AcDbText
 10
419.9111172123926
 20
996.8154535351537
 30
0.0
 40
48.000002
  1
WFC__08MA100 1.5S
 41
1.32095
100
AcDbText
  0
LINE
  5
317D
330
31FB
100
AcDbEntity
  8
0
100
AcDbLine
 10
945.3555948271869
 20
591.5406031438743
 30
0.0
 11
945.3555948271869
 21
558.4592031438736
 31
0.0
  0
LINE
  5
317E
330
31FB
100
AcDbEntity
  8
0
100
AcDbLine
 10
837.3555948271869
 20
591.5406031438743
 30
0.0
 11
837.3555948271869
 21
558.4592031438736
 31
0.0
  0
LINE
  5
317F
330
31FB
100
AcDbEntity
  8
0
100
AcDbLine
 10
933.8555908271869
 20
538.5406031438742
 30
0.0
 11
848.8555948271873
 21
538.5406031438742
 31
0.0
  0
LINE
  5
3180
330
31FB
100
AcDbEntity
  8
0
100
AcDbLine
 10
837.355593827187
 20
558.4592041438741
 30
0.0
 11
848.8556008271864
 21
538.5406065264381
 31
0.0
  0
LINE
  5
3181
330
31FB
100
AcDbEntity
  8
0
100
AcDbLine
 10
945.355595827187
 20
558.4592041438741
 30
0.0
 11
933.855589827187
 21
538.5406081782499
 31
0.0
  0
LINE
  5
3182
330
31FB
100
AcDbEntity
  8
0
100
AcDbLine
 10
940.7707098271867
 20
657.1075231438742
 30
0.0
 11
945.3555948271869
 21
591.5406041438741
 31
0.0
  0
LINE
  5
3183
330
31FB
100
AcDbEntity
  8
0
100
AcDbLine
 10
841.9404798271864
 20
657.1075231438742
 30
0.0
 11
837.3555948271869
 21
591.5406041438741
 31
0.0
  0
LINE
  5
3184
330
31FB
100
AcDbEntity
  8
0
100
AcDbLine
 10
904.855594827187
 20
660.2496831438741
 30
0.0
 11
877.8555948271874
 21
660.2496831438741
 31
0.0
  0
LINE
  5
3185
330
31FB
100
AcDbEntity
  8
0
100
AcDbLine
 10
904.855594827187
 20
666.5406031438743
 30
0.0
 11
877.8555948271874
 21
666.5406031438743
 31
0.0
  0
LINE
  5
3186
330
31FB
100
AcDbEntity
  8
0
100
AcDbLine
 10
881.3555958271869
 20
699.5406031438744
 30
0.0
 11
901.3555968271871
 21
699.5406031438744
 31
0.0
  0
LINE
  5
3187
330
31FB
100
AcDbEntity
  8
0
100
AcDbLine
 10
881.3555958271869
 20
666.5406031438743
 30
0.0
 11
881.3555958271869
 21
699.5406031438744
 31
0.0
  0
LINE
  5
3188
330
31FB
100
AcDbEntity
  8
0
100
AcDbLine
 10
877.8555948271874
 20
660.2496831438741
 30
0.0
 11
841.940480827187
 21
657.1075131438741
 31
0.0
  0
LINE
  5
3189
330
31FB
100
AcDbEntity
  8
0
100
AcDbLine
 10
877.8555948271874
 20
665.5405931438743
 30
0.0
 11
877.8555948271874
 21
664.6782131438743
 31
0.0
  0
LINE
  5
318A
330
31FB
100
AcDbEntity
  8
0
100
AcDbLine
 10
877.8555948271874
 20
666.5406031438743
 30
0.0
 11
877.8555948271874
 21
660.2496831438741
 31
0.0
  0
LINE
  5
318B
330
31FB
100
AcDbEntity
  8
0
100
AcDbLine
 10
901.3555968271871
 20
666.5406031438743
 30
0.0
 11
901.3555968271871
 21
699.5406031438744
 31
0.0
  0
LINE
  5
318C
330
31FB
100
AcDbEntity
  8
0
100
AcDbLine
 10
904.855594827187
 20
660.2496831438741
 30
0.0
 11
940.770708827187
 21
657.1075131438741
 31
0.0
  0
LINE
  5
318D
330
31FB
100
AcDbEntity
  8
0
100
AcDbLine
 10
904.855594827187
 20
665.5406031438744
 30
0.0
 11
904.855594827187
 21
664.6782231438741
 31
0.0
  0
LINE
  5
318E
330
31FB
100
AcDbEntity
  8
0
100
AcDbLine
 10
904.855594827187
 20
666.5406031438743
 30
0.0
 11
904.855594827187
 21
660.2496831438741
 31
0.0
  0
CIRCLE
  5
318F
330
31FB
100
AcDbEntity
  8
0
100
AcDbCircle
 10
891.3555928271865
 20
845.96699860035
 30
0.0
 40
54.0
  0
CIRCLE
  5
3190
330
31FB
100
AcDbEntity
  8
0
100
AcDbCircle
 10
891.3555928271865
 20
845.96699860035
 30
0.0
 40
54.0
  0
CIRCLE
  5
3191
330
31FB
100
AcDbEntity
  8
0
100
AcDbCircle
 10
891.3555928271865
 20
845.96699860035
 30
0.0
 40
9.999999
  0
CIRCLE
  5
3192
330
31FB
100
AcDbEntity
  8
0
100
AcDbCircle
 10
891.3555928271865
 20
845.96699860035
 30
0.0
 40
13.5
  0
CIRCLE
  5
3193
330
31FB
100
AcDbEntity
  8
0
100
AcDbCircle
 10
891.3555928271865
 20
845.96699860035
 30
0.0
 40
9.999999
  0
CIRCLE
  5
3194
330
31FB
100
AcDbEntity
  8
0
100
AcDbCircle
 10
891.3555928271865
 20
845.96699860035
 30
0.0
 40
13.5
  0
LINE
  5
3250
330
31FB
100
AcDbEntity
  8
0
  6
CENTER
100
AcDbLine
 10
891.3555928271865
 20
774.2637750619445
 30
0.0
 11
891.3555928271865
 21
917.6702221387557
 31
0.0
  0
LINE
  5
3251
330
31FB
100
AcDbEntity
  8
0
  6
CENTER
100
AcDbLine
 10
802.1814664260563
 20
845.96699860035
 30
0.0
 11
959.7979941511912
 21
845.96699860035
 31
0.0
  0
LINE
  5
3252
330
31FB
100
AcDbEntity
  8
0
  6
CENTER
100
AcDbLine
 10
891.3555928271868
 20
51.88836816829234
 30
0.0
 11
891.3555928271868
 21
720.548385283324
 31
0.0
  0
LINE
  5
3253
330
31FB
100
AcDbEntity
  8
0
  6
CENTER
100
AcDbLine
 10
802.1815045730301
 20
254.3733057805931
 30
0.0
 11
891.3555928271868
 21
254.3733057805931
 31
0.0
  0
LINE
  5
3254
330
31FB
100
AcDbEntity
  8
0
  6
CENTER
100
AcDbLine
 10
802.1814587966627
 20
154.3732905218027
 30
0.0
 11
891.3555928271868
 21
154.3732905218027
 31
0.0
  0
ENDSEC
  0
SECTION
  2
OBJECTS
  0
DICTIONARY
  5
31E9
330
0
100
AcDbDictionary
281
     1
  3
ACAD_GROUP
350
31EA
  3
ACAD_LAYOUT
350
31F6
  3
ACAD_MLINESTYLE
350
31F3
  3
ACAD_PLOTSETTINGS
350
31F5
  3
ACAD_PLOTSTYLENAME
350
31EB
  3
AcDbVariableDictionary
350
3241
  0
DICTIONARY
  5
3248
330
31DF
100
AcDbDictionary
280
     1
281
     1
  3
ACAD_LAYERSTATES
360
3249
  0
DICTIONARY
  5
320D
330
31FB
100
AcDbDictionary
280
     1
281
     1
  3
ACAD_LAYOUTSELFREF
360
323C
  0
DICTIONARY
  5
320F
330
31F7
100
AcDbDictionary
280
     1
281
     1
  3
ACAD_LAYOUTSELFREF
360
323B
  0
DICTIONARY
  5
31EA
102
{ACAD_REACTORS
330
31E9
102
}
330
31E9
100
AcDbDictionary
281
     1
  0
DICTIONARY
  5
31F6
102
{ACAD_REACTORS
330
31E9
102
}
330
31E9
100
AcDbDictionary
281
     1
  3
Model
350
31FE
  3
ﾚｲｱｳﾄ1
350
31FA
  0
DICTIONARY
  5
31F3
102
{ACAD_REACTORS
330
31E9
102
}
330
31E9
100
AcDbDictionary
281
     1
  3
Standard
350
31F4
  0
DICTIONARY
  5
31F5
102
{ACAD_REACTORS
330
31E9
102
}
330
31E9
100
AcDbDictionary
281
     1
  0
ACDBDICTIONARYWDFLT
  5
31EB
102
{ACAD_REACTORS
330
31E9
102
}
330
31E9
100
AcDbDictionary
281
     1
  3
Normal
350
31EC
100
AcDbDictionaryWithDefault
340
31EC
  0
DICTIONARY
  5
3241
102
{ACAD_REACTORS
330
31E9
102
}
330
31E9
100
AcDbDictionary
281
     1
  3
DIMASSOC
350
3242
  0
DICTIONARY
  5
3249
102
{ACAD_REACTORS
330
3248
102
}
330
3248
100
AcDbDictionary
281
     1
  0
XRECORD
  5
323C
102
{ACAD_REACTORS
330
320D
102
}
330
320D
100
AcDbXrecord
280
     1
340
31FB
  0
XRECORD
  5
323B
102
{ACAD_REACTORS
330
320F
102
}
330
320F
100
AcDbXrecord
280
     1
340
31F7
  0
LAYOUT
  5
31FE
102
{ACAD_REACTORS
330
31F6
102
}
330
31F6
100
AcDbPlotSettings
  1

  2
SII LP-2150 (D-SCAN C2)
  4

  6

 40
0.0
 41
0.0
 42
0.0
 43
0.0
 44
0.0
 45
0.0
 46
0.0
 47
0.0
 48
0.0
 49
0.0
140
0.0
141
0.0
142
1.0
143
1.0
 70
  1712
 72
     0
 73
     0
 74
     0
  7

 75
     0
147
1.0
148
0.0
149
0.0
100
AcDbLayout
  1
Model
 70
     1
 71
     0
 10
0.0
 20
0.0
 11
12.0
 21
9.0
 12
0.0
 22
0.0
 32
0.0
 14
0.0
 24
0.0
 34
0.0
 15
0.0
 25
0.0
 35
0.0
146
0.0
 13
0.0
 23
0.0
 33
0.0
 16
1.0
 26
0.0
 36
0.0
 17
0.0
 27
1.0
 37
0.0
 76
     0
330
31FB
  0
LAYOUT
  5
31FA
102
{ACAD_REACTORS
330
31F6
102
}
330
31F6
100
AcDbPlotSettings
  1

  2
SII LP-2150 (D-SCAN C2)
  4

  6

 40
0.0
 41
0.0
 42
0.0
 43
0.0
 44
0.0
 45
0.0
 46
0.0
 47
0.0
 48
0.0
 49
0.0
140
0.0
141
0.0
142
1.0
143
1.0
 70
   688
 72
     0
 73
     0
 74
     5
  7

 75
    16
147
1.0
148
0.0
149
0.0
100
AcDbLayout
  1
ﾚｲｱｳﾄ1
 70
     1
 71
     1
 10
-580.5701293945312
 20
0.0
 11
0.0
 21
407.8999938964844
 12
0.0
 22
0.0
 32
0.0
 14
-580.5701293945312
 24
0.0
 34
0.0
 15
0.0
 25
407.8999938964844
 35
0.0
146
0.0
 13
0.0
 23
0.0
 33
0.0
 16
1.0
 26
0.0
 36
0.0
 17
0.0
 27
1.0
 37
0.0
 76
     0
330
31F7
  0
MLINESTYLE
  5
31F4
102
{ACAD_REACTORS
330
31F3
102
}
330
31F3
100
AcDbMlineStyle
  2
STANDARD
 70
     0
  3

 62
   256
 51
90.0
 52
90.0
 71
     2
 49
0.5
 62
   256
  6
BYLAYER
 49
-0.5
 62
   256
  6
BYLAYER
  0
ACDBPLACEHOLDER
  5
31EC
102
{ACAD_REACTORS
330
31EB
102
}
330
31EB
  0
DICTIONARYVAR
  5
3242
102
{ACAD_REACTORS
330
3241
102
}
330
3241
100
DictionaryVariables
280
     0
  1
1
  0
ENDSEC
  0
EOF
