  0
SECTION
  2
HEADER
  9
$ACADVER
  1
AC1015
  9
$ACADMAINTVER
 70
    14
  9
$DWGCODEPAGE
  3
ANSI_932
  9
$INSBASE
 10
0.0
 20
0.0
 30
0.0
  9
$EXTMIN
 10
-0.0552090568817221
 20
200.2640494792058
 30
-0.0000000349181948
  9
$EXTMAX
 10
904.6418151728646
 20
1048.063972700252
 30
0.0000000814935746
  9
$LIMMIN
 10
0.0
 20
0.0
  9
$LIMMAX
 10
12.0
 20
9.0
  9
$ORTHOMODE
 70
     0
  9
$REGENMODE
 70
     1
  9
$FILLMODE
 70
     1
  9
$QTEXTMODE
 70
     0
  9
$MIRRTEXT
 70
     1
  9
$LTSCALE
 40
1.0
  9
$ATTMODE
 70
     1
  9
$TEXTSIZE
 40
0.2
  9
$TRACEWID
 40
0.05
  9
$TEXTSTYLE
  7
STANDARD
  9
$CLAYER
  8
0
  9
$CELTYPE
  6
CONTINUOUS
  9
$CECOLOR
 62
   256
  9
$CELTSCALE
 40
1.0
  9
$DISPSILH
 70
     0
  9
$DIMSCALE
 40
1.0
  9
$DIMASZ
 40
1.0
  9
$DIMEXO
 40
2.54
  9
$DIMDLI
 40
0.38
  9
$DIMRND
 40
0.0
  9
$DIMDLE
 40
0.0
  9
$DIMEXE
 40
2.54
  9
$DIMTP
 40
0.0
  9
$DIMTM
 40
0.0
  9
$DIMTXT
 40
3.2
  9
$DIMCEN
 40
0.09
  9
$DIMTSZ
 40
0.0
  9
$DIMTOL
 70
     0
  9
$DIMLIM
 70
     0
  9
$DIMTIH
 70
     0
  9
$DIMTOH
 70
     0
  9
$DIMSE1
 70
     0
  9
$DIMSE2
 70
     0
  9
$DIMTAD
 70
     1
  9
$DIMZIN
 70
     0
  9
$DIMBLK
  1

  9
$DIMASO
 70
     1
  9
$DIMSHO
 70
     0
  9
$DIMPOST
  1

  9
$DIMAPOST
  1

  9
$DIMALT
 70
     0
  9
$DIMALTD
 70
     2
  9
$DIMALTF
 40
25.4
  9
$DIMLFAC
 40
1.0
  9
$DIMTOFL
 70
     0
  9
$DIMTVP
 40
1.0
  9
$DIMTIX
 70
     0
  9
$DIMSOXD
 70
     0
  9
$DIMSAH
 70
     1
  9
$DIMBLK1
  1

  9
$DIMBLK2
  1

  9
$DIMSTYLE
  2
STANDARD
  9
$DIMCLRD
 70
     0
  9
$DIMCLRE
 70
     0
  9
$DIMCLRT
 70
     0
  9
$DIMTFAC
 40
1.0
  9
$DIMGAP
 40
1.6
  9
$DIMJUST
 70
     0
  9
$DIMSD1
 70
     0
  9
$DIMSD2
 70
     0
  9
$DIMTOLJ
 70
     1
  9
$DIMTZIN
 70
     0
  9
$DIMALTZ
 70
     0
  9
$DIMALTTZ
 70
     0
  9
$DIMUPT
 70
     0
  9
$DIMDEC
 70
     4
  9
$DIMTDEC
 70
     4
  9
$DIMALTU
 70
     2
  9
$DIMALTTD
 70
     2
  9
$DIMTXSTY
  7
STANDARD
  9
$DIMAUNIT
 70
     0
  9
$DIMADEC
 70
     0
  9
$DIMALTRND
 40
0.0
  9
$DIMAZIN
 70
     0
  9
$DIMDSEP
 70
    46
  9
$DIMATFIT
 70
     3
  9
$DIMFRAC
 70
     0
  9
$DIMLDRBLK
  1

  9
$DIMLUNIT
 70
     2
  9
$DIMLWD
 70
    -2
  9
$DIMLWE
 70
    -2
  9
$DIMTMOVE
 70
     0
  9
$LUNITS
 70
     2
  9
$LUPREC
 70
     4
  9
$SKETCHINC
 40
0.1
  9
$FILLETRAD
 40
0.0
  9
$AUNITS
 70
     0
  9
$AUPREC
 70
     0
  9
$MENU
  1
.
  9
$ELEVATION
 40
0.0
  9
$PELEVATION
 40
0.0
  9
$THICKNESS
 40
0.0
  9
$LIMCHECK
 70
     0
  9
$CHAMFERA
 40
0.0
  9
$CHAMFERB
 40
0.0
  9
$CHAMFERC
 40
0.0
  9
$CHAMFERD
 40
0.0
  9
$SKPOLY
 70
     0
  9
$TDCREATE
 40
2452488.423138738
  9
$TDUCREATE
 40
2452488.048138738
  9
$TDUPDATE
 40
2456899.679921481
  9
$TDUUPDATE
 40
2456899.304921481
  9
$TDINDWG
 40
0.2913873611
  9
$TDUSRTIMER
 40
0.2913871759
  9
$USRTIMER
 70
     1
  9
$ANGBASE
 50
0.0
  9
$ANGDIR
 70
     0
  9
$PDMODE
 70
     3
  9
$PDSIZE
 40
0.0
  9
$PLINEWID
 40
0.0
  9
$SPLFRAME
 70
     0
  9
$SPLINETYPE
 70
     6
  9
$SPLINESEGS
 70
     8
  9
$HANDSEED
  5
27C5
  9
$SURFTAB1
 70
     6
  9
$SURFTAB2
 70
     6
  9
$SURFTYPE
 70
     6
  9
$SURFU
 70
     6
  9
$SURFV
 70
     6
  9
$UCSBASE
  2

  9
$UCSNAME
  2

  9
$UCSORG
 10
0.0
 20
0.0
 30
0.0
  9
$UCSXDIR
 10
1.0
 20
0.0
 30
0.0
  9
$UCSYDIR
 10
0.0
 20
1.0
 30
0.0
  9
$UCSORTHOREF
  2

  9
$UCSORTHOVIEW
 70
     0
  9
$UCSORGTOP
 10
0.0
 20
0.0
 30
0.0
  9
$UCSORGBOTTOM
 10
0.0
 20
0.0
 30
0.0
  9
$UCSORGLEFT
 10
0.0
 20
0.0
 30
0.0
  9
$UCSORGRIGHT
 10
0.0
 20
0.0
 30
0.0
  9
$UCSORGFRONT
 10
0.0
 20
0.0
 30
0.0
  9
$UCSORGBACK
 10
0.0
 20
0.0
 30
0.0
  9
$PUCSBASE
  2

  9
$PUCSNAME
  2

  9
$PUCSORG
 10
0.0
 20
0.0
 30
0.0
  9
$PUCSXDIR
 10
1.0
 20
0.0
 30
0.0
  9
$PUCSYDIR
 10
0.0
 20
1.0
 30
0.0
  9
$PUCSORTHOREF
  2

  9
$PUCSORTHOVIEW
 70
     0
  9
$PUCSORGTOP
 10
0.0
 20
0.0
 30
0.0
  9
$PUCSORGBOTTOM
 10
0.0
 20
0.0
 30
0.0
  9
$PUCSORGLEFT
 10
0.0
 20
0.0
 30
0.0
  9
$PUCSORGRIGHT
 10
0.0
 20
0.0
 30
0.0
  9
$PUCSORGFRONT
 10
0.0
 20
0.0
 30
0.0
  9
$PUCSORGBACK
 10
0.0
 20
0.0
 30
0.0
  9
$USERI1
 70
     0
  9
$USERI2
 70
     0
  9
$USERI3
 70
     0
  9
$USERI4
 70
     0
  9
$USERI5
 70
     0
  9
$USERR1
 40
0.0
  9
$USERR2
 40
0.0
  9
$USERR3
 40
0.0
  9
$USERR4
 40
0.0
  9
$USERR5
 40
0.0
  9
$WORLDVIEW
 70
     1
  9
$SHADEDGE
 70
     3
  9
$SHADEDIF
 70
    70
  9
$TILEMODE
 70
     1
  9
$MAXACTVP
 70
    48
  9
$PINSBASE
 10
0.0
 20
0.0
 30
0.0
  9
$PLIMCHECK
 70
     0
  9
$PEXTMIN
 10
1.000000000000000E+20
 20
1.000000000000000E+20
 30
1.000000000000000E+20
  9
$PEXTMAX
 10
-1.000000000000000E+20
 20
-1.000000000000000E+20
 30
-1.000000000000000E+20
  9
$PLIMMIN
 10
0.0
 20
0.0
  9
$PLIMMAX
 10
12.0
 20
9.0
  9
$UNITMODE
 70
     0
  9
$VISRETAIN
 70
     1
  9
$PLINEGEN
 70
     0
  9
$PSLTSCALE
 70
     1
  9
$TREEDEPTH
 70
  3020
  9
$CMLSTYLE
  2
Standard
  9
$CMLJUST
 70
     0
  9
$CMLSCALE
 40
1.0
  9
$PROXYGRAPHICS
 70
     1
  9
$MEASUREMENT
 70
     0
  9
$CELWEIGHT
370
    -1
  9
$ENDCAPS
280
     0
  9
$JOINSTYLE
280
     0
  9
$LWDISPLAY
290
     0
  9
$INSUNITS
 70
     0
  9
$HYPERLINKBASE
  1

  9
$STYLESHEET
  1

  9
$XEDIT
290
     1
  9
$CEPSNTYPE
380
     0
  9
$PSTYLEMODE
290
     1
  9
$FINGERPRINTGUID
  2
{FFE95C04-33D2-4560-80D0-1E2918E4EC86}
  9
$VERSIONGUID
  2
{FAF78111-D8D3-4B60-8BDA-1CE6449325E4}
  9
$EXTNAMES
290
     1
  9
$PSVPSCALE
 40
0.0
  9
$OLESTARTUP
290
     0
  0
ENDSEC
  0
SECTION
  2
CLASSES
  0
CLASS
  1
ACDBDICTIONARYWDFLT
  2
AcDbDictionaryWithDefault
  3
AutoCAD 2000
 90
        0
280
     0
281
     0
  0
CLASS
  1
ACDBPLACEHOLDER
  2
AcDbPlaceHolder
  3
AutoCAD 2000
 90
        0
280
     0
281
     0
  0
CLASS
  1
LAYOUT
  2
AcDbLayout
  3
AutoCAD 2000
 90
        0
280
     0
281
     0
  0
CLASS
  1
DICTIONARYVAR
  2
AcDbDictionaryVar
  3
AutoCAD 2000
 90
        0
280
     0
281
     0
  0
CLASS
  1
LONG_TRANSACTION
  2
AcDbLongTransaction
  3
AutoCAD 2000
 90
    32768
280
     0
281
     0
  0
CLASS
  1
LWPOLYLINE
  2
AcDbPolyline
  3
AutoCAD 2000
 90
    32768
280
     0
281
     1
  0
CLASS
  1
HATCH
  2
AcDbHatch
  3
AutoCAD 2000
 90
    32768
280
     0
281
     1
  0
CLASS
  1
XRECORD
  2
AcDbXrecord
  3
AutoCAD 2000
 90
    32768
280
     0
281
     0
  0
CLASS
  1
LONG_TRANSACTION
  2
AcDbLongTransaction
  3
AutoCAD 2000
 90
    32768
280
     0
281
     0
  0
CLASS
  1
LWPOLYLINE
  2
AcDbPolyline
  3
AutoCAD 2000
 90
    32768
280
     0
281
     1
  0
CLASS
  1
HATCH
  2
AcDbHatch
  3
AutoCAD 2000
 90
    32768
280
     0
281
     1
  0
CLASS
  1
XRECORD
  2
AcDbXrecord
  3
AutoCAD 2000
 90
    32768
280
     0
281
     0
  0
CLASS
  1
LONG_TRANSACTION
  2
AcDbLongTransaction
  3
AutoCAD 2000
 90
    32768
280
     0
281
     0
  0
CLASS
  1
LWPOLYLINE
  2
AcDbPolyline
  3
AutoCAD 2000
 90
    32768
280
     0
281
     1
  0
CLASS
  1
HATCH
  2
AcDbHatch
  3
AutoCAD 2000
 90
    32768
280
     0
281
     1
  0
CLASS
  1
XRECORD
  2
AcDbXrecord
  3
AutoCAD 2000
 90
    32768
280
     0
281
     0
  0
CLASS
  1
LONG_TRANSACTION
  2
AcDbLongTransaction
  3
AutoCAD 2000
 90
    32768
280
     0
281
     0
  0
CLASS
  1
LWPOLYLINE
  2
AcDbPolyline
  3
AutoCAD 2000
 90
    32768
280
     0
281
     1
  0
CLASS
  1
HATCH
  2
AcDbHatch
  3
AutoCAD 2000
 90
    32768
280
     0
281
     1
  0
CLASS
  1
XRECORD
  2
AcDbXrecord
  3
AutoCAD 2000
 90
    32768
280
     0
281
     0
  0
CLASS
  1
LONG_TRANSACTION
  2
AcDbLongTransaction
  3
AutoCAD 2000
 90
    32768
280
     0
281
     0
  0
CLASS
  1
LWPOLYLINE
  2
AcDbPolyline
  3
AutoCAD 2000
 90
    32768
280
     0
281
     1
  0
CLASS
  1
HATCH
  2
AcDbHatch
  3
AutoCAD 2000
 90
    32768
280
     0
281
     1
  0
CLASS
  1
XRECORD
  2
AcDbXrecord
  3
AutoCAD 2000
 90
    32768
280
     0
281
     0
  0
CLASS
  1
LONG_TRANSACTION
  2
AcDbLongTransaction
  3
AutoCAD 2000
 90
    32768
280
     0
281
     0
  0
CLASS
  1
LWPOLYLINE
  2
AcDbPolyline
  3
AutoCAD 2000
 90
    32768
280
     0
281
     1
  0
CLASS
  1
HATCH
  2
AcDbHatch
  3
AutoCAD 2000
 90
    32768
280
     0
281
     1
  0
CLASS
  1
XRECORD
  2
AcDbXrecord
  3
AutoCAD 2000
 90
    32768
280
     0
281
     0
  0
CLASS
  1
LONG_TRANSACTION
  2
AcDbLongTransaction
  3
AutoCAD 2000
 90
    32768
280
     0
281
     0
  0
CLASS
  1
LWPOLYLINE
  2
AcDbPolyline
  3
AutoCAD 2000
 90
    32768
280
     0
281
     1
  0
CLASS
  1
HATCH
  2
AcDbHatch
  3
AutoCAD 2000
 90
    32768
280
     0
281
     1
  0
CLASS
  1
XRECORD
  2
AcDbXrecord
  3
AutoCAD 2000
 90
    32768
280
     0
281
     0
  0
CLASS
  1
LONG_TRANSACTION
  2
AcDbLongTransaction
  3
AutoCAD 2000
 90
    32768
280
     0
281
     0
  0
CLASS
  1
LWPOLYLINE
  2
AcDbPolyline
  3
AutoCAD 2000
 90
    32768
280
     0
281
     1
  0
CLASS
  1
HATCH
  2
AcDbHatch
  3
AutoCAD 2000
 90
    32768
280
     0
281
     1
  0
CLASS
  1
XRECORD
  2
AcDbXrecord
  3
AutoCAD 2000
 90
    32768
280
     0
281
     0
  0
CLASS
  1
LONG_TRANSACTION
  2
AcDbLongTransaction
  3
AutoCAD 2000
 90
    32768
280
     0
281
     0
  0
CLASS
  1
LWPOLYLINE
  2
AcDbPolyline
  3
AutoCAD 2000
 90
    32768
280
     0
281
     1
  0
CLASS
  1
HATCH
  2
AcDbHatch
  3
AutoCAD 2000
 90
    32768
280
     0
281
     1
  0
CLASS
  1
XRECORD
  2
AcDbXrecord
  3
AutoCAD 2000
 90
    32768
280
     0
281
     0
  0
ENDSEC
  0
SECTION
  2
TABLES
  0
TABLE
  2
VPORT
  5
21B6
330
0
100
AcDbSymbolTable
 70
     2
  0
VPORT
  5
27C4
330
21B6
100
AcDbSymbolTableRecord
100
AcDbViewportTableRecord
  2
*Active
 70
     0
 10
0.0
 20
0.0
 11
1.0
 21
1.0
 12
452.2933030579914
 22
624.1640110897289
 13
0.0
 23
0.0
 14
1.0
 24
1.0
 15
0.0
 25
0.0
 16
0.0
 26
0.0
 36
1.0
 17
0.0
 27
0.0
 37
0.0
 40
853.1827798764179
 41
1.592161016949152
 42
50.0
 43
0.0
 44
0.0
 50
0.0
 51
0.0
 71
     0
 72
   100
 73
     1
 74
     3
 75
     0
 76
     0
 77
     0
 78
     0
281
     0
 65
     1
110
0.0
120
0.0
130
0.0
111
1.0
121
0.0
131
0.0
112
0.0
122
1.0
132
0.0
 79
     0
146
0.0
  0
ENDTAB
  0
TABLE
  2
LTYPE
  5
21B3
330
0
100
AcDbSymbolTable
 70
     2
  0
LTYPE
  5
21C1
330
21B3
100
AcDbSymbolTableRecord
100
AcDbLinetypeTableRecord
  2
ByBlock
 70
     0
  3

 72
    65
 73
     0
 40
0.0
  0
LTYPE
  5
21C2
330
21B3
100
AcDbSymbolTableRecord
100
AcDbLinetypeTableRecord
  2
ByLayer
 70
     0
  3

 72
    65
 73
     0
 40
0.0
  0
LTYPE
  5
21C3
330
21B3
100
AcDbSymbolTableRecord
100
AcDbLinetypeTableRecord
  2
CONTINUOUS
 70
     0
  3
Solid line
 72
    65
 73
     0
 40
0.0
  0
LTYPE
  5
27AE
330
21B3
100
AcDbSymbolTableRecord
100
AcDbLinetypeTableRecord
  2
CENTER
 70
     0
  3
__ . __
 72
    65
 73
     4
 40
7.0
 49
4.0
 74
     0
 49
-1.0
 74
     0
 49
1.0
 74
     0
 49
-1.0
 74
     0
  0
ENDTAB
  0
TABLE
  2
LAYER
  5
21B0
102
{ACAD_XDICTIONARY
360
27AF
102
}
330
0
100
AcDbSymbolTable
 70
     1
  0
LAYER
  5
21BE
330
21B0
100
AcDbSymbolTableRecord
100
AcDbLayerTableRecord
  2
0
 70
     0
 62
     7
  6
CONTINUOUS
370
    -3
390
21BD
  0
ENDTAB
  0
TABLE
  2
STYLE
  5
21B1
330
0
100
AcDbSymbolTable
 70
     1
  0
STYLE
  5
21BF
330
21B1
100
AcDbSymbolTableRecord
100
AcDbTextStyleTableRecord
  2
STANDARD
 70
     0
 40
0.0
 41
1.0
 50
0.0
 71
     0
 42
0.2
  3
txt
  4
BIGFONT
  0
ENDTAB
  0
TABLE
  2
VIEW
  5
21B4
330
0
100
AcDbSymbolTable
 70
     1
  0
VIEW
  5
21DE
330
21B4
100
AcDbSymbolTableRecord
100
AcDbViewTableRecord
  2
OLE1
 70
     0
 40
3692.141019219747
 10
1914.591370701856
 20
1272.206200738182
 41
4595.022665841169
 11
0.0
 21
0.0
 31
1.0
 12
0.0
 22
0.0
 32
0.0
 42
50.0
 43
0.0
 44
0.0
 50
0.0
 71
     0
281
     0
 72
     1
110
0.0
120
0.0
130
0.0
111
1.0
121
0.0
131
0.0
112
0.0
122
1.0
132
0.0
 79
     0
146
0.0
  0
ENDTAB
  0
TABLE
  2
UCS
  5
21B5
330
0
100
AcDbSymbolTable
 70
     0
  0
ENDTAB
  0
TABLE
  2
APPID
  5
21B7
330
0
100
AcDbSymbolTable
 70
     5
  0
APPID
  5
21C0
330
21B7
100
AcDbSymbolTableRecord
100
AcDbRegAppTableRecord
  2
ACAD
 70
     0
  0
APPID
  5
21DF
330
21B7
100
AcDbSymbolTableRecord
100
AcDbRegAppTableRecord
  2
MCAD_NO_VIS
 70
     0
  0
APPID
  5
21E0
330
21B7
100
AcDbSymbolTableRecord
100
AcDbRegAppTableRecord
  2
ACAD_TEMP_GRAPHIC
 70
     0
  0
APPID
  5
21E1
330
21B7
100
AcDbSymbolTableRecord
100
AcDbRegAppTableRecord
  2
ACATTRIBSERVICES
 70
     0
  0
APPID
  5
21E2
330
21B7
100
AcDbSymbolTableRecord
100
AcDbRegAppTableRecord
  2
CONTENTBLOCKICON
 70
     0
  0
ENDTAB
  0
TABLE
  2
DIMSTYLE
  5
21B8
330
0
100
AcDbSymbolTable
 70
     1
100
AcDbDimStyleTable
 71
     0
  0
DIMSTYLE
105
21E3
330
21B8
100
AcDbSymbolTableRecord
100
AcDbDimStyleTableRecord
  2
STANDARD
 70
     0
279
     2
340
21BF
  0
ENDTAB
  0
TABLE
  2
BLOCK_RECORD
  5
21AF
330
0
100
AcDbSymbolTable
 70
     0
  0
BLOCK_RECORD
  5
21CC
102
{ACAD_XDICTIONARY
360
21F8
102
}
330
21AF
100
AcDbSymbolTableRecord
100
AcDbBlockTableRecord
  2
*Model_Space
340
21CF
  0
BLOCK_RECORD
  5
21C8
102
{ACAD_XDICTIONARY
360
21FA
102
}
330
21AF
100
AcDbSymbolTableRecord
100
AcDbBlockTableRecord
  2
*Paper_Space
340
21CB
  0
ENDTAB
  0
ENDSEC
  0
SECTION
  2
BLOCKS
  0
BLOCK
  5
21CD
330
21CC
100
AcDbEntity
  8
0
100
AcDbBlockBegin
  2
*Model_Space
 70
     0
 10
0.0
 20
0.0
 30
0.0
  3
*Model_Space
  1

  0
ENDBLK
  5
21CE
330
21CC
100
AcDbEntity
  8
0
100
AcDbBlockEnd
  0
BLOCK
  5
21C9
330
21C8
100
AcDbEntity
 67
     1
  8
0
100
AcDbBlockBegin
  2
*Paper_Space
 70
     0
 10
0.0
 20
0.0
 30
0.0
  3
*Paper_Space
  1

  0
ENDBLK
  5
21CA
330
21C8
100
AcDbEntity
 67
     1
  8
0
100
AcDbBlockEnd
  0
ENDSEC
  0
SECTION
  2
ENTITIES
  0
TEXT
  5
F6E
330
21CC
100
AcDbEntity
  8
0
  6
Continuous
100
AcDbText
 10
0.0
 20
1000.0
 30
0.0
 40
48.000002
  1
SKC3J06MA_00 10A
 41
1.32095
100
AcDbText
  0
CIRCLE
  5
2498
330
21CC
100
AcDbEntity
  8
0
100
AcDbCircle
 10
500.0000015000004
 20
845.2854630184639
 30
0.0
 40
54.0
  0
LINE
  5
249B
330
21CC
100
AcDbEntity
  8
0
  6
Continuous
 62
     7
100
AcDbLine
 10
577.1500006000005
 20
324.113354354668
 30
0.0
 11
574.1108488999998
 21
315.7633539546677
 31
0.0
  0
LINE
  5
249C
330
21CC
100
AcDbEntity
  8
0
  6
Continuous
 62
     7
100
AcDbLine
 10
580.0
 20
324.113354354668
 30
0.0
 11
580.0
 21
290.1133543546675
 31
0.0
  0
LINE
  5
24A2
330
21CC
100
AcDbEntity
  8
0
  6
Continuous
 62
     7
100
AcDbLine
 10
574.1108488999998
 20
315.7633539546677
 30
0.0
 11
527.0
 21
315.7633539546677
 31
0.0
  0
LINE
  5
24A3
330
21CC
100
AcDbEntity
  8
0
  6
Continuous
 62
     7
100
AcDbLine
 10
574.1108488999998
 20
298.4633547546682
 30
0.0
 11
527.0
 21
298.4633547546682
 31
0.0
  0
LINE
  5
24A9
330
21CC
100
AcDbEntity
  8
0
  6
Continuous
100
AcDbLine
 10
574.1108488999998
 20
315.7633539546677
 30
0.0
 11
574.1108488999998
 21
298.4633547546682
 31
0.0
  0
LINE
  5
24AA
330
21CC
100
AcDbEntity
  8
0
  6
Continuous
 62
     7
100
AcDbLine
 10
577.1500006000005
 20
290.1133543546675
 30
0.0
 11
574.1108488999998
 21
298.4633547546682
 31
0.0
  0
LINE
  5
24AB
330
21CC
100
AcDbEntity
  8
0
  6
Continuous
 62
     7
100
AcDbLine
 10
580.0
 20
290.1133543546675
 30
0.0
 11
577.1500006000005
 21
290.1133543546675
 31
0.0
  0
LINE
  5
24AC
330
21CC
100
AcDbEntity
  8
0
100
AcDbLine
 10
463.9999999999999
 20
395.7133453546676
 30
0.0
 11
536.0
 21
395.7133453546676
 31
0.0
  0
LINE
  5
24AD
330
21CC
100
AcDbEntity
  8
0
100
AcDbLine
 10
538.0
 20
371.8633543546675
 30
0.0
 11
462.0
 21
371.8633543546675
 31
0.0
  0
LINE
  5
24AE
330
21CC
100
AcDbEntity
  8
0
100
AcDbLine
 10
538.0
 20
386.3633543546675
 30
0.0
 11
462.0
 21
386.3633543546675
 31
0.0
  0
LINE
  5
24AF
330
21CC
100
AcDbEntity
  8
0
100
AcDbLine
 10
538.0
 20
316.8633543546675
 30
0.0
 11
462.0
 21
316.8633543546675
 31
0.0
  0
LINE
  5
24B0
330
21CC
100
AcDbEntity
  8
0
100
AcDbLine
 10
538.0
 20
331.3633543546675
 30
0.0
 11
462.0
 21
331.3633543546675
 31
0.0
  0
LINE
  5
24B1
330
21CC
100
AcDbEntity
  8
0
100
AcDbLine
 10
538.0
 20
282.8633543546675
 30
0.0
 11
462.0
 21
282.8633543546675
 31
0.0
  0
LINE
  5
24B2
330
21CC
100
AcDbEntity
  8
0
100
AcDbLine
 10
538.0
 20
297.3633543546675
 30
0.0
 11
462.0
 21
297.3633543546675
 31
0.0
  0
LINE
  5
24B3
330
21CC
100
AcDbEntity
  8
0
100
AcDbLine
 10
473.0
 20
371.8633543546675
 30
0.0
 11
473.0
 21
331.3633543546675
 31
0.0
  0
LINE
  5
24B4
330
21CC
100
AcDbEntity
  8
0
  6
Continuous
 62
     7
100
AcDbLine
 10
482.9999999999999
 20
218.9633537546669
 30
0.0
 11
491.3500004000005
 21
222.0025054546677
 31
0.0
  0
LINE
  5
24B5
330
21CC
100
AcDbEntity
  8
0
  6
Continuous
 62
     7
100
AcDbLine
 10
517.0000000000003
 20
218.9633537546669
 30
0.0
 11
508.6499996000001
 21
222.0025054546677
 31
0.0
  0
LINE
  5
24B6
330
21CC
100
AcDbEntity
  8
0
  6
Continuous
 62
     7
100
AcDbLine
 10
517.0000000000003
 20
216.1133543546675
 30
0.0
 11
482.9999999999999
 21
216.1133543546675
 31
0.0
  0
LINE
  5
24B7
330
21CC
100
AcDbEntity
  8
0
  6
Continuous
 62
     7
100
AcDbLine
 10
482.9999999999999
 20
216.1133543546675
 30
0.0
 11
482.9999999999999
 21
218.9633537546669
 31
0.0
  0
LINE
  5
24B8
330
21CC
100
AcDbEntity
  8
0
  6
Continuous
 62
     7
100
AcDbLine
 10
517.0000000000003
 20
216.1133543546675
 30
0.0
 11
517.0000000000003
 21
218.9633537546669
 31
0.0
  0
LINE
  5
24B9
330
21CC
100
AcDbEntity
  8
0
  6
Continuous
100
AcDbLine
 10
491.3500004000005
 20
222.0025054546677
 30
0.0
 11
508.6499996000001
 21
222.0025054546677
 31
0.0
  0
LINE
  5
24BA
330
21CC
100
AcDbEntity
  8
0
100
AcDbLine
 10
473.0
 20
316.8633543546675
 30
0.0
 11
473.0
 21
297.3633543546675
 31
0.0
  0
LINE
  5
24BB
330
21CC
100
AcDbEntity
  8
0
  6
Continuous
 62
     7
100
AcDbLine
 10
508.6499996000001
 20
222.0025054546677
 30
0.0
 11
508.6499996000001
 21
243.8146485774904
 31
0.0
  0
LINE
  5
24BC
330
21CC
100
AcDbEntity
  8
0
  6
Continuous
 62
     7
100
AcDbLine
 10
491.3500004000005
 20
222.0025054546677
 30
0.0
 11
491.3500004000005
 21
243.8146485774901
 31
0.0
  0
LINE
  5
24BD
330
21CC
100
AcDbEntity
  8
0
100
AcDbLine
 10
462.0
 20
316.8633543546675
 30
0.0
 11
462.0
 21
331.3633543546675
 31
0.0
  0
LINE
  5
24BE
330
21CC
100
AcDbEntity
  8
0
100
AcDbLine
 10
462.0
 20
297.3633543546675
 30
0.0
 11
462.0
 21
282.8633543546675
 31
0.0
  0
LINE
  5
24BF
330
21CC
100
AcDbEntity
  8
0
100
AcDbLine
 10
473.0
 20
395.7133453546676
 30
0.0
 11
473.0
 21
386.4336210546675
 31
0.0
  0
LINE
  5
24C0
330
21CC
100
AcDbEntity
  8
0
100
AcDbLine
 10
462.0
 20
371.8633543546675
 30
0.0
 11
462.0
 21
386.3633543546675
 31
0.0
  0
LINE
  5
24C1
330
21CC
100
AcDbEntity
  8
0
100
AcDbLine
 10
527.0
 20
371.8633543546675
 30
0.0
 11
527.0
 21
331.3633543546675
 31
0.0
  0
LINE
  5
24C2
330
21CC
100
AcDbEntity
  8
0
100
AcDbLine
 10
527.0
 20
316.8633543546675
 30
0.0
 11
527.0
 21
297.3633543546675
 31
0.0
  0
LINE
  5
24C3
330
21CC
100
AcDbEntity
  8
0
100
AcDbLine
 10
538.0
 20
316.8633543546675
 30
0.0
 11
538.0
 21
331.3633543546675
 31
0.0
  0
LINE
  5
24C6
330
21CC
100
AcDbEntity
  8
0
100
AcDbLine
 10
538.0
 20
297.3633543546675
 30
0.0
 11
538.0
 21
282.8633543546675
 31
0.0
  0
LINE
  5
24C8
330
21CC
100
AcDbEntity
  8
0
  6
Continuous
 62
     7
100
AcDbLine
 10
580.0
 20
324.113354354668
 30
0.0
 11
577.1500006000005
 21
324.113354354668
 31
0.0
  0
LINE
  5
24C9
330
21CC
100
AcDbEntity
  8
0
100
AcDbLine
 10
527.0
 20
395.7133453546676
 30
0.0
 11
527.0
 21
386.4336210546675
 31
0.0
  0
LINE
  5
24CA
330
21CC
100
AcDbEntity
  8
0
100
AcDbLine
 10
538.0
 20
371.8633543546675
 30
0.0
 11
538.0
 21
386.3633543546675
 31
0.0
  0
LINE
  5
24D1
330
21CC
100
AcDbEntity
  8
0
100
AcDbLine
 10
510.0000020000006
 20
614.2133543546679
 30
0.0
 11
510.0000020000006
 21
637.2133743546678
 31
0.0
  0
LINE
  5
24D2
330
21CC
100
AcDbEntity
  8
0
100
AcDbLine
 10
490.0000010000003
 20
614.2133543546679
 30
0.0
 11
490.0000010000003
 21
637.2133743546678
 31
0.0
  0
LINE
  5
24D3
330
21CC
100
AcDbEntity
  8
0
100
AcDbLine
 10
486.5
 20
607.9224343546679
 30
0.0
 11
450.5848860000005
 21
604.7802643546678
 31
0.0
  0
LINE
  5
24D4
330
21CC
100
AcDbEntity
  8
0
100
AcDbLine
 10
542.4999960000004
 20
486.2133543546678
 30
0.0
 11
457.5
 21
486.2133543546678
 31
0.0
  0
LINE
  5
24D5
330
21CC
100
AcDbEntity
  8
0
100
AcDbLine
 10
535.9999980000005
 20
486.2133443546676
 30
0.0
 11
463.9999980000003
 21
486.2133443546676
 31
0.0
  0
LINE
  5
24D6
330
21CC
100
AcDbEntity
  8
0
100
AcDbLine
 10
450.5848850000002
 20
604.7802743546681
 30
0.0
 11
446.0
 21
539.2133553546678
 31
0.0
  0
LINE
  5
24D7
330
21CC
100
AcDbEntity
  8
0
100
AcDbLine
 10
445.9999989999996
 20
506.1319553546677
 30
0.0
 11
457.5000060000002
 21
486.2133577372315
 31
0.0
  0
LINE
  5
24D8
330
21CC
100
AcDbEntity
  8
0
100
AcDbLine
 10
446.0
 20
539.2133543546679
 30
0.0
 11
446.0
 21
506.1319543546678
 31
0.0
  0
LINE
  5
24D9
330
21CC
100
AcDbEntity
  8
0
100
AcDbLine
 10
549.4151149999997
 20
604.7802743546681
 30
0.0
 11
554.0
 21
539.2133553546678
 31
0.0
  0
LINE
  5
24DE
330
21CC
100
AcDbEntity
  8
0
100
AcDbLine
 10
554.0000010000003
 20
506.1319553546677
 30
0.0
 11
542.4999950000001
 21
486.2133593890439
 31
0.0
  0
LINE
  5
24DF
330
21CC
100
AcDbEntity
  8
0
100
AcDbLine
 10
554.0
 20
539.2133543546679
 30
0.0
 11
554.0
 21
506.1319543546678
 31
0.0
  0
LINE
  5
24E0
330
21CC
100
AcDbEntity
  8
0
100
AcDbLine
 10
513.4999999999999
 20
607.9224343546679
 30
0.0
 11
549.4151139999994
 21
604.7802643546678
 31
0.0
  0
LINE
  5
24E1
330
21CC
100
AcDbEntity
  8
0
100
AcDbLine
 10
513.4999999999999
 20
613.2133543546679
 30
0.0
 11
513.4999999999999
 21
612.3509743546678
 31
0.0
  0
LINE
  5
24E2
330
21CC
100
AcDbEntity
  8
0
100
AcDbLine
 10
513.4999999999999
 20
614.2133543546679
 30
0.0
 11
513.4999999999999
 21
607.9224343546679
 31
0.0
  0
LINE
  5
24E4
330
21CC
100
AcDbEntity
  8
0
100
AcDbLine
 10
486.5
 20
613.2133443546677
 30
0.0
 11
486.5
 21
612.3509643546681
 31
0.0
  0
LINE
  5
24E5
330
21CC
100
AcDbEntity
  8
0
100
AcDbLine
 10
486.5
 20
614.2133543546679
 30
0.0
 11
486.5
 21
607.9224343546679
 31
0.0
  0
LINE
  5
24E6
330
21CC
100
AcDbEntity
  8
0
100
AcDbLine
 10
513.4999999999999
 20
614.2133543546679
 30
0.0
 11
486.5
 21
614.2133543546679
 31
0.0
  0
LINE
  5
24E7
330
21CC
100
AcDbEntity
  8
0
100
AcDbLine
 10
513.4999999999999
 20
607.9224343546679
 30
0.0
 11
486.5
 21
607.9224343546679
 31
0.0
  0
LINE
  5
24E9
330
21CC
100
AcDbEntity
  8
0
100
AcDbLine
 10
510.0000020000006
 20
637.2133743546678
 30
0.0
 11
490.0000010000003
 21
637.2133743546678
 31
0.0
  0
LINE
  5
24EA
330
21CC
100
AcDbEntity
  8
0
  6
Continuous
 62
     7
100
AcDbLine
 10
422.8500008999999
 20
862.2854630184638
 30
0.0
 11
425.8891526000006
 21
853.935462618463
 31
0.0
  0
LINE
  5
24EB
330
21CC
100
AcDbEntity
  8
0
  6
Continuous
 62
     7
100
AcDbLine
 10
422.8500008999999
 20
828.2854630184633
 30
0.0
 11
425.8891526000006
 21
836.6354634184636
 31
0.0
  0
LINE
  5
24EC
330
21CC
100
AcDbEntity
  8
0
  6
Continuous
 62
     7
100
AcDbLine
 10
420.0000015000004
 20
828.2854630184633
 30
0.0
 11
420.0000015000004
 21
862.2854630184638
 31
0.0
  0
LINE
  5
24ED
330
21CC
100
AcDbEntity
  8
0
  6
Continuous
 62
     7
100
AcDbLine
 10
420.0000015000004
 20
862.2854630184638
 30
0.0
 11
422.8500008999999
 21
862.2854630184638
 31
0.0
  0
LINE
  5
24EE
330
21CC
100
AcDbEntity
  8
0
  6
Continuous
 62
     7
100
AcDbLine
 10
420.0000015000004
 20
828.2854630184633
 30
0.0
 11
422.8500008999999
 21
828.2854630184633
 31
0.0
  0
LINE
  5
24EF
330
21CC
100
AcDbEntity
  8
0
  6
Continuous
100
AcDbLine
 10
425.8891526000006
 20
853.935462618463
 30
0.0
 11
425.8891526000006
 21
836.6354634184636
 31
0.0
  0
LINE
  5
24F0
330
21CC
100
AcDbEntity
  8
0
  6
Continuous
 62
     7
100
AcDbLine
 10
425.8891526000006
 20
853.935462618463
 30
0.0
 11
446.6973045051954
 21
853.935462618463
 31
0.0
  0
LINE
  5
24F1
330
21CC
100
AcDbEntity
  8
0
  6
Continuous
 62
     7
100
AcDbLine
 10
425.8891526000006
 20
836.6354634184636
 30
0.0
 11
446.6973045051954
 21
836.6354634184636
 31
0.0
  0
CIRCLE
  5
24F2
330
21CC
100
AcDbEntity
  8
0
100
AcDbCircle
 10
500.0000015000004
 20
845.2854630184639
 30
0.0
 40
13.5
  0
CIRCLE
  5
24F5
330
21CC
100
AcDbEntity
  8
0
100
AcDbCircle
 10
500.0000015000004
 20
845.2854630184639
 30
0.0
 40
9.999999
  0
LINE
  5
24F6
330
21CC
100
AcDbEntity
  8
0
  6
Continuous
100
AcDbLine
 10
574.1108504000003
 20
836.635463418464
 30
0.0
 11
574.1108504000003
 21
853.9354626184636
 31
0.0
  0
LINE
  5
24F7
330
21CC
100
AcDbEntity
  8
0
  6
Continuous
 62
     7
100
AcDbLine
 10
574.1108504000003
 20
836.635463418464
 30
0.0
 11
553.3026984948056
 21
836.6354634184645
 31
0.0
  0
LINE
  5
24F8
330
21CC
100
AcDbEntity
  8
0
  6
Continuous
 62
     7
100
AcDbLine
 10
574.1108504000003
 20
853.9354626184636
 30
0.0
 11
553.3026984948056
 21
853.9354626184641
 31
0.0
  0
LINE
  5
24F9
330
21CC
100
AcDbEntity
  8
0
  6
Continuous
 62
     7
100
AcDbLine
 10
580.0000015000005
 20
862.2854630184638
 30
0.0
 11
580.0000015000005
 21
828.2854630184633
 31
0.0
  0
LINE
  5
24FA
330
21CC
100
AcDbEntity
  8
0
  6
Continuous
 62
     7
100
AcDbLine
 10
580.0000015000005
 20
828.2854630184633
 30
0.0
 11
577.1500021000011
 21
828.2854630184633
 31
0.0
  0
LINE
  5
24FB
330
21CC
100
AcDbEntity
  8
0
  6
Continuous
 62
     7
100
AcDbLine
 10
580.0000015000005
 20
862.2854630184638
 30
0.0
 11
577.1500021000011
 21
862.2854630184638
 31
0.0
  0
LINE
  5
24FC
330
21CC
100
AcDbEntity
  8
0
  6
Continuous
 62
     7
100
AcDbLine
 10
577.1500021000011
 20
828.2854630184633
 30
0.0
 11
574.1108504000003
 21
836.635463418464
 31
0.0
  0
LINE
  5
24FD
330
21CC
100
AcDbEntity
  8
0
  6
Continuous
 62
     7
100
AcDbLine
 10
577.1500021000011
 20
862.2854630184638
 30
0.0
 11
574.1108504000003
 21
853.9354626184636
 31
0.0
  0
LINE
  5
262D
330
21CC
100
AcDbEntity
  8
0
  6
Continuous
100
AcDbLine
 10
463.9999980000003
 20
486.2133443546676
 30
0.0
 11
463.9999999999999
 21
395.7133453546676
 31
0.0
  0
LINE
  5
262E
330
21CC
100
AcDbEntity
  8
0
  6
Continuous
100
AcDbLine
 10
535.9999980000005
 20
486.2133443546676
 30
0.0
 11
536.0
 21
395.7133453546676
 31
0.0
  0
LINE
  5
2681
330
21CC
100
AcDbEntity
  8
0
100
AcDbLine
 10
491.3500004000005
 20
243.8146485774901
 30
0.0
 11
477.478797
 21
248.8633543546675
 31
0.0
  0
LINE
  5
2682
330
21CC
100
AcDbEntity
  8
0
100
AcDbLine
 10
508.6499996000001
 20
243.8146485774904
 30
0.0
 11
522.521203
 21
248.8633543546675
 31
0.0
  0
LINE
  5
2687
330
21CC
100
AcDbEntity
  8
0
  6
Continuous
 62
     7
100
AcDbLine
 10
420.0
 20
256.113354354667
 30
0.0
 11
420.0
 21
290.1133543546675
 31
0.0
  0
LINE
  5
2688
330
21CC
100
AcDbEntity
  8
0
  6
Continuous
 62
     7
100
AcDbLine
 10
422.8499993999994
 20
290.1133543546675
 30
0.0
 11
425.8891511000001
 21
281.7633539546668
 31
0.0
  0
LINE
  5
2689
330
21CC
100
AcDbEntity
  8
0
  6
Continuous
100
AcDbLine
 10
425.8891511000001
 20
281.7633539546668
 30
0.0
 11
425.8891511000001
 21
264.4633547546673
 31
0.0
  0
LINE
  5
268A
330
21CC
100
AcDbEntity
  8
0
  6
Continuous
 62
     7
100
AcDbLine
 10
422.8499993999994
 20
256.113354354667
 30
0.0
 11
425.8891511000001
 21
264.4633547546673
 31
0.0
  0
LINE
  5
268B
330
21CC
100
AcDbEntity
  8
0
  6
Continuous
 62
     7
100
AcDbLine
 10
420.0
 20
256.113354354667
 30
0.0
 11
422.8499993999994
 21
256.113354354667
 31
0.0
  0
LINE
  5
268C
330
21CC
100
AcDbEntity
  8
0
  6
Continuous
 62
     7
100
AcDbLine
 10
420.0
 20
290.1133543546675
 30
0.0
 11
422.8499993999994
 21
290.1133543546675
 31
0.0
  0
LINE
  5
268D
330
21CC
100
AcDbEntity
  8
0
  6
Continuous
 62
     7
100
AcDbLine
 10
425.8891511000001
 20
281.7633539546668
 30
0.0
 11
473.0
 21
281.7633539546668
 31
0.0
  0
LINE
  5
268E
330
21CC
100
AcDbEntity
  8
0
  6
Continuous
 62
     7
100
AcDbLine
 10
425.8891511000001
 20
264.4633547546673
 30
0.0
 11
473.0
 21
264.4633547546673
 31
0.0
  0
LINE
  5
2690
330
21CC
100
AcDbEntity
  8
0
  6
Continuous
100
AcDbLine
 10
491.3500004000005
 20
243.8146485774901
 30
0.0
 11
508.6499996000001
 21
243.8146485774904
 31
0.0
  0
LINE
  5
26CB
330
21CC
100
AcDbEntity
  8
0
100
AcDbLine
 10
538.0
 20
248.8633543546675
 30
0.0
 11
462.0
 21
248.8633543546675
 31
0.0
  0
LINE
  5
26CC
330
21CC
100
AcDbEntity
  8
0
100
AcDbLine
 10
462.0
 20
263.3633543546675
 30
0.0
 11
462.0
 21
248.8633543546675
 31
0.0
  0
LINE
  5
26CD
330
21CC
100
AcDbEntity
  8
0
100
AcDbLine
 10
538.0
 20
263.3633543546675
 30
0.0
 11
538.0
 21
248.8633543546675
 31
0.0
  0
LINE
  5
26CE
330
21CC
100
AcDbEntity
  8
0
100
AcDbLine
 10
538.0
 20
263.3633543546675
 30
0.0
 11
462.0
 21
263.3633543546675
 31
0.0
  0
LINE
  5
26CF
330
21CC
100
AcDbEntity
  8
0
100
AcDbLine
 10
473.0
 20
282.8633543546675
 30
0.0
 11
473.0
 21
263.3633543546675
 31
0.0
  0
LINE
  5
26D0
330
21CC
100
AcDbEntity
  8
0
100
AcDbLine
 10
527.0
 20
282.8633543546675
 30
0.0
 11
527.0
 21
263.3633543546675
 31
0.0
  0
LINE
  5
27BA
330
21CC
100
AcDbEntity
  8
0
  6
CENTER
100
AcDbLine
 10
539.6230611536294
 20
273.1133543546677
 30
0.0
 11
404.9007821159454
 21
273.1133543546677
 31
0.0
  0
LINE
  5
27BB
330
21CC
100
AcDbEntity
  8
0
  6
CENTER
100
AcDbLine
 10
595.0992148840526
 20
307.1133543546673
 30
0.0
 11
461.2044541368097
 21
307.1133543546673
 31
0.0
  0
LINE
  5
27BC
330
21CC
100
AcDbEntity
  8
0
  6
CENTER
100
AcDbLine
 10
499.999998499999
 20
200.2744807246499
 30
0.0
 11
499.999998499999
 21
656.5074047612833
 31
0.0
  0
LINE
  5
27BD
330
21CC
100
AcDbEntity
  8
0
  6
CENTER
100
AcDbLine
 10
404.900783615946
 20
845.2854630184639
 30
0.0
 11
595.0992163840531
 21
845.2854630184639
 31
0.0
  0
LINE
  5
27BE
330
21CC
100
AcDbEntity
  8
0
  6
CENTER
100
AcDbLine
 10
499.9999999999996
 20
781.6075152594462
 30
0.0
 11
499.9999999999996
 21
908.9634107774813
 31
0.0
  0
ENDSEC
  0
SECTION
  2
OBJECTS
  0
DICTIONARY
  5
21BA
330
0
100
AcDbDictionary
281
     1
  3
ACAD_GROUP
350
21BB
  3
ACAD_LAYOUT
350
21C7
  3
ACAD_MLINESTYLE
350
21C4
  3
ACAD_PLOTSETTINGS
350
21C6
  3
ACAD_PLOTSTYLENAME
350
21BC
  3
AcDbVariableDictionary
350
2238
  3
DWGPROPS
350
2691
  0
DICTIONARY
  5
27AF
330
21B0
100
AcDbDictionary
280
     1
281
     1
  3
ACAD_LAYERSTATES
360
27B0
  0
DICTIONARY
  5
21F8
330
21CC
100
AcDbDictionary
280
     1
281
     1
  3
ACAD_LAYOUTSELFREF
360
27A5
  0
DICTIONARY
  5
21FA
330
21C8
100
AcDbDictionary
280
     1
281
     1
  3
ACAD_LAYOUTSELFREF
360
27A4
  0
DICTIONARY
  5
21BB
102
{ACAD_REACTORS
330
21BA
102
}
330
21BA
100
AcDbDictionary
281
     1
  0
DICTIONARY
  5
21C7
102
{ACAD_REACTORS
330
21BA
102
}
330
21BA
100
AcDbDictionary
281
     1
  3
Model
350
21CF
  3
ﾚｲｱｳﾄ1
350
21CB
  0
DICTIONARY
  5
21C4
102
{ACAD_REACTORS
330
21BA
102
}
330
21BA
100
AcDbDictionary
281
     1
  3
Standard
350
21C5
  0
DICTIONARY
  5
21C6
102
{ACAD_REACTORS
330
21BA
102
}
330
21BA
100
AcDbDictionary
281
     1
  0
ACDBDICTIONARYWDFLT
  5
21BC
102
{ACAD_REACTORS
330
21BA
102
}
330
21BA
100
AcDbDictionary
281
     1
  3
Normal
350
21BD
100
AcDbDictionaryWithDefault
340
21BD
  0
DICTIONARY
  5
2238
102
{ACAD_REACTORS
330
21BA
102
}
330
21BA
100
AcDbDictionary
281
     1
  3
DIMASSOC
350
2239
  0
XRECORD
  5
2691
102
{ACAD_REACTORS
330
21BA
102
}
330
21BA
100
AcDbXrecord
280
     1
  1
DWGPROPS COOKIE
  2

  3

  4

  6

  7

  8
mg
  9

300
=
301
=
302
=
303
=
304
=
305
=
306
=
307
=
308
=
309
=
 40
0.2834438078703703
 41
2452488.423138738
 42
2452754.7431089
  1

 90
        0
  0
DICTIONARY
  5
27B0
102
{ACAD_REACTORS
330
27AF
102
}
330
27AF
100
AcDbDictionary
281
     1
  0
XRECORD
  5
27A5
102
{ACAD_REACTORS
330
21F8
102
}
330
21F8
100
AcDbXrecord
280
     1
340
21CC
  0
XRECORD
  5
27A4
102
{ACAD_REACTORS
330
21FA
102
}
330
21FA
100
AcDbXrecord
280
     1
340
21C8
  0
LAYOUT
  5
21CF
102
{ACAD_REACTORS
330
21C7
102
}
330
21C7
100
AcDbPlotSettings
  1

  2
SII LP-2150 (D-SCAN C2)
  4

  6

 40
0.0
 41
0.0
 42
0.0
 43
0.0
 44
0.0
 45
0.0
 46
0.0
 47
0.0
 48
0.0
 49
0.0
140
0.0
141
0.0
142
1.0
143
1.0
 70
  1712
 72
     0
 73
     0
 74
     0
  7

 75
     0
147
1.0
148
0.0
149
0.0
100
AcDbLayout
  1
Model
 70
     1
 71
     0
 10
0.0
 20
0.0
 11
12.0
 21
9.0
 12
0.0
 22
0.0
 32
0.0
 14
0.0
 24
0.0
 34
0.0
 15
0.0
 25
0.0
 35
0.0
146
0.0
 13
0.0
 23
0.0
 33
0.0
 16
1.0
 26
0.0
 36
0.0
 17
0.0
 27
1.0
 37
0.0
 76
     0
330
21CC
  0
LAYOUT
  5
21CB
102
{ACAD_REACTORS
330
21C7
102
}
330
21C7
100
AcDbPlotSettings
  1

  2
SII LP-2150 (D-SCAN C2)
  4

  6

 40
0.0
 41
0.0
 42
0.0
 43
0.0
 44
0.0
 45
0.0
 46
0.0
 47
0.0
 48
0.0
 49
0.0
140
0.0
141
0.0
142
1.0
143
1.0
 70
   688
 72
     0
 73
     0
 74
     5
  7

 75
    16
147
1.0
148
0.0
149
0.0
100
AcDbLayout
  1
ﾚｲｱｳﾄ1
 70
     1
 71
     1
 10
0.0
 20
0.0
 11
12.0
 21
9.0
 12
0.0
 22
0.0
 32
0.0
 14
1.000000000000000E+20
 24
1.000000000000000E+20
 34
1.000000000000000E+20
 15
-1.000000000000000E+20
 25
-1.000000000000000E+20
 35
-1.000000000000000E+20
146
0.0
 13
0.0
 23
0.0
 33
0.0
 16
1.0
 26
0.0
 36
0.0
 17
0.0
 27
1.0
 37
0.0
 76
     0
330
21C8
  0
MLINESTYLE
  5
21C5
102
{ACAD_REACTORS
330
21C4
102
}
330
21C4
100
AcDbMlineStyle
  2
STANDARD
 70
     0
  3

 62
   256
 51
90.0
 52
90.0
 71
     2
 49
0.5
 62
   256
  6
BYLAYER
 49
-0.5
 62
   256
  6
BYLAYER
  0
ACDBPLACEHOLDER
  5
21BD
102
{ACAD_REACTORS
330
21BC
102
}
330
21BC
  0
DICTIONARYVAR
  5
2239
102
{ACAD_REACTORS
330
2238
102
}
330
2238
100
DictionaryVariables
280
     0
  1
1
  0
ENDSEC
  0
EOF
