  0
SECTION
  2
HEADER
  9
$ACADVER
  1
AC1015
  9
$ACADMAINTVER
 70
    14
  9
$DWGCODEPAGE
  3
ANSI_932
  9
$INSBASE
 10
0.0
 20
0.0
 30
0.0
  9
$EXTMIN
 10
342.9512057224164
 20
94.49841605493658
 30
-0.0000000349181948
  9
$EXTMAX
 10
1258.262103499148
 20
1170.080676379736
 30
0.0000000814935746
  9
$LIMMIN
 10
0.0
 20
0.0
  9
$LIMMAX
 10
12.0
 20
9.0
  9
$ORTHOMODE
 70
     0
  9
$REGENMODE
 70
     1
  9
$FILLMODE
 70
     1
  9
$QTEXTMODE
 70
     0
  9
$MIRRTEXT
 70
     1
  9
$LTSCALE
 40
1.0
  9
$ATTMODE
 70
     1
  9
$TEXTSIZE
 40
0.2
  9
$TRACEWID
 40
0.05
  9
$TEXTSTYLE
  7
STANDARD
  9
$CLAYER
  8
0
  9
$CELTYPE
  6
CONTINUOUS
  9
$CECOLOR
 62
   256
  9
$CELTSCALE
 40
1.0
  9
$DISPSILH
 70
     0
  9
$DIMSCALE
 40
1.0
  9
$DIMASZ
 40
1.0
  9
$DIMEXO
 40
2.54
  9
$DIMDLI
 40
0.38
  9
$DIMRND
 40
0.0
  9
$DIMDLE
 40
0.0
  9
$DIMEXE
 40
2.54
  9
$DIMTP
 40
0.0
  9
$DIMTM
 40
0.0
  9
$DIMTXT
 40
3.2
  9
$DIMCEN
 40
0.09
  9
$DIMTSZ
 40
0.0
  9
$DIMTOL
 70
     0
  9
$DIMLIM
 70
     0
  9
$DIMTIH
 70
     0
  9
$DIMTOH
 70
     0
  9
$DIMSE1
 70
     0
  9
$DIMSE2
 70
     0
  9
$DIMTAD
 70
     1
  9
$DIMZIN
 70
     0
  9
$DIMBLK
  1

  9
$DIMASO
 70
     1
  9
$DIMSHO
 70
     0
  9
$DIMPOST
  1

  9
$DIMAPOST
  1

  9
$DIMALT
 70
     0
  9
$DIMALTD
 70
     2
  9
$DIMALTF
 40
25.4
  9
$DIMLFAC
 40
1.0
  9
$DIMTOFL
 70
     0
  9
$DIMTVP
 40
1.0
  9
$DIMTIX
 70
     0
  9
$DIMSOXD
 70
     0
  9
$DIMSAH
 70
     1
  9
$DIMBLK1
  1

  9
$DIMBLK2
  1

  9
$DIMSTYLE
  2
STANDARD
  9
$DIMCLRD
 70
     0
  9
$DIMCLRE
 70
     0
  9
$DIMCLRT
 70
     0
  9
$DIMTFAC
 40
1.0
  9
$DIMGAP
 40
1.6
  9
$DIMJUST
 70
     0
  9
$DIMSD1
 70
     0
  9
$DIMSD2
 70
     0
  9
$DIMTOLJ
 70
     1
  9
$DIMTZIN
 70
     0
  9
$DIMALTZ
 70
     0
  9
$DIMALTTZ
 70
     0
  9
$DIMUPT
 70
     0
  9
$DIMDEC
 70
     4
  9
$DIMTDEC
 70
     4
  9
$DIMALTU
 70
     2
  9
$DIMALTTD
 70
     2
  9
$DIMTXSTY
  7
STANDARD
  9
$DIMAUNIT
 70
     0
  9
$DIMADEC
 70
     0
  9
$DIMALTRND
 40
0.0
  9
$DIMAZIN
 70
     0
  9
$DIMDSEP
 70
    46
  9
$DIMATFIT
 70
     3
  9
$DIMFRAC
 70
     0
  9
$DIMLDRBLK
  1

  9
$DIMLUNIT
 70
     2
  9
$DIMLWD
 70
    -2
  9
$DIMLWE
 70
    -2
  9
$DIMTMOVE
 70
     0
  9
$LUNITS
 70
     2
  9
$LUPREC
 70
     4
  9
$SKETCHINC
 40
0.1
  9
$FILLETRAD
 40
0.0
  9
$AUNITS
 70
     0
  9
$AUPREC
 70
     0
  9
$MENU
  1
.
  9
$ELEVATION
 40
0.0
  9
$PELEVATION
 40
0.0
  9
$THICKNESS
 40
0.0
  9
$LIMCHECK
 70
     0
  9
$CHAMFERA
 40
0.0
  9
$CHAMFERB
 40
0.0
  9
$CHAMFERC
 40
0.0
  9
$CHAMFERD
 40
0.0
  9
$SKPOLY
 70
     0
  9
$TDCREATE
 40
2452488.423138738
  9
$TDUCREATE
 40
2452488.048138738
  9
$TDUPDATE
 40
2456899.679955660
  9
$TDUUPDATE
 40
2456899.304955659
  9
$TDINDWG
 40
0.2844369560
  9
$TDUSRTIMER
 40
0.2844367708
  9
$USRTIMER
 70
     1
  9
$ANGBASE
 50
0.0
  9
$ANGDIR
 70
     0
  9
$PDMODE
 70
     3
  9
$PDSIZE
 40
0.0
  9
$PLINEWID
 40
0.0
  9
$SPLFRAME
 70
     0
  9
$SPLINETYPE
 70
     6
  9
$SPLINESEGS
 70
     8
  9
$HANDSEED
  5
2B12
  9
$SURFTAB1
 70
     6
  9
$SURFTAB2
 70
     6
  9
$SURFTYPE
 70
     6
  9
$SURFU
 70
     6
  9
$SURFV
 70
     6
  9
$UCSBASE
  2

  9
$UCSNAME
  2

  9
$UCSORG
 10
0.0
 20
0.0
 30
0.0
  9
$UCSXDIR
 10
1.0
 20
0.0
 30
0.0
  9
$UCSYDIR
 10
0.0
 20
1.0
 30
0.0
  9
$UCSORTHOREF
  2

  9
$UCSORTHOVIEW
 70
     0
  9
$UCSORGTOP
 10
0.0
 20
0.0
 30
0.0
  9
$UCSORGBOTTOM
 10
0.0
 20
0.0
 30
0.0
  9
$UCSORGLEFT
 10
0.0
 20
0.0
 30
0.0
  9
$UCSORGRIGHT
 10
0.0
 20
0.0
 30
0.0
  9
$UCSORGFRONT
 10
0.0
 20
0.0
 30
0.0
  9
$UCSORGBACK
 10
0.0
 20
0.0
 30
0.0
  9
$PUCSBASE
  2

  9
$PUCSNAME
  2

  9
$PUCSORG
 10
0.0
 20
0.0
 30
0.0
  9
$PUCSXDIR
 10
1.0
 20
0.0
 30
0.0
  9
$PUCSYDIR
 10
0.0
 20
1.0
 30
0.0
  9
$PUCSORTHOREF
  2

  9
$PUCSORTHOVIEW
 70
     0
  9
$PUCSORGTOP
 10
0.0
 20
0.0
 30
0.0
  9
$PUCSORGBOTTOM
 10
0.0
 20
0.0
 30
0.0
  9
$PUCSORGLEFT
 10
0.0
 20
0.0
 30
0.0
  9
$PUCSORGRIGHT
 10
0.0
 20
0.0
 30
0.0
  9
$PUCSORGFRONT
 10
0.0
 20
0.0
 30
0.0
  9
$PUCSORGBACK
 10
0.0
 20
0.0
 30
0.0
  9
$USERI1
 70
     0
  9
$USERI2
 70
     0
  9
$USERI3
 70
     0
  9
$USERI4
 70
     0
  9
$USERI5
 70
     0
  9
$USERR1
 40
0.0
  9
$USERR2
 40
0.0
  9
$USERR3
 40
0.0
  9
$USERR4
 40
0.0
  9
$USERR5
 40
0.0
  9
$WORLDVIEW
 70
     1
  9
$SHADEDGE
 70
     3
  9
$SHADEDIF
 70
    70
  9
$TILEMODE
 70
     1
  9
$MAXACTVP
 70
    48
  9
$PINSBASE
 10
0.0
 20
0.0
 30
0.0
  9
$PLIMCHECK
 70
     0
  9
$PEXTMIN
 10
1.000000000000000E+20
 20
1.000000000000000E+20
 30
1.000000000000000E+20
  9
$PEXTMAX
 10
-1.000000000000000E+20
 20
-1.000000000000000E+20
 30
-1.000000000000000E+20
  9
$PLIMMIN
 10
0.0
 20
0.0
  9
$PLIMMAX
 10
12.0
 20
9.0
  9
$UNITMODE
 70
     0
  9
$VISRETAIN
 70
     1
  9
$PLINEGEN
 70
     0
  9
$PSLTSCALE
 70
     1
  9
$TREEDEPTH
 70
  3020
  9
$CMLSTYLE
  2
Standard
  9
$CMLJUST
 70
     0
  9
$CMLSCALE
 40
1.0
  9
$PROXYGRAPHICS
 70
     1
  9
$MEASUREMENT
 70
     0
  9
$CELWEIGHT
370
    -1
  9
$ENDCAPS
280
     0
  9
$JOINSTYLE
280
     0
  9
$LWDISPLAY
290
     0
  9
$INSUNITS
 70
     0
  9
$HYPERLINKBASE
  1

  9
$STYLESHEET
  1

  9
$XEDIT
290
     1
  9
$CEPSNTYPE
380
     0
  9
$PSTYLEMODE
290
     1
  9
$FINGERPRINTGUID
  2
{FFE95C04-33D2-4560-80D0-1E2918E4EC86}
  9
$VERSIONGUID
  2
{BB810465-A531-496B-AAF2-DC418DA616E6}
  9
$EXTNAMES
290
     1
  9
$PSVPSCALE
 40
0.0
  9
$OLESTARTUP
290
     0
  0
ENDSEC
  0
SECTION
  2
CLASSES
  0
CLASS
  1
ACDBDICTIONARYWDFLT
  2
AcDbDictionaryWithDefault
  3
AutoCAD 2000
 90
        0
280
     0
281
     0
  0
CLASS
  1
ACDBPLACEHOLDER
  2
AcDbPlaceHolder
  3
AutoCAD 2000
 90
        0
280
     0
281
     0
  0
CLASS
  1
LAYOUT
  2
AcDbLayout
  3
AutoCAD 2000
 90
        0
280
     0
281
     0
  0
CLASS
  1
DICTIONARYVAR
  2
AcDbDictionaryVar
  3
AutoCAD 2000
 90
        0
280
     0
281
     0
  0
CLASS
  1
LONG_TRANSACTION
  2
AcDbLongTransaction
  3
AutoCAD 2000
 90
    32768
280
     0
281
     0
  0
CLASS
  1
LWPOLYLINE
  2
AcDbPolyline
  3
AutoCAD 2000
 90
    32768
280
     0
281
     1
  0
CLASS
  1
HATCH
  2
AcDbHatch
  3
AutoCAD 2000
 90
    32768
280
     0
281
     1
  0
CLASS
  1
XRECORD
  2
AcDbXrecord
  3
AutoCAD 2000
 90
    32768
280
     0
281
     0
  0
CLASS
  1
LONG_TRANSACTION
  2
AcDbLongTransaction
  3
AutoCAD 2000
 90
    32768
280
     0
281
     0
  0
CLASS
  1
LWPOLYLINE
  2
AcDbPolyline
  3
AutoCAD 2000
 90
    32768
280
     0
281
     1
  0
CLASS
  1
HATCH
  2
AcDbHatch
  3
AutoCAD 2000
 90
    32768
280
     0
281
     1
  0
CLASS
  1
XRECORD
  2
AcDbXrecord
  3
AutoCAD 2000
 90
    32768
280
     0
281
     0
  0
CLASS
  1
LONG_TRANSACTION
  2
AcDbLongTransaction
  3
AutoCAD 2000
 90
    32768
280
     0
281
     0
  0
CLASS
  1
LWPOLYLINE
  2
AcDbPolyline
  3
AutoCAD 2000
 90
    32768
280
     0
281
     1
  0
CLASS
  1
HATCH
  2
AcDbHatch
  3
AutoCAD 2000
 90
    32768
280
     0
281
     1
  0
CLASS
  1
XRECORD
  2
AcDbXrecord
  3
AutoCAD 2000
 90
    32768
280
     0
281
     0
  0
CLASS
  1
LONG_TRANSACTION
  2
AcDbLongTransaction
  3
AutoCAD 2000
 90
    32768
280
     0
281
     0
  0
CLASS
  1
LWPOLYLINE
  2
AcDbPolyline
  3
AutoCAD 2000
 90
    32768
280
     0
281
     1
  0
CLASS
  1
HATCH
  2
AcDbHatch
  3
AutoCAD 2000
 90
    32768
280
     0
281
     1
  0
CLASS
  1
XRECORD
  2
AcDbXrecord
  3
AutoCAD 2000
 90
    32768
280
     0
281
     0
  0
CLASS
  1
LONG_TRANSACTION
  2
AcDbLongTransaction
  3
AutoCAD 2000
 90
    32768
280
     0
281
     0
  0
CLASS
  1
LWPOLYLINE
  2
AcDbPolyline
  3
AutoCAD 2000
 90
    32768
280
     0
281
     1
  0
CLASS
  1
HATCH
  2
AcDbHatch
  3
AutoCAD 2000
 90
    32768
280
     0
281
     1
  0
CLASS
  1
XRECORD
  2
AcDbXrecord
  3
AutoCAD 2000
 90
    32768
280
     0
281
     0
  0
CLASS
  1
LONG_TRANSACTION
  2
AcDbLongTransaction
  3
AutoCAD 2000
 90
    32768
280
     0
281
     0
  0
CLASS
  1
LWPOLYLINE
  2
AcDbPolyline
  3
AutoCAD 2000
 90
    32768
280
     0
281
     1
  0
CLASS
  1
HATCH
  2
AcDbHatch
  3
AutoCAD 2000
 90
    32768
280
     0
281
     1
  0
CLASS
  1
XRECORD
  2
AcDbXrecord
  3
AutoCAD 2000
 90
    32768
280
     0
281
     0
  0
CLASS
  1
LONG_TRANSACTION
  2
AcDbLongTransaction
  3
AutoCAD 2000
 90
    32768
280
     0
281
     0
  0
CLASS
  1
LWPOLYLINE
  2
AcDbPolyline
  3
AutoCAD 2000
 90
    32768
280
     0
281
     1
  0
CLASS
  1
HATCH
  2
AcDbHatch
  3
AutoCAD 2000
 90
    32768
280
     0
281
     1
  0
CLASS
  1
XRECORD
  2
AcDbXrecord
  3
AutoCAD 2000
 90
    32768
280
     0
281
     0
  0
CLASS
  1
LONG_TRANSACTION
  2
AcDbLongTransaction
  3
AutoCAD 2000
 90
    32768
280
     0
281
     0
  0
CLASS
  1
LWPOLYLINE
  2
AcDbPolyline
  3
AutoCAD 2000
 90
    32768
280
     0
281
     1
  0
CLASS
  1
HATCH
  2
AcDbHatch
  3
AutoCAD 2000
 90
    32768
280
     0
281
     1
  0
CLASS
  1
XRECORD
  2
AcDbXrecord
  3
AutoCAD 2000
 90
    32768
280
     0
281
     0
  0
ENDSEC
  0
SECTION
  2
TABLES
  0
TABLE
  2
VPORT
  5
21B6
330
0
100
AcDbSymbolTable
 70
     2
  0
VPORT
  5
2B11
330
21B6
100
AcDbSymbolTableRecord
100
AcDbViewportTableRecord
  2
*Active
 70
     0
 10
0.0
 20
0.0
 11
1.0
 21
1.0
 12
800.6066546107824
 22
632.2895462173362
 13
0.0
 23
0.0
 14
1.0
 24
1.0
 15
0.0
 25
0.0
 16
0.0
 26
0.0
 36
1.0
 17
0.0
 27
0.0
 37
0.0
 40
1082.411354041147
 41
1.592161016949152
 42
50.0
 43
0.0
 44
0.0
 50
0.0
 51
0.0
 71
     0
 72
   100
 73
     1
 74
     3
 75
     0
 76
     0
 77
     0
 78
     0
281
     0
 65
     1
110
0.0
120
0.0
130
0.0
111
1.0
121
0.0
131
0.0
112
0.0
122
1.0
132
0.0
 79
     0
146
0.0
  0
ENDTAB
  0
TABLE
  2
LTYPE
  5
21B3
330
0
100
AcDbSymbolTable
 70
     2
  0
LTYPE
  5
21C1
330
21B3
100
AcDbSymbolTableRecord
100
AcDbLinetypeTableRecord
  2
ByBlock
 70
     0
  3

 72
    65
 73
     0
 40
0.0
  0
LTYPE
  5
21C2
330
21B3
100
AcDbSymbolTableRecord
100
AcDbLinetypeTableRecord
  2
ByLayer
 70
     0
  3

 72
    65
 73
     0
 40
0.0
  0
LTYPE
  5
21C3
330
21B3
100
AcDbSymbolTableRecord
100
AcDbLinetypeTableRecord
  2
CONTINUOUS
 70
     0
  3
Solid line
 72
    65
 73
     0
 40
0.0
  0
LTYPE
  5
2AF9
330
21B3
100
AcDbSymbolTableRecord
100
AcDbLinetypeTableRecord
  2
CENTER
 70
     0
  3
__ . __
 72
    65
 73
     4
 40
7.0
 49
4.0
 74
     0
 49
-1.0
 74
     0
 49
1.0
 74
     0
 49
-1.0
 74
     0
  0
ENDTAB
  0
TABLE
  2
LAYER
  5
21B0
102
{ACAD_XDICTIONARY
360
2AFA
102
}
330
0
100
AcDbSymbolTable
 70
     1
  0
LAYER
  5
21BE
330
21B0
100
AcDbSymbolTableRecord
100
AcDbLayerTableRecord
  2
0
 70
     0
 62
     7
  6
CONTINUOUS
370
    -3
390
21BD
  0
ENDTAB
  0
TABLE
  2
STYLE
  5
21B1
330
0
100
AcDbSymbolTable
 70
     1
  0
STYLE
  5
21BF
330
21B1
100
AcDbSymbolTableRecord
100
AcDbTextStyleTableRecord
  2
STANDARD
 70
     0
 40
0.0
 41
1.0
 50
0.0
 71
     0
 42
0.2
  3
txt
  4
BIGFONT
  0
ENDTAB
  0
TABLE
  2
VIEW
  5
21B4
330
0
100
AcDbSymbolTable
 70
     1
  0
VIEW
  5
21DE
330
21B4
100
AcDbSymbolTableRecord
100
AcDbViewTableRecord
  2
OLE1
 70
     0
 40
3692.141019219747
 10
1914.591370701856
 20
1272.206200738182
 41
4595.022665841169
 11
0.0
 21
0.0
 31
1.0
 12
0.0
 22
0.0
 32
0.0
 42
50.0
 43
0.0
 44
0.0
 50
0.0
 71
     0
281
     0
 72
     1
110
0.0
120
0.0
130
0.0
111
1.0
121
0.0
131
0.0
112
0.0
122
1.0
132
0.0
 79
     0
146
0.0
  0
ENDTAB
  0
TABLE
  2
UCS
  5
21B5
330
0
100
AcDbSymbolTable
 70
     0
  0
ENDTAB
  0
TABLE
  2
APPID
  5
21B7
330
0
100
AcDbSymbolTable
 70
     5
  0
APPID
  5
21C0
330
21B7
100
AcDbSymbolTableRecord
100
AcDbRegAppTableRecord
  2
ACAD
 70
     0
  0
APPID
  5
21DF
330
21B7
100
AcDbSymbolTableRecord
100
AcDbRegAppTableRecord
  2
MCAD_NO_VIS
 70
     0
  0
APPID
  5
21E0
330
21B7
100
AcDbSymbolTableRecord
100
AcDbRegAppTableRecord
  2
ACAD_TEMP_GRAPHIC
 70
     0
  0
APPID
  5
21E1
330
21B7
100
AcDbSymbolTableRecord
100
AcDbRegAppTableRecord
  2
ACATTRIBSERVICES
 70
     0
  0
APPID
  5
21E2
330
21B7
100
AcDbSymbolTableRecord
100
AcDbRegAppTableRecord
  2
CONTENTBLOCKICON
 70
     0
  0
ENDTAB
  0
TABLE
  2
DIMSTYLE
  5
21B8
330
0
100
AcDbSymbolTable
 70
     1
100
AcDbDimStyleTable
 71
     0
  0
DIMSTYLE
105
21E3
330
21B8
100
AcDbSymbolTableRecord
100
AcDbDimStyleTableRecord
  2
STANDARD
 70
     0
279
     2
340
21BF
  0
ENDTAB
  0
TABLE
  2
BLOCK_RECORD
  5
21AF
330
0
100
AcDbSymbolTable
 70
     0
  0
BLOCK_RECORD
  5
21CC
102
{ACAD_XDICTIONARY
360
21F8
102
}
330
21AF
100
AcDbSymbolTableRecord
100
AcDbBlockTableRecord
  2
*Model_Space
340
21CF
  0
BLOCK_RECORD
  5
21C8
102
{ACAD_XDICTIONARY
360
21FA
102
}
330
21AF
100
AcDbSymbolTableRecord
100
AcDbBlockTableRecord
  2
*Paper_Space
340
21CB
  0
ENDTAB
  0
ENDSEC
  0
SECTION
  2
BLOCKS
  0
BLOCK
  5
21CD
330
21CC
100
AcDbEntity
  8
0
100
AcDbBlockBegin
  2
*Model_Space
 70
     0
 10
0.0
 20
0.0
 30
0.0
  3
*Model_Space
  1

  0
ENDBLK
  5
21CE
330
21CC
100
AcDbEntity
  8
0
100
AcDbBlockEnd
  0
BLOCK
  5
21C9
330
21C8
100
AcDbEntity
 67
     1
  8
0
100
AcDbBlockBegin
  2
*Paper_Space
 70
     0
 10
0.0
 20
0.0
 30
0.0
  3
*Paper_Space
  1

  0
ENDBLK
  5
21CA
330
21C8
100
AcDbEntity
 67
     1
  8
0
100
AcDbBlockEnd
  0
ENDSEC
  0
SECTION
  2
ENTITIES
  0
TEXT
  5
F6E
330
21CC
100
AcDbEntity
  8
0
  6
Continuous
100
AcDbText
 10
343.0311048002422
 20
1033.846959546983
 30
0.0
 40
48.000002
  1
SJC3A10MA_00 1.5S
 41
1.32095
100
AcDbText
  0
LINE
  5
276A
330
21CC
100
AcDbEntity
  8
0
100
AcDbLine
 10
801.6078187412048
 20
628.5983854766288
 30
0.0
 11
801.6078187412048
 21
595.5169854766288
 31
0.0
  0
LINE
  5
276B
330
21CC
100
AcDbEntity
  8
0
100
AcDbLine
 10
693.6078187412049
 20
628.5983854766288
 30
0.0
 11
693.6078187412049
 21
595.5169854766288
 31
0.0
  0
ARC
  5
27D0
330
21CC
100
AcDbEntity
  8
0
100
AcDbCircle
 10
737.6078492412053
 20
273.7484524766291
 30
0.0
 40
35.799999
100
AcDbArc
 50
141.3690399999954
 51
218.63095000001
  0
ARC
  5
27D1
330
21CC
100
AcDbEntity
  8
0
100
AcDbCircle
 10
757.6078492412052
 20
273.7484524766291
 30
0.0
 40
35.799999
100
AcDbArc
 50
321.3690499999898
 51
38.63096000000455
  0
LINE
  5
27D2
330
21CC
100
AcDbEntity
  8
0
  6
Continuous
 62
     7
100
AcDbLine
 10
652.714464741205
 20
292.7983964766292
 30
0.0
 11
652.714464741205
 21
254.6983994766292
 31
0.0
  0
LINE
  5
27D3
330
21CC
100
AcDbEntity
  8
0
  6
Continuous
 62
     7
100
AcDbLine
 10
647.6078492412052
 20
248.4983974766291
 30
0.0
 11
647.6078492412052
 21
298.9983974766291
 31
0.0
  0
LINE
  5
27D5
330
21CC
100
AcDbEntity
  8
0
100
AcDbLine
 10
800.1078492412052
 20
172.6983944766293
 30
0.0
 11
695.1078492412052
 21
172.6983944766293
 31
0.0
  0
LINE
  5
27D6
330
21CC
100
AcDbEntity
  8
0
100
AcDbLine
 10
800.1078492412052
 20
189.6983944766293
 30
0.0
 11
695.1078492412052
 21
189.6983944766293
 31
0.0
  0
LINE
  5
27D7
330
21CC
100
AcDbEntity
  8
0
100
AcDbLine
 10
800.1078492412052
 20
251.3983984766291
 30
0.0
 11
695.1078492412052
 21
251.3983984766291
 31
0.0
  0
LINE
  5
27D8
330
21CC
100
AcDbEntity
  8
0
100
AcDbLine
 10
800.1078492412052
 20
234.3983984766291
 30
0.0
 11
695.1078492412052
 21
234.3983984766291
 31
0.0
  0
LINE
  5
27D9
330
21CC
100
AcDbEntity
  8
0
100
AcDbLine
 10
695.1078492412052
 20
189.6983944766293
 30
0.0
 11
695.1078492412052
 21
172.6983944766293
 31
0.0
  0
LINE
  5
27DB
330
21CC
100
AcDbEntity
  8
0
  6
Continuous
 62
     7
100
AcDbLine
 10
652.714464741205
 20
254.6983984766293
 30
0.0
 11
707.6078152826357
 21
254.6983984766293
 31
0.0
  0
LINE
  5
27DC
330
21CC
100
AcDbEntity
  8
0
  6
Continuous
 62
     7
100
AcDbLine
 10
647.6078492412052
 20
248.4983974766291
 30
0.0
 11
650.4578491412048
 21
248.4983974766291
 31
0.0
  0
LINE
  5
27DD
330
21CC
100
AcDbEntity
  8
0
  6
Continuous
 62
     7
100
AcDbLine
 10
650.4578489412051
 20
248.4983974766291
 30
0.0
 11
652.7144652412044
 21
254.6983994766292
 31
0.0
  0
LINE
  5
27DE
330
21CC
100
AcDbEntity
  8
0
100
AcDbLine
 10
695.1078492412052
 20
251.3983984766291
 30
0.0
 11
695.1078492412052
 21
234.3983984766291
 31
0.0
  0
ARC
  5
27DF
330
21CC
100
AcDbEntity
  8
0
100
AcDbCircle
 10
737.6078492412053
 20
212.0483924766292
 30
0.0
 40
35.799999
100
AcDbArc
 50
141.3690399999954
 51
218.63095000001
  0
LINE
  5
27E0
330
21CC
100
AcDbEntity
  8
0
100
AcDbLine
 10
800.1078492412052
 20
189.6983944766293
 30
0.0
 11
800.1078492412052
 21
172.6983944766293
 31
0.0
  0
LINE
  5
27E4
330
21CC
100
AcDbEntity
  8
0
  6
Continuous
 62
     7
100
AcDbLine
 10
842.5012337412054
 20
192.9983934766294
 30
0.0
 11
787.6078831997747
 21
192.9983934766294
 31
0.0
  0
LINE
  5
27E5
330
21CC
100
AcDbEntity
  8
0
  6
Continuous
 62
     7
100
AcDbLine
 10
842.5012337412054
 20
231.0983914766293
 30
0.0
 11
787.6078080247771
 21
231.0983914766293
 31
0.0
  0
LINE
  5
27E6
330
21CC
100
AcDbEntity
  8
0
100
AcDbLine
 10
800.1078492412052
 20
251.3983984766291
 30
0.0
 11
800.1078492412052
 21
234.3983984766291
 31
0.0
  0
ARC
  5
27E7
330
21CC
100
AcDbEntity
  8
0
100
AcDbCircle
 10
757.6078492412052
 20
212.0484474766292
 30
0.0
 40
35.799999
100
AcDbArc
 50
321.3690499999898
 51
38.63096000000455
  0
LINE
  5
27EF
330
21CC
100
AcDbEntity
  8
0
  6
Continuous
 62
     7
100
AcDbLine
 10
842.5012337412054
 20
231.0983914766293
 30
0.0
 11
842.5012337412054
 21
192.9983944766292
 31
0.0
  0
LINE
  5
27F0
330
21CC
100
AcDbEntity
  8
0
  6
Continuous
 62
     7
100
AcDbLine
 10
847.6078492412053
 20
186.7983924766292
 30
0.0
 11
847.6078492412053
 21
237.2983924766292
 31
0.0
  0
LINE
  5
27F1
330
21CC
100
AcDbEntity
  8
0
  6
Continuous
 62
     7
100
AcDbLine
 10
847.6078492412053
 20
186.7983924766292
 30
0.0
 11
844.7578493412056
 21
186.7983924766292
 31
0.0
  0
LINE
  5
27F2
330
21CC
100
AcDbEntity
  8
0
  6
Continuous
 62
     7
100
AcDbLine
 10
844.7578495412054
 20
186.7983924766292
 30
0.0
 11
842.5012332412061
 21
192.9983944766292
 31
0.0
  0
LINE
  5
27F3
330
21CC
100
AcDbEntity
  8
0
  6
Continuous
 62
     7
100
AcDbLine
 10
847.6078492412053
 20
237.2983924766292
 30
0.0
 11
844.7578493412056
 21
237.2983924766292
 31
0.0
  0
LINE
  5
27F4
330
21CC
100
AcDbEntity
  8
0
  6
Continuous
 62
     7
100
AcDbLine
 10
844.7578495412054
 20
237.2983924766292
 30
0.0
 11
842.5012332412061
 21
231.0983904766294
 31
0.0
  0
LINE
  5
27F6
330
21CC
100
AcDbEntity
  8
0
100
AcDbLine
 10
803.0078122412051
 20
411.098405476629
 30
0.0
 11
803.0078122412051
 21
575.5983854766289
 31
0.0
  0
LINE
  5
27F7
330
21CC
100
AcDbEntity
  8
0
100
AcDbLine
 10
692.2078252412047
 20
411.098405476629
 30
0.0
 11
692.2078252412047
 21
575.5983854766289
 31
0.0
  0
LINE
  5
27F8
330
21CC
100
AcDbEntity
  8
0
100
AcDbLine
 10
709.6078492412052
 20
404.848405476629
 30
0.0
 11
785.6078492412052
 21
404.848405476629
 31
0.0
  0
LINE
  5
27F9
330
21CC
100
AcDbEntity
  8
0
100
AcDbLine
 10
709.6078492412052
 20
390.348405476629
 30
0.0
 11
785.6078492412052
 21
390.348405476629
 31
0.0
  0
LINE
  5
27FA
330
21CC
100
AcDbEntity
  8
0
100
AcDbLine
 10
692.2078252412047
 20
411.098405476629
 30
0.0
 11
803.0078122412051
 21
411.098405476629
 31
0.0
  0
LINE
  5
27FB
330
21CC
100
AcDbEntity
  8
0
100
AcDbLine
 10
800.1078492412052
 20
296.0984034766293
 30
0.0
 11
695.1078492412052
 21
296.0984034766293
 31
0.0
  0
LINE
  5
27FC
330
21CC
100
AcDbEntity
  8
0
100
AcDbLine
 10
800.1078492412052
 20
313.0984024766291
 30
0.0
 11
695.1078492412052
 21
313.0984024766291
 31
0.0
  0
LINE
  5
27FD
330
21CC
100
AcDbEntity
  8
0
100
AcDbLine
 10
720.6078492412053
 20
390.3484034766293
 30
0.0
 11
720.6078492412053
 21
313.0984034766293
 31
0.0
  0
LINE
  5
27FE
330
21CC
100
AcDbEntity
  8
0
  6
Continuous
 62
     7
100
AcDbLine
 10
652.714464741205
 20
292.7983964766292
 30
0.0
 11
707.6078904576334
 21
292.7983964766292
 31
0.0
  0
LINE
  5
27FF
330
21CC
100
AcDbEntity
  8
0
  6
Continuous
 62
     7
100
AcDbLine
 10
647.6078492412052
 20
298.9983974766291
 30
0.0
 11
650.4578491412048
 21
298.9983974766291
 31
0.0
  0
LINE
  5
2800
330
21CC
100
AcDbEntity
  8
0
  6
Continuous
 62
     7
100
AcDbLine
 10
650.4578489412051
 20
298.9983974766291
 30
0.0
 11
652.7144652412044
 21
292.7983954766293
 31
0.0
  0
LINE
  5
2802
330
21CC
100
AcDbEntity
  8
0
100
AcDbLine
 10
695.1078492412052
 20
313.0984024766291
 30
0.0
 11
695.1078492412052
 21
296.0984034766293
 31
0.0
  0
LINE
  5
2803
330
21CC
100
AcDbEntity
  8
0
100
AcDbLine
 10
709.6078492412052
 20
404.848405476629
 30
0.0
 11
709.6078492412052
 21
390.348405476629
 31
0.0
  0
LINE
  5
2804
330
21CC
100
AcDbEntity
  8
0
100
AcDbLine
 10
720.1078492412052
 20
411.098405476629
 30
0.0
 11
720.1078492412052
 21
404.848405476629
 31
0.0
  0
LINE
  5
2805
330
21CC
100
AcDbEntity
  8
0
100
AcDbLine
 10
774.6078492412053
 20
390.3484034766293
 30
0.0
 11
774.6078492412053
 21
313.0984034766293
 31
0.0
  0
LINE
  5
2806
330
21CC
100
AcDbEntity
  8
0
100
AcDbLine
 10
800.1078492412052
 20
313.0984024766291
 30
0.0
 11
800.1078492412052
 21
296.0984034766293
 31
0.0
  0
LINE
  5
280F
330
21CC
100
AcDbEntity
  8
0
100
AcDbLine
 10
775.1078492412053
 20
411.098405476629
 30
0.0
 11
775.1078492412053
 21
404.848405476629
 31
0.0
  0
LINE
  5
2810
330
21CC
100
AcDbEntity
  8
0
100
AcDbLine
 10
785.6078492412052
 20
404.848405476629
 30
0.0
 11
785.6078492412052
 21
390.348405476629
 31
0.0
  0
LINE
  5
2815
330
21CC
100
AcDbEntity
  8
0
100
AcDbLine
 10
790.1078147412045
 20
575.5983854766289
 30
0.0
 11
705.1078187412049
 21
575.5983854766289
 31
0.0
  0
LINE
  5
2816
330
21CC
100
AcDbEntity
  8
0
100
AcDbLine
 10
803.0078122412051
 20
575.5983854766289
 30
0.0
 11
692.2078252412047
 21
575.5983854766289
 31
0.0
  0
LINE
  5
2817
330
21CC
100
AcDbEntity
  8
0
100
AcDbLine
 10
693.6078177412055
 20
595.5169864766287
 30
0.0
 11
705.1078247412051
 21
575.5983888591925
 31
0.0
  0
LINE
  5
2818
330
21CC
100
AcDbEntity
  8
0
100
AcDbLine
 10
801.6078197412044
 20
595.5169864766287
 30
0.0
 11
790.107813741205
 21
575.5983905110049
 31
0.0
  0
LINE
  5
28DD
330
21CC
100
AcDbEntity
  8
0
100
AcDbLine
 10
737.6078197412043
 20
736.5983854766288
 30
0.0
 11
757.6078207412047
 21
736.5983854766288
 31
0.0
  0
LINE
  5
28DE
330
21CC
100
AcDbEntity
  8
0
100
AcDbLine
 10
761.1078187412049
 20
697.3074654766289
 30
0.0
 11
734.1078187412049
 21
697.3074654766289
 31
0.0
  0
LINE
  5
28DF
330
21CC
100
AcDbEntity
  8
0
100
AcDbLine
 10
761.1078187412049
 20
703.5983854766288
 30
0.0
 11
734.1078187412049
 21
703.5983854766288
 31
0.0
  0
LINE
  5
28E0
330
21CC
100
AcDbEntity
  8
0
100
AcDbLine
 10
737.6078197412043
 20
703.5983854766288
 30
0.0
 11
737.6078197412043
 21
736.5983854766288
 31
0.0
  0
LINE
  5
28E1
330
21CC
100
AcDbEntity
  8
0
100
AcDbLine
 10
734.1078187412049
 20
702.5983754766286
 30
0.0
 11
734.1078187412049
 21
701.7359954766291
 31
0.0
  0
LINE
  5
28E2
330
21CC
100
AcDbEntity
  8
0
100
AcDbLine
 10
734.1078187412049
 20
703.5983854766288
 30
0.0
 11
734.1078187412049
 21
697.3074654766289
 31
0.0
  0
LINE
  5
28E3
330
21CC
100
AcDbEntity
  8
0
100
AcDbLine
 10
698.1927037412051
 20
694.1653054766291
 30
0.0
 11
693.6078187412049
 21
628.5983864766287
 31
0.0
  0
LINE
  5
28E4
330
21CC
100
AcDbEntity
  8
0
100
AcDbLine
 10
734.1078187412049
 20
697.3074654766289
 30
0.0
 11
698.1927047412045
 21
694.1652954766289
 31
0.0
  0
LINE
  5
28E5
330
21CC
100
AcDbEntity
  8
0
100
AcDbLine
 10
757.6078207412047
 20
703.5983854766288
 30
0.0
 11
757.6078207412047
 21
736.5983854766288
 31
0.0
  0
LINE
  5
28E6
330
21CC
100
AcDbEntity
  8
0
100
AcDbLine
 10
797.0229337412047
 20
694.1653054766291
 30
0.0
 11
801.6078187412048
 21
628.5983864766287
 31
0.0
  0
LINE
  5
28E7
330
21CC
100
AcDbEntity
  8
0
100
AcDbLine
 10
761.1078187412049
 20
702.5983854766288
 30
0.0
 11
761.1078187412049
 21
701.7360054766288
 31
0.0
  0
LINE
  5
28E8
330
21CC
100
AcDbEntity
  8
0
100
AcDbLine
 10
761.1078187412049
 20
703.5983854766288
 30
0.0
 11
761.1078187412049
 21
697.3074654766289
 31
0.0
  0
LINE
  5
28E9
330
21CC
100
AcDbEntity
  8
0
100
AcDbLine
 10
761.1078187412049
 20
697.3074654766289
 30
0.0
 11
797.0229327412052
 21
694.1652954766289
 31
0.0
  0
CIRCLE
  5
28EC
330
21CC
100
AcDbEntity
  8
0
100
AcDbCircle
 10
747.6078202412045
 20
914.4598879906922
 30
0.0
 40
55.400024
  0
CIRCLE
  5
28ED
330
21CC
100
AcDbEntity
  8
0
100
AcDbCircle
 10
747.6078202412045
 20
914.4598879906922
 30
0.0
 40
9.999999
  0
CIRCLE
  5
28EE
330
21CC
100
AcDbEntity
  8
0
100
AcDbCircle
 10
747.6078202412045
 20
914.4598879906922
 30
0.0
 40
9.999999
  0
CIRCLE
  5
28EF
330
21CC
100
AcDbEntity
  8
0
100
AcDbCircle
 10
747.6078202412045
 20
914.4598879906922
 30
0.0
 40
13.5
  0
CIRCLE
  5
28F0
330
21CC
100
AcDbEntity
  8
0
100
AcDbCircle
 10
747.6078202412045
 20
914.4598879906922
 30
0.0
 40
13.5
  0
CIRCLE
  5
28F1
330
21CC
100
AcDbEntity
  8
0
100
AcDbCircle
 10
747.6078202412045
 20
914.4598879906922
 30
0.0
 40
54.0
  0
CIRCLE
  5
28F2
330
21CC
100
AcDbEntity
  8
0
100
AcDbCircle
 10
747.6078202412045
 20
914.4598879906922
 30
0.0
 40
54.0
  0
LINE
  5
28F3
330
21CC
100
AcDbEntity
  8
0
  6
Continuous
 62
     7
100
AcDbLine
 10
842.5012047412046
 20
933.5099419906923
 30
0.0
 11
799.6295282273685
 21
933.5099419906917
 31
0.0
  0
LINE
  5
28F4
330
21CC
100
AcDbEntity
  8
0
  6
Continuous
 62
     7
100
AcDbLine
 10
842.5012047412046
 20
895.409943990692
 30
0.0
 11
799.6295685086114
 21
895.4099439906926
 31
0.0
  0
LINE
  5
28F6
330
21CC
100
AcDbEntity
  8
0
  6
Continuous
 62
     7
100
AcDbLine
 10
844.7578205412044
 20
889.2099429906924
 30
0.0
 11
842.5012042412053
 21
895.4099449906925
 31
0.0
  0
LINE
  5
28F7
330
21CC
100
AcDbEntity
  8
0
  6
Continuous
 62
     7
100
AcDbLine
 10
847.6078202412043
 20
889.2099429906924
 30
0.0
 11
844.7578203412048
 21
889.2099429906924
 31
0.0
  0
LINE
  5
28F8
330
21CC
100
AcDbEntity
  8
0
  6
Continuous
 62
     7
100
AcDbLine
 10
844.7578205412044
 20
939.7099429906925
 30
0.0
 11
842.5012042412053
 21
933.5099409906923
 31
0.0
  0
LINE
  5
28F9
330
21CC
100
AcDbEntity
  8
0
  6
Continuous
 62
     7
100
AcDbLine
 10
847.6078202412043
 20
939.7099429906925
 30
0.0
 11
844.7578203412048
 21
939.7099429906925
 31
0.0
  0
LINE
  5
28FA
330
21CC
100
AcDbEntity
  8
0
  6
Continuous
 62
     7
100
AcDbLine
 10
847.6078202412043
 20
939.7099429906925
 30
0.0
 11
847.6078202412043
 21
889.2099429906924
 31
0.0
  0
LINE
  5
28FB
330
21CC
100
AcDbEntity
  8
0
  6
Continuous
 62
     7
100
AcDbLine
 10
842.5012047412046
 20
895.409943990692
 30
0.0
 11
842.5012047412046
 21
933.5099409906923
 31
0.0
  0
LINE
  5
29C3
330
21CC
100
AcDbEntity
  8
0
  6
Continuous
 62
     7
100
AcDbLine
 10
647.6078202412045
 20
889.2098329906923
 30
0.0
 11
647.6078202412045
 21
939.7098329906922
 31
0.0
  0
LINE
  5
29C4
330
21CC
100
AcDbEntity
  8
0
  6
Continuous
 62
     7
100
AcDbLine
 10
652.7144357412043
 20
933.5098319906926
 30
0.0
 11
652.7144357412043
 21
895.4098349906924
 31
0.0
  0
LINE
  5
29C5
330
21CC
100
AcDbEntity
  8
0
  6
Continuous
 62
     7
100
AcDbLine
 10
652.7144357412043
 20
895.4098339906925
 30
0.0
 11
695.5861122550405
 21
895.4098339906929
 31
0.0
  0
LINE
  5
29C6
330
21CC
100
AcDbEntity
  8
0
  6
Continuous
 62
     7
100
AcDbLine
 10
650.4578199412044
 20
889.2098329906923
 30
0.0
 11
652.7144362412037
 21
895.4098349906924
 31
0.0
  0
LINE
  5
29C7
330
21CC
100
AcDbEntity
  8
0
  6
Continuous
 62
     7
100
AcDbLine
 10
647.6078202412045
 20
889.2098329906923
 30
0.0
 11
650.4578201412041
 21
889.2098329906923
 31
0.0
  0
LINE
  5
29C8
330
21CC
100
AcDbEntity
  8
0
  6
Continuous
 62
     7
100
AcDbLine
 10
652.7144357412043
 20
933.5098319906926
 30
0.0
 11
695.5860719737975
 21
933.5098319906922
 31
0.0
  0
LINE
  5
29C9
330
21CC
100
AcDbEntity
  8
0
  6
Continuous
 62
     7
100
AcDbLine
 10
650.4578199412044
 20
939.7098329906922
 30
0.0
 11
652.7144362412037
 21
933.5098309906923
 31
0.0
  0
LINE
  5
29CA
330
21CC
100
AcDbEntity
  8
0
  6
Continuous
 62
     7
100
AcDbLine
 10
647.6078202412045
 20
939.7098329906922
 30
0.0
 11
650.4578201412041
 21
939.7098329906922
 31
0.0
  0
LINE
  5
2A3F
330
21CC
100
AcDbEntity
  8
0
  6
Continuous
 62
     7
100
AcDbLine
 10
647.6078492412052
 20
125.0983884766292
 30
0.0
 11
647.6078492412052
 21
175.5983884766292
 31
0.0
  0
LINE
  5
2A40
330
21CC
100
AcDbEntity
  8
0
  6
Continuous
 62
     7
100
AcDbLine
 10
652.714464741205
 20
169.3983874766292
 30
0.0
 11
652.714464741205
 21
131.2983904766292
 31
0.0
  0
LINE
  5
2A41
330
21CC
100
AcDbEntity
  8
0
  6
Continuous
 62
     7
100
AcDbLine
 10
652.714464741205
 20
131.2983894766293
 30
0.0
 11
707.6078152826357
 21
131.2983894766293
 31
0.0
  0
LINE
  5
2A42
330
21CC
100
AcDbEntity
  8
0
  6
Continuous
 62
     7
100
AcDbLine
 10
650.4578489412051
 20
125.0983884766292
 30
0.0
 11
652.7144652412044
 21
131.2983904766292
 31
0.0
  0
LINE
  5
2A43
330
21CC
100
AcDbEntity
  8
0
  6
Continuous
 62
     7
100
AcDbLine
 10
647.6078492412052
 20
125.0983884766292
 30
0.0
 11
650.4578491412048
 21
125.0983884766292
 31
0.0
  0
LINE
  5
2A44
330
21CC
100
AcDbEntity
  8
0
  6
Continuous
 62
     7
100
AcDbLine
 10
652.714464741205
 20
169.3983874766292
 30
0.0
 11
707.6078904576334
 21
169.3983874766292
 31
0.0
  0
LINE
  5
2A45
330
21CC
100
AcDbEntity
  8
0
  6
Continuous
 62
     7
100
AcDbLine
 10
650.4578489412051
 20
175.5983884766292
 30
0.0
 11
652.7144652412044
 21
169.3983864766294
 31
0.0
  0
LINE
  5
2A46
330
21CC
100
AcDbEntity
  8
0
  6
Continuous
 62
     7
100
AcDbLine
 10
647.6078492412052
 20
175.5983884766292
 30
0.0
 11
650.4578491412048
 21
175.5983884766292
 31
0.0
  0
ARC
  5
2A47
330
21CC
100
AcDbEntity
  8
0
100
AcDbCircle
 10
737.6078492412053
 20
150.3484434766292
 30
0.0
 40
35.799999
100
AcDbArc
 50
141.3690399999954
 51
218.63095000001
  0
ARC
  5
2A48
330
21CC
100
AcDbEntity
  8
0
100
AcDbCircle
 10
757.6078492412052
 20
150.3484434766292
 30
0.0
 40
35.799999
100
AcDbArc
 50
321.3690499999898
 51
38.63096000000455
  0
LINE
  5
2A49
330
21CC
100
AcDbEntity
  8
0
100
AcDbLine
 10
800.1078492412052
 20
127.9983894766292
 30
0.0
 11
695.1078492412052
 21
127.9983894766292
 31
0.0
  0
LINE
  5
2A4A
330
21CC
100
AcDbEntity
  8
0
100
AcDbLine
 10
800.1078492412052
 20
110.9983894766292
 30
0.0
 11
695.1078492412052
 21
110.9983894766292
 31
0.0
  0
LINE
  5
2A4B
330
21CC
100
AcDbEntity
  8
0
100
AcDbLine
 10
800.1078492412052
 20
127.9983894766292
 30
0.0
 11
800.1078492412052
 21
110.9983894766292
 31
0.0
  0
LINE
  5
2A4C
330
21CC
100
AcDbEntity
  8
0
100
AcDbLine
 10
695.1078492412052
 20
127.9983894766292
 30
0.0
 11
695.1078492412052
 21
110.9983894766292
 31
0.0
  0
TEXT
  5
2A86
330
21CC
100
AcDbEntity
  8
0
  6
Continuous
100
AcDbText
 10
343.0311048002422
 20
1122.009256143664
 30
0.0
 40
48.000002
  1
SKC3A10MA_00 1.5S
 41
1.32095
100
AcDbText
  0
LINE
  5
2B06
330
21CC
100
AcDbEntity
  8
0
  6
CENTER
100
AcDbLine
 10
635.9633427052674
 20
914.4598879906922
 30
0.0
 11
859.2522977771418
 21
914.4598879906922
 31
0.0
  0
LINE
  5
2B07
330
21CC
100
AcDbEntity
  8
0
  6
CENTER
100
AcDbLine
 10
747.6078202412045
 20
842.599305928579
 30
0.0
 11
747.6078202412045
 21
986.3204700528056
 31
0.0
  0
LINE
  5
2B08
330
21CC
100
AcDbEntity
  8
0
  6
CENTER
100
AcDbLine
 10
747.6078167412046
 20
94.52264766717144
 30
0.0
 11
747.6078167412047
 21
770.1805928538119
 31
0.0
  0
LINE
  5
2B09
330
21CC
100
AcDbEntity
  8
0
  6
CENTER
100
AcDbLine
 10
635.9633717052681
 20
273.7483974766291
 30
0.0
 11
807.0100826198732
 21
273.7483974766291
 31
0.0
  0
LINE
  5
2B0A
330
21CC
100
AcDbEntity
  8
0
  6
CENTER
100
AcDbLine
 10
690.1073586014845
 20
212.0483374766291
 30
0.0
 11
859.2523267771426
 21
212.0483374766291
 31
0.0
  0
LINE
  5
2B0B
330
21CC
100
AcDbEntity
  8
0
  6
CENTER
100
AcDbLine
 10
635.9633717052681
 20
150.3483894766293
 30
0.0
 11
807.0100826198732
 21
150.3483894766293
 31
0.0
  0
ENDSEC
  0
SECTION
  2
OBJECTS
  0
DICTIONARY
  5
21BA
330
0
100
AcDbDictionary
281
     1
  3
ACAD_GROUP
350
21BB
  3
ACAD_LAYOUT
350
21C7
  3
ACAD_MLINESTYLE
350
21C4
  3
ACAD_PLOTSETTINGS
350
21C6
  3
ACAD_PLOTSTYLENAME
350
21BC
  3
AcDbVariableDictionary
350
2238
  3
DWGPROPS
350
2A05
  0
DICTIONARY
  5
2AFA
330
21B0
100
AcDbDictionary
280
     1
281
     1
  3
ACAD_LAYERSTATES
360
2AFB
  0
DICTIONARY
  5
21F8
330
21CC
100
AcDbDictionary
280
     1
281
     1
  3
ACAD_LAYOUTSELFREF
360
2AF0
  0
DICTIONARY
  5
21FA
330
21C8
100
AcDbDictionary
280
     1
281
     1
  3
ACAD_LAYOUTSELFREF
360
2AEF
  0
DICTIONARY
  5
21BB
102
{ACAD_REACTORS
330
21BA
102
}
330
21BA
100
AcDbDictionary
281
     1
  0
DICTIONARY
  5
21C7
102
{ACAD_REACTORS
330
21BA
102
}
330
21BA
100
AcDbDictionary
281
     1
  3
Model
350
21CF
  3
ﾚｲｱｳﾄ1
350
21CB
  0
DICTIONARY
  5
21C4
102
{ACAD_REACTORS
330
21BA
102
}
330
21BA
100
AcDbDictionary
281
     1
  3
Standard
350
21C5
  0
DICTIONARY
  5
21C6
102
{ACAD_REACTORS
330
21BA
102
}
330
21BA
100
AcDbDictionary
281
     1
  0
ACDBDICTIONARYWDFLT
  5
21BC
102
{ACAD_REACTORS
330
21BA
102
}
330
21BA
100
AcDbDictionary
281
     1
  3
Normal
350
21BD
100
AcDbDictionaryWithDefault
340
21BD
  0
DICTIONARY
  5
2238
102
{ACAD_REACTORS
330
21BA
102
}
330
21BA
100
AcDbDictionary
281
     1
  3
DIMASSOC
350
2239
  0
XRECORD
  5
2A05
102
{ACAD_REACTORS
330
21BA
102
}
330
21BA
100
AcDbXrecord
280
     1
  1
DWGPROPS COOKIE
  2

  3

  4

  6

  7

  8
mg
  9

300
=
301
=
302
=
303
=
304
=
305
=
306
=
307
=
308
=
309
=
 40
0.282609224537037
 41
2452488.423138738
 42
2452754.728097511
  1

 90
        0
  0
DICTIONARY
  5
2AFB
102
{ACAD_REACTORS
330
2AFA
102
}
330
2AFA
100
AcDbDictionary
281
     1
  0
XRECORD
  5
2AF0
102
{ACAD_REACTORS
330
21F8
102
}
330
21F8
100
AcDbXrecord
280
     1
340
21CC
  0
XRECORD
  5
2AEF
102
{ACAD_REACTORS
330
21FA
102
}
330
21FA
100
AcDbXrecord
280
     1
340
21C8
  0
LAYOUT
  5
21CF
102
{ACAD_REACTORS
330
21C7
102
}
330
21C7
100
AcDbPlotSettings
  1

  2
SII LP-2150 (D-SCAN C2)
  4

  6

 40
0.0
 41
0.0
 42
0.0
 43
0.0
 44
0.0
 45
0.0
 46
0.0
 47
0.0
 48
0.0
 49
0.0
140
0.0
141
0.0
142
1.0
143
1.0
 70
  1712
 72
     0
 73
     0
 74
     0
  7

 75
     0
147
1.0
148
0.0
149
0.0
100
AcDbLayout
  1
Model
 70
     1
 71
     0
 10
0.0
 20
0.0
 11
12.0
 21
9.0
 12
0.0
 22
0.0
 32
0.0
 14
0.0
 24
0.0
 34
0.0
 15
0.0
 25
0.0
 35
0.0
146
0.0
 13
0.0
 23
0.0
 33
0.0
 16
1.0
 26
0.0
 36
0.0
 17
0.0
 27
1.0
 37
0.0
 76
     0
330
21CC
  0
LAYOUT
  5
21CB
102
{ACAD_REACTORS
330
21C7
102
}
330
21C7
100
AcDbPlotSettings
  1

  2
SII LP-2150 (D-SCAN C2)
  4

  6

 40
0.0
 41
0.0
 42
0.0
 43
0.0
 44
0.0
 45
0.0
 46
0.0
 47
0.0
 48
0.0
 49
0.0
140
0.0
141
0.0
142
1.0
143
1.0
 70
   688
 72
     0
 73
     0
 74
     5
  7

 75
    16
147
1.0
148
0.0
149
0.0
100
AcDbLayout
  1
ﾚｲｱｳﾄ1
 70
     1
 71
     1
 10
0.0
 20
0.0
 11
12.0
 21
9.0
 12
0.0
 22
0.0
 32
0.0
 14
1.000000000000000E+20
 24
1.000000000000000E+20
 34
1.000000000000000E+20
 15
-1.000000000000000E+20
 25
-1.000000000000000E+20
 35
-1.000000000000000E+20
146
0.0
 13
0.0
 23
0.0
 33
0.0
 16
1.0
 26
0.0
 36
0.0
 17
0.0
 27
1.0
 37
0.0
 76
     0
330
21C8
  0
MLINESTYLE
  5
21C5
102
{ACAD_REACTORS
330
21C4
102
}
330
21C4
100
AcDbMlineStyle
  2
STANDARD
 70
     0
  3

 62
   256
 51
90.0
 52
90.0
 71
     2
 49
0.5
 62
   256
  6
BYLAYER
 49
-0.5
 62
   256
  6
BYLAYER
  0
ACDBPLACEHOLDER
  5
21BD
102
{ACAD_REACTORS
330
21BC
102
}
330
21BC
  0
DICTIONARYVAR
  5
2239
102
{ACAD_REACTORS
330
2238
102
}
330
2238
100
DictionaryVariables
280
     0
  1
1
  0
ENDSEC
  0
EOF
