  0
SECTION
  2
HEADER
  9
$ACADVER
  1
AC1018
  9
$ACADMAINTVER
 70
   104
  9
$DWGCODEPAGE
  3
ANSI_932
  9
$LASTSAVEDBY
  1
kanatani
  9
$INSBASE
 10
0.0
 20
0.0
 30
0.0
  9
$EXTMIN
 10
-366.6666666666666
 20
-54.99999618530273
 30
0.0
  9
$EXTMAX
 10
366.6666666666666
 20
429.1666666666666
 30
0.0
  9
$LIMMIN
 10
-584.0
 20
0.0
  9
$LIMMAX
 10
0.0
 20
588.9623999834062
  9
$ORTHOMODE
 70
     0
  9
$REGENMODE
 70
     1
  9
$FILLMODE
 70
     1
  9
$QTEXTMODE
 70
     0
  9
$MIRRTEXT
 70
     1
  9
$LTSCALE
 40
1.0
  9
$ATTMODE
 70
     1
  9
$TEXTSIZE
 40
2.5
  9
$TRACEWID
 40
1.0
  9
$TEXTSTYLE
  7
STANDARD
  9
$CLAYER
  8
0
  9
$CELTYPE
  6
ByLayer
  9
$CECOLOR
 62
   256
  9
$CELTSCALE
 40
1.0
  9
$DISPSILH
 70
     0
  9
$DIMSCALE
 40
1.0
  9
$DIMASZ
 40
3.0
  9
$DIMEXO
 40
0.0625
  9
$DIMDLI
 40
0.38
  9
$DIMRND
 40
0.0
  9
$DIMDLE
 40
0.0
  9
$DIMEXE
 40
0.18
  9
$DIMTP
 40
0.0
  9
$DIMTM
 40
0.0
  9
$DIMTXT
 40
3.0
  9
$DIMCEN
 40
0.0
  9
$DIMTSZ
 40
0.0
  9
$DIMTOL
 70
     0
  9
$DIMLIM
 70
     0
  9
$DIMTIH
 70
     1
  9
$DIMTOH
 70
     1
  9
$DIMSE1
 70
     0
  9
$DIMSE2
 70
     0
  9
$DIMTAD
 70
     0
  9
$DIMZIN
 70
     0
  9
$DIMBLK
  1

  9
$DIMASO
 70
     1
  9
$DIMSHO
 70
     1
  9
$DIMPOST
  1

  9
$DIMAPOST
  1

  9
$DIMALT
 70
     0
  9
$DIMALTD
 70
     2
  9
$DIMALTF
 40
25.4
  9
$DIMLFAC
 40
1.0
  9
$DIMTOFL
 70
     0
  9
$DIMTVP
 40
0.0
  9
$DIMTIX
 70
     0
  9
$DIMSOXD
 70
     0
  9
$DIMSAH
 70
     0
  9
$DIMBLK1
  1

  9
$DIMBLK2
  1

  9
$DIMSTYLE
  2
STANDARD
  9
$DIMCLRD
 70
     0
  9
$DIMCLRE
 70
     0
  9
$DIMCLRT
 70
     0
  9
$DIMTFAC
 40
1.0
  9
$DIMGAP
 40
1.0
  9
$DIMJUST
 70
     0
  9
$DIMSD1
 70
     0
  9
$DIMSD2
 70
     0
  9
$DIMTOLJ
 70
     1
  9
$DIMTZIN
 70
     8
  9
$DIMALTZ
 70
     8
  9
$DIMALTTZ
 70
     8
  9
$DIMUPT
 70
     0
  9
$DIMDEC
 70
     8
  9
$DIMTDEC
 70
     8
  9
$DIMALTU
 70
     2
  9
$DIMALTTD
 70
     2
  9
$DIMTXSTY
  7
STANDARD
  9
$DIMAUNIT
 70
     0
  9
$DIMADEC
 70
     0
  9
$DIMALTRND
 40
0.0
  9
$DIMAZIN
 70
     0
  9
$DIMDSEP
 70
    46
  9
$DIMATFIT
 70
     3
  9
$DIMFRAC
 70
     0
  9
$DIMLDRBLK
  1

  9
$DIMLUNIT
 70
     2
  9
$DIMLWD
 70
    -2
  9
$DIMLWE
 70
    -2
  9
$DIMTMOVE
 70
     2
  9
$LUNITS
 70
     2
  9
$LUPREC
 70
     8
  9
$SKETCHINC
 40
1.0
  9
$FILLETRAD
 40
0.0
  9
$AUNITS
 70
     0
  9
$AUPREC
 70
     0
  9
$MENU
  1
.
  9
$ELEVATION
 40
0.0
  9
$PELEVATION
 40
0.0
  9
$THICKNESS
 40
0.0
  9
$LIMCHECK
 70
     0
  9
$CHAMFERA
 40
0.0
  9
$CHAMFERB
 40
0.0
  9
$CHAMFERC
 40
0.0
  9
$CHAMFERD
 40
0.0
  9
$SKPOLY
 70
     0
  9
$TDCREATE
 40
2456136.563759606
  9
$TDUCREATE
 40
2456136.188759606
  9
$TDUPDATE
 40
2456169.614332824
  9
$TDUUPDATE
 40
2456169.239332824
  9
$TDINDWG
 40
0.0403976157
  9
$TDUSRTIMER
 40
0.0403975231
  9
$USRTIMER
 70
     1
  9
$ANGBASE
 50
0.0
  9
$ANGDIR
 70
     0
  9
$PDMODE
 70
     0
  9
$PDSIZE
 40
0.0
  9
$PLINEWID
 40
0.0
  9
$SPLFRAME
 70
     0
  9
$SPLINETYPE
 70
     6
  9
$SPLINESEGS
 70
     8
  9
$HANDSEED
  5
165B
  9
$SURFTAB1
 70
     6
  9
$SURFTAB2
 70
     6
  9
$SURFTYPE
 70
     6
  9
$SURFU
 70
     6
  9
$SURFV
 70
     6
  9
$UCSBASE
  2

  9
$UCSNAME
  2

  9
$UCSORG
 10
0.0
 20
0.0
 30
0.0
  9
$UCSXDIR
 10
1.0
 20
0.0
 30
0.0
  9
$UCSYDIR
 10
0.0
 20
1.0
 30
0.0
  9
$UCSORTHOREF
  2

  9
$UCSORTHOVIEW
 70
     0
  9
$UCSORGTOP
 10
0.0
 20
0.0
 30
0.0
  9
$UCSORGBOTTOM
 10
0.0
 20
0.0
 30
0.0
  9
$UCSORGLEFT
 10
0.0
 20
0.0
 30
0.0
  9
$UCSORGRIGHT
 10
0.0
 20
0.0
 30
0.0
  9
$UCSORGFRONT
 10
0.0
 20
0.0
 30
0.0
  9
$UCSORGBACK
 10
0.0
 20
0.0
 30
0.0
  9
$PUCSBASE
  2

  9
$PUCSNAME
  2

  9
$PUCSORG
 10
0.0
 20
0.0
 30
0.0
  9
$PUCSXDIR
 10
1.0
 20
0.0
 30
0.0
  9
$PUCSYDIR
 10
0.0
 20
1.0
 30
0.0
  9
$PUCSORTHOREF
  2

  9
$PUCSORTHOVIEW
 70
     0
  9
$PUCSORGTOP
 10
0.0
 20
0.0
 30
0.0
  9
$PUCSORGBOTTOM
 10
0.0
 20
0.0
 30
0.0
  9
$PUCSORGLEFT
 10
0.0
 20
0.0
 30
0.0
  9
$PUCSORGRIGHT
 10
0.0
 20
0.0
 30
0.0
  9
$PUCSORGFRONT
 10
0.0
 20
0.0
 30
0.0
  9
$PUCSORGBACK
 10
0.0
 20
0.0
 30
0.0
  9
$USERI1
 70
     0
  9
$USERI2
 70
     0
  9
$USERI3
 70
     0
  9
$USERI4
 70
     0
  9
$USERI5
 70
     0
  9
$USERR1
 40
0.0
  9
$USERR2
 40
0.0
  9
$USERR3
 40
0.0
  9
$USERR4
 40
0.0
  9
$USERR5
 40
0.0
  9
$WORLDVIEW
 70
     1
  9
$SHADEDGE
 70
     3
  9
$SHADEDIF
 70
    70
  9
$TILEMODE
 70
     1
  9
$MAXACTVP
 70
    64
  9
$PINSBASE
 10
0.0
 20
0.0
 30
0.0
  9
$PLIMCHECK
 70
     0
  9
$PEXTMIN
 10
1.000000000000000E+20
 20
1.000000000000000E+20
 30
1.000000000000000E+20
  9
$PEXTMAX
 10
-1.000000000000000E+20
 20
-1.000000000000000E+20
 30
-1.000000000000000E+20
  9
$PLIMMIN
 10
-584.0
 20
0.0
  9
$PLIMMAX
 10
0.0
 20
588.9623999834062
  9
$UNITMODE
 70
     0
  9
$VISRETAIN
 70
     1
  9
$PLINEGEN
 70
     0
  9
$PSLTSCALE
 70
     1
  9
$TREEDEPTH
 70
  3020
  9
$CMLSTYLE
  2
Standard
  9
$CMLJUST
 70
     0
  9
$CMLSCALE
 40
1.0
  9
$PROXYGRAPHICS
 70
     1
  9
$MEASUREMENT
 70
     0
  9
$CELWEIGHT
370
    -1
  9
$ENDCAPS
280
     0
  9
$JOINSTYLE
280
     0
  9
$LWDISPLAY
290
     0
  9
$INSUNITS
 70
     0
  9
$HYPERLINKBASE
  1

  9
$STYLESHEET
  1

  9
$XEDIT
290
     1
  9
$CEPSNTYPE
380
     0
  9
$PSTYLEMODE
290
     1
  9
$FINGERPRINTGUID
  2
{F1AE29D1-B18A-408E-B2F4-8A08E115ADC0}
  9
$VERSIONGUID
  2
{FBEDBA0D-C7EA-4E72-A3BE-A66FC1FA96EA}
  9
$EXTNAMES
290
     1
  9
$PSVPSCALE
 40
0.0
  9
$OLESTARTUP
290
     0
  9
$SORTENTS
280
   127
  9
$INDEXCTL
280
     0
  9
$HIDETEXT
280
     0
  9
$XCLIPFRAME
290
     0
  9
$HALOGAP
280
     0
  9
$OBSCOLOR
 70
   257
  9
$OBSLTYPE
280
     0
  9
$INTERSECTIONDISPLAY
280
     0
  9
$INTERSECTIONCOLOR
 70
   257
  9
$DIMASSOC
280
     1
  9
$PROJECTNAME
  1

  0
ENDSEC
  0
SECTION
  2
CLASSES
  0
CLASS
  1
ACDBDICTIONARYWDFLT
  2
AcDbDictionaryWithDefault
  3
ObjectDBX Classes
 90
        0
 91
        1
280
     0
281
     0
  0
CLASS
  1
MATERIAL
  2
AcDbMaterial
  3
ObjectDBX Classes
 90
     1153
 91
        3
280
     0
281
     0
  0
CLASS
  1
VISUALSTYLE
  2
AcDbVisualStyle
  3
ObjectDBX Classes
 90
     4095
 91
       26
280
     0
281
     0
  0
CLASS
  1
SCALE
  2
AcDbScale
  3
ObjectDBX Classes
 90
     1153
 91
       17
280
     0
281
     0
  0
CLASS
  1
TABLESTYLE
  2
AcDbTableStyle
  3
ObjectDBX Classes
 90
     4095
 91
        1
280
     0
281
     0
  0
CLASS
  1
MLEADERSTYLE
  2
AcDbMLeaderStyle
  3
ACDB_MLEADERSTYLE_CLASS
 90
     4095
 91
        1
280
     0
281
     0
  0
CLASS
  1
AMGSETTINGSOBJ
  2
AmgSettingsObj
  3
"AcadM|Product Description: AutoCAD Mechanical|Company: Autodesk, Inc."
 90
     1024
 91
        0
280
     0
281
     0
  0
CLASS
  1
ACME_DOCUMENT
  2
AcMeDbDoc
  3
AcMeServices
 90
     1024
 91
        0
280
     0
281
     0
  0
CLASS
  1
ACMESCOPE
  2
AcMeScope
  3
AcMeServices
 90
     1024
 91
        0
280
     0
281
     0
  0
CLASS
  1
ACMECOMMANDHISTORY
  2
AcMeCommandHistory
  3
AcMeServices
 90
     1024
 91
        0
280
     0
281
     0
  0
CLASS
  1
ACIMSYSVARMAN
  2
AcImSysVarManager
  3
AcMeServices
 90
     1024
 91
        0
280
     0
281
     0
  0
CLASS
  1
ACIMINTSYSVAR
  2
AcImIntSysVar
  3
AcMeServices
 90
     1024
 91
        0
280
     0
281
     0
  0
CLASS
  1
ACMESTATEMGR
  2
AcMeStateMgr
  3
AcMeServices
 90
     1024
 91
        0
280
     0
281
     0
  0
CLASS
  1
ACDBENTITYCACHE
  2
AcMeEntityCache
  3
AcMeServices
 90
     1024
 91
        0
280
     0
281
     0
  0
CLASS
  1
ACGREFMASTER
  2
AcGrefMaster
  3
AcAttribServices
 90
     1024
 91
        0
280
     0
281
     0
  0
CLASS
  1
ACME_DATABASE
  2
AcMeDbDatabase
  3
AcMeServices
 90
     1024
 91
        0
280
     0
281
     0
  0
CLASS
  1
ACRFINSADJUSTERMGR
  2
AcRfInsAdjusterMgr
  3
AcMeServices
 90
     1024
 91
        0
280
     0
281
     0
  0
CLASS
  1
ACGREFACADMASTER
  2
AcGrefacadMaster
  3
AcGrefServices
 90
     1024
 91
        0
280
     0
281
     0
  0
CLASS
  1
AMDTMENUSTATEMGR
  2
AmdtMenuStateMgr
  3
McadcomServices
 90
     1024
 91
        0
280
     0
281
     0
  0
CLASS
  1
AMDTMCOMMENUSTATE
  2
AmdtMcomMenuState
  3
McadcomServices
 90
     1024
 91
        0
280
     0
281
     0
  0
CLASS
  1
AMIMASTER
  2
AmiMaster
  3
AmiServices
 90
     1024
 91
        0
280
     0
281
     0
  0
CLASS
  1
MAPIAMMOUDLE
  2
MApiAmModule
  3
MApiAmServices
 90
     1024
 91
        0
280
     0
281
     0
  0
CLASS
  1
ACIMSTRSYSVAR
  2
AcImStrSysVar
  3
AcMeServices
 90
     1024
 91
        0
280
     0
281
     0
  0
CLASS
  1
AMDTAMMENUSTATE
  2
AmdtAmMenuState
  3
DesignerAssemblies
 90
     1024
 91
        0
280
     0
281
     0
  0
CLASS
  1
ACAMPROJECT
  2
AcAmProject
  3
DesignerAssemblies
 90
     1024
 91
        0
280
     0
281
     0
  0
CLASS
  1
ACAMGRCOMPDEF
  2
AcAmGrCompDef
  3
DesignerAssemblies
 90
     1024
 91
        0
280
     0
281
     0
  0
CLASS
  1
ACAMCOMPDEF
  2
AcAmCompDef
  3
DesignerAssemblies
 90
     1024
 91
        0
280
     0
281
     0
  0
CLASS
  1
ACAMCOMPDEFMGR
  2
AcAmCompDefMgr
  3
DesignerAssemblies
 90
     1024
 91
        0
280
     0
281
     0
  0
CLASS
  1
AMCONTEXTMGR
  2
AcAmContextMgr
  3
DesignerAssemblies
 90
     1024
 91
        0
280
     0
281
     0
  0
CLASS
  1
ACAMCONTEXTMODELER
  2
AcAmContextModeler
  3
DesignerAssemblies
 90
     1024
 91
        0
280
     0
281
     0
  0
CLASS
  1
ACMDATADICTIONARY
  2
AcmDataDictionary
  3
"AcmSymBB|Product Description: AutoCAD Mechanical|Company: Autodesk, Inc."
 90
     1024
 91
        0
280
     0
281
     0
  0
CLASS
  1
ACAMGRCOMPDEFSET
  2
AcAmGrCompDefSet
  3
DesignerAssemblies
 90
     1024
 91
        0
280
     0
281
     0
  0
CLASS
  1
AMDTBROWSERDBTAB
  2
AmdtBrowserDbTab
  3
McadcomServices
 90
     1024
 91
        0
280
     0
281
     0
  0
CLASS
  1
CBROWSERAPPOBJECT
  2
CBrowserAppObject
  3
McadcomServices
 90
     1024
 91
        0
280
     0
281
     0
  0
CLASS
  1
DM_PLACEHOLDER
  2
AcDmSelsetPlaceholder
  3
McadcomServices
 90
     1024
 91
        0
280
     0
281
     0
  0
CLASS
  1
EXACXREFPANELOBJECT
  2
ExAcXREFPanelObject
  3
EXAC_ESW
 90
     1025
 91
        0
280
     0
281
     0
  0
CLASS
  1
NPOCOLLECTION
  2
AcDbImpNonPersistentObjectsCollection
  3
ObjectDBX Classes
 90
     1153
 91
        0
280
     0
281
     0
  0
CLASS
  1
ACMSTANDARDANSI
  2
AcmStandardANSI
  3
"Amdt_StdImp|Product Description: AutoCAD Mechanical|Company: Autodesk, Inc."
 90
     1024
 91
        0
280
     0
281
     0
  0
CLASS
  1
ACMSURFSTANDARDANSI
  2
AcmSurfTextStdANSI
  3
"Amdt_StdImp|Product Description: AutoCAD Mechanical|Company: Autodesk, Inc."
 90
     1024
 91
        0
280
     0
281
     0
  0
CLASS
  1
ACMFCFSTANDARDANSI
  2
AcmFCFStdANSI
  3
"Amdt_StdImp|Product Description: AutoCAD Mechanical|Company: Autodesk, Inc."
 90
     1024
 91
        0
280
     0
281
     0
  0
CLASS
  1
ACMWELDSTANDARDANSI
  2
AcmWeldingStdANSI
  3
"Amdt_StdImp|Product Description: AutoCAD Mechanical|Company: Autodesk, Inc."
 90
     1024
 91
        0
280
     0
281
     0
  0
CLASS
  1
ACMIDSTANDARDANSI
  2
AcmIdStdANSI
  3
"Amdt_StdImp|Product Description: AutoCAD Mechanical|Company: Autodesk, Inc."
 90
     1024
 91
        0
280
     0
281
     0
  0
CLASS
  1
ACMDATUMSTANDARDANSI
  2
AcmDatumStdANSI
  3
"Amdt_StdImp|Product Description: AutoCAD Mechanical|Company: Autodesk, Inc."
 90
     1024
 91
        0
280
     0
281
     0
  0
CLASS
  1
ACMBOMSTANDARDANSI
  2
AcmBOMStdANSI
  3
"Amdt_StdImp|Product Description: AutoCAD Mechanical|Company: Autodesk, Inc."
 90
     1024
 91
        0
280
     0
281
     0
  0
CLASS
  1
ACMDETAILSTANDARDANSI
  2
AmdtDetailSymStdANSI
  3
"Amdt_StdImp|Product Description: AutoCAD Mechanical|Company: Autodesk, Inc."
 90
     1024
 91
        0
280
     0
281
     0
  0
CLASS
  1
ACMSECTIONSTANDARDANSI
  2
AmdtSectionSymStdANSI
  3
"Amdt_StdImp|Product Description: AutoCAD Mechanical|Company: Autodesk, Inc."
 90
     1024
 91
        0
280
     0
281
     0
  0
CLASS
  1
ACMCENTERLINESTANDARDANSI
  2
AmdtCenterLineStdANSI
  3
"Amdt_StdImp|Product Description: AutoCAD Mechanical|Company: Autodesk, Inc."
 90
     1024
 91
        0
280
     0
281
     0
  0
CLASS
  1
ACMTHREADLINESTANDARDANSI
  2
AmdtThreadLineStdANSI
  3
"Amdt_StdImp|Product Description: AutoCAD Mechanical|Company: Autodesk, Inc."
 90
     1024
 91
        0
280
     0
281
     0
  0
CLASS
  1
ACMNOTESTANDARDANSI
  2
AmdtNoteStdANSI
  3
"Amdt_StdImp|Product Description: AutoCAD Mechanical|Company: Autodesk, Inc."
 90
     1024
 91
        0
280
     0
281
     0
  0
CLASS
  1
ACMTAPERSTANDARDANSI
  2
AcmTaperStdANSI
  3
"Amdt_StdImp|Product Description: AutoCAD Mechanical|Company: Autodesk, Inc."
 90
     1024
 91
        0
280
     0
281
     0
  0
CLASS
  1
ACMANOOTATIONVIEWSTANDARDANSI
  2
AmdtAnViewStdANSI
  3
"Amdt_StdImp|Product Description: AutoCAD Mechanical|Company: Autodesk, Inc."
 90
     1024
 91
        0
280
     0
281
     0
  0
CLASS
  1
ACAMGLAYSTD
  2
AcAmgLayStd
  3
"AmgLay|Product Description: AutoCAD Mechanical|Company: Autodesk, Inc."
 90
     1024
 91
        0
280
     0
281
     0
  0
CLASS
  1
ACAMGDIMSTD
  2
AcAmgDimStd
  3
"AmgDim|Product Description: AutoCAD Mechanical|Company: Autodesk, Inc."
 90
     1024
 91
        0
280
     0
281
     0
  0
CLASS
  1
AMGOBJPROPCFG
  2
AmgObjPropCfg
  3
"AmgLay|Product Description: AutoCAD Mechanical|Company: Autodesk, Inc."
 90
     1025
 91
        0
280
     0
281
     0
  0
CLASS
  1
ACAMGHOLECHARTSTDANSI
  2
AcAmgHoleChartStdANSI
  3
AmgDim|Product Description: AutoCAD Mechanical|Company: Autodesk, Inc.
 90
     1024
 91
        0
280
     0
281
     0
  0
CLASS
  1
ACAMGTITLESTD
  2
AcAmgTitleStd
  3
"AmgTitle|Product Description: AutoCAD Mechanical|Company: Autodesk, Inc."
 90
     4095
 91
        0
280
     0
281
     0
  0
CLASS
  1
AMDTNOTETEMPLATEDB
  2
AmdtNoteTemplateDB
  3
AcmSymBB|Product Description: AutoCAD Mechanical|Company: Autodesk, Inc.
 90
     1024
 91
        0
280
     0
281
     0
  0
CLASS
  1
ACAMGFILTERDAT
  2
AcAmgFilterDat
  3
"AcadM|Product Description: AutoCAD Mechanical|Company: Autodesk, Inc."
 90
     1024
 91
        0
280
     0
281
     0
  0
CLASS
  1
CELLSTYLEMAP
  2
AcDbCellStyleMap
  3
ObjectDBX Classes
 90
     1152
 91
        2
280
     0
281
     0
  0
CLASS
  1
DICTIONARYVAR
  2
AcDbDictionaryVar
  3
ObjectDBX Classes
 90
        0
 91
       13
280
     0
281
     0
  0
CLASS
  1
SORTENTSTABLE
  2
AcDbSortentsTable
  3
ObjectDBX Classes
 90
        0
 91
        1
280
     0
281
     0
  0
ENDSEC
  0
SECTION
  2
TABLES
  0
TABLE
  2
VPORT
  5
FF9
102
{ACAD_XDICTIONARY
360
122E
102
}
330
0
100
AcDbSymbolTable
 70
     1
  0
VPORT
  5
1060
330
FF9
100
AcDbSymbolTableRecord
100
AcDbViewportTableRecord
  2
*ACTIVE
 70
     0
 10
0.0
 20
0.0
 11
1.0
 21
1.0
 12
82.94000825243301
 22
335.7211913707672
 13
0.0
 23
0.0
 14
10.0
 24
10.0
 15
10.0
 25
10.0
 16
0.0
 26
0.0
 36
1.0
 17
0.0
 27
0.0
 37
0.0
 40
886.2975088686894
 41
1.234567901234567
 42
50.0
 43
0.0
 44
0.0
 50
0.0
 51
0.0
 71
     0
 72
   100
 73
     1
 74
     3
 75
     0
 76
     0
 77
     0
 78
     0
281
     0
 65
     1
110
0.0
120
0.0
130
0.0
111
1.0
121
0.0
131
0.0
112
0.0
122
1.0
132
0.0
 79
     0
146
0.0
1001
ACAD_NAV_VCDISPLAY
1070
     3
  0
ENDTAB
  0
TABLE
  2
LTYPE
  5
FF6
330
0
100
AcDbSymbolTable
 70
     2
  0
LTYPE
  5
104B
330
FF6
100
AcDbSymbolTableRecord
100
AcDbLinetypeTableRecord
  2
ByBlock
 70
     0
  3

 72
    65
 73
     0
 40
0.0
  0
LTYPE
  5
104C
330
FF6
100
AcDbSymbolTableRecord
100
AcDbLinetypeTableRecord
  2
ByLayer
 70
     0
  3

 72
    65
 73
     0
 40
0.0
  0
LTYPE
  5
104D
330
FF6
100
AcDbSymbolTableRecord
100
AcDbLinetypeTableRecord
  2
CONTINUOUS
 70
     0
  3
Solid line
 72
    65
 73
     0
 40
0.0
  0
LTYPE
  5
1064
330
FF6
100
AcDbSymbolTableRecord
100
AcDbLinetypeTableRecord
  2
CENTER
 70
     0
  3
__ . __
 72
    65
 73
     4
 40
7.0
 49
4.0
 74
     0
 49
-1.0
 74
     0
 49
1.0
 74
     0
 49
-1.0
 74
     0
  0
ENDTAB
  0
TABLE
  2
LAYER
  5
FF3
102
{ACAD_XDICTIONARY
360
155F
102
}
330
0
100
AcDbSymbolTable
 70
     2
  0
LAYER
  5
1045
102
{ACAD_XDICTIONARY
360
1228
102
}
330
FF3
100
AcDbSymbolTableRecord
100
AcDbLayerTableRecord
  2
0
 70
     0
 62
     7
  6
CONTINUOUS
370
    -3
390
1000
  0
LAYER
  5
1570
330
FF3
100
AcDbSymbolTableRecord
100
AcDbLayerTableRecord
  2
Defpoints
 70
     0
 62
     7
  6
CONTINUOUS
290
     0
370
    -3
390
1000
  0
ENDTAB
  0
TABLE
  2
STYLE
  5
FF4
330
0
100
AcDbSymbolTable
 70
     1
  0
STYLE
  5
1046
330
FF4
100
AcDbSymbolTableRecord
100
AcDbTextStyleTableRecord
  2
STANDARD
 70
     0
 40
0.0
 41
1.0
 50
0.0
 71
     0
 42
2.5
  3
txt.shx
  4

  0
ENDTAB
  0
TABLE
  2
VIEW
  5
FF7
330
0
100
AcDbSymbolTable
 70
     0
  0
ENDTAB
  0
TABLE
  2
UCS
  5
FF8
330
0
100
AcDbSymbolTable
 70
     0
  0
ENDTAB
  0
TABLE
  2
APPID
  5
FFA
330
0
100
AcDbSymbolTable
 70
    87
  0
APPID
  5
1047
330
FFA
100
AcDbSymbolTableRecord
100
AcDbRegAppTableRecord
  2
ACAD
 70
     0
  0
APPID
  5
104E
330
FFA
100
AcDbSymbolTableRecord
100
AcDbRegAppTableRecord
  2
ACADANNOTATIVE
 70
     0
  0
APPID
  5
107C
330
FFA
100
AcDbSymbolTableRecord
100
AcDbRegAppTableRecord
  2
MCAD_NO_VIS
 70
     0
  0
APPID
  5
107D
330
FFA
100
AcDbSymbolTableRecord
100
AcDbRegAppTableRecord
  2
ACAD_TEMP_GRAPHIC
 70
     0
  0
APPID
  5
107E
330
FFA
100
AcDbSymbolTableRecord
100
AcDbRegAppTableRecord
  2
ACATTRIBSERVICES
 70
     0
  0
APPID
  5
107F
330
FFA
100
AcDbSymbolTableRecord
100
AcDbRegAppTableRecord
  2
AD_DRAW
 70
     0
  0
APPID
  5
1080
330
FFA
100
AcDbSymbolTableRecord
100
AcDbRegAppTableRecord
  2
DESIGNERASSEMBLIES
 70
     0
  0
APPID
  5
1081
330
FFA
100
AcDbSymbolTableRecord
100
AcDbRegAppTableRecord
  2
ASURF_PCURVE_APPNAME
 70
     0
  0
APPID
  5
1082
330
FFA
100
AcDbSymbolTableRecord
100
AcDbRegAppTableRecord
  2
ACADM_DIM_EDIT
 70
     0
  0
APPID
  5
1083
330
FFA
100
AcDbSymbolTableRecord
100
AcDbRegAppTableRecord
  2
GENIUS_GENDIM_13
 70
     0
  0
APPID
  5
1084
330
FFA
100
AcDbSymbolTableRecord
100
AcDbRegAppTableRecord
  2
GENIUS_GENDTOL_13
 70
     0
  0
APPID
  5
1085
330
FFA
100
AcDbSymbolTableRecord
100
AcDbRegAppTableRecord
  2
GENIUS_GE3DTOL_13
 70
     0
  0
APPID
  5
1086
330
FFA
100
AcDbSymbolTableRecord
100
AcDbRegAppTableRecord
  2
AMG_3D2D_5_0
 70
     0
  0
APPID
  5
1087
330
FFA
100
AcDbSymbolTableRecord
100
AcDbRegAppTableRecord
  2
AMDT_DM_ADJ
 70
     0
  0
APPID
  5
1088
330
FFA
100
AcDbSymbolTableRecord
100
AcDbRegAppTableRecord
  2
CK_MATE-SERIES
 70
     0
  0
APPID
  5
1089
330
FFA
100
AcDbSymbolTableRecord
100
AcDbRegAppTableRecord
  2
GEVID1042077799
 70
     0
  0
APPID
  5
108A
330
FFA
100
AcDbSymbolTableRecord
100
AcDbRegAppTableRecord
  2
GEVMK
 70
     0
  0
APPID
  5
108B
330
FFA
100
AcDbSymbolTableRecord
100
AcDbRegAppTableRecord
  2
GEVDC
 70
     0
  0
APPID
  5
108C
330
FFA
100
AcDbSymbolTableRecord
100
AcDbRegAppTableRecord
  2
GENIUS_GENBH_13
 70
     0
  0
APPID
  5
108D
330
FFA
100
AcDbSymbolTableRecord
100
AcDbRegAppTableRecord
  2
GENIUS_GENOLIS_13
 70
     0
  0
APPID
  5
108E
330
FFA
100
AcDbSymbolTableRecord
100
AcDbRegAppTableRecord
  2
GENIUS_GENOENT_13
 70
     0
  0
APPID
  5
108F
330
FFA
100
AcDbSymbolTableRecord
100
AcDbRegAppTableRecord
  2
GENIUS_GENODEF_13
 70
     0
  0
APPID
  5
1090
330
FFA
100
AcDbSymbolTableRecord
100
AcDbRegAppTableRecord
  2
GENIUS_GENOBJ-NBEHI-BHF_13
 70
     0
  0
APPID
  5
1091
330
FFA
100
AcDbSymbolTableRecord
100
AcDbRegAppTableRecord
  2
GENIUS_GENOREF_13
 70
     0
  0
APPID
  5
1092
330
FFA
100
AcDbSymbolTableRecord
100
AcDbRegAppTableRecord
  2
GENIUS_GENOBJ-NBEHI-BHB_13
 70
     0
  0
APPID
  5
1093
330
FFA
100
AcDbSymbolTableRecord
100
AcDbRegAppTableRecord
  2
GEVID1042183772
 70
     0
  0
APPID
  5
1094
330
FFA
100
AcDbSymbolTableRecord
100
AcDbRegAppTableRecord
  2
GEVID1042183773
 70
     0
  0
APPID
  5
1095
330
FFA
100
AcDbSymbolTableRecord
100
AcDbRegAppTableRecord
  2
GEVID1042183774
 70
     0
  0
APPID
  5
1096
330
FFA
100
AcDbSymbolTableRecord
100
AcDbRegAppTableRecord
  2
DCO15
 70
     0
  0
APPID
  5
1097
330
FFA
100
AcDbSymbolTableRecord
100
AcDbRegAppTableRecord
  2
ACAD_DSTYLE_DIMARC_LENGTH_
 70
     0
  0
APPID
  5
1098
330
FFA
100
AcDbSymbolTableRecord
100
AcDbRegAppTableRecord
  2
ACAD_DSTYLE_DIMJOGGED_JOGA
 70
     0
  0
APPID
  5
1099
330
FFA
100
AcDbSymbolTableRecord
100
AcDbRegAppTableRecord
  2
ACAD_MLEADERVER
 70
     0
  0
APPID
  5
109A
330
FFA
100
AcDbSymbolTableRecord
100
AcDbRegAppTableRecord
  2
GENIUS_GENOBJ-N-FIL_13
 70
     0
  0
APPID
  5
109B
330
FFA
100
AcDbSymbolTableRecord
100
AcDbRegAppTableRecord
  2
ACADANNOPO
 70
     0
  0
APPID
  5
109C
330
FFA
100
AcDbSymbolTableRecord
100
AcDbRegAppTableRecord
  2
GENIUS_GENOBJ-N-TIT_13
 70
     0
  0
APPID
  5
109D
330
FFA
100
AcDbSymbolTableRecord
100
AcDbRegAppTableRecord
  2
GENIUS_GENTITLE_13
 70
     0
  0
APPID
  5
109E
330
FFA
100
AcDbSymbolTableRecord
100
AcDbRegAppTableRecord
  2
GENIUS_GENSCREG_15
 70
     0
  0
APPID
  5
109F
330
FFA
100
AcDbSymbolTableRecord
100
AcDbRegAppTableRecord
  2
GENIUS_GENOBJ-N-SDF_13
 70
     0
  0
APPID
  5
10A0
330
FFA
100
AcDbSymbolTableRecord
100
AcDbRegAppTableRecord
  2
ACAD_PSEXT
 70
     0
  0
APPID
  5
10A1
330
FFA
100
AcDbSymbolTableRecord
100
AcDbRegAppTableRecord
  2
ACAECLAYERSTANDARD
 70
     0
  0
APPID
  5
10A2
330
FFA
100
AcDbSymbolTableRecord
100
AcDbRegAppTableRecord
  2
ACAD_EXEMPT_FROM_CAD_STANDARDS
 70
     0
  0
APPID
  5
10A3
330
FFA
100
AcDbSymbolTableRecord
100
AcDbRegAppTableRecord
  2
ACAD_DSTYLE_DIMINSPECT
 70
     0
  0
APPID
  5
10A4
330
FFA
100
AcDbSymbolTableRecord
100
AcDbRegAppTableRecord
  2
GENIUS_GENDIMSH_14
 70
     0
  0
APPID
  5
10A5
330
FFA
100
AcDbSymbolTableRecord
100
AcDbRegAppTableRecord
  2
GENIUS_GENOBJ-N-CEN_13
 70
     0
  0
APPID
  5
10A6
330
FFA
100
AcDbSymbolTableRecord
100
AcDbRegAppTableRecord
  2
GENIUS_GENCEN_19
 70
     0
  0
APPID
  5
10A7
330
FFA
100
AcDbSymbolTableRecord
100
AcDbRegAppTableRecord
  2
ACAD_DSTYLE_DIMJAG
 70
     0
  0
APPID
  5
10A8
330
FFA
100
AcDbSymbolTableRecord
100
AcDbRegAppTableRecord
  2
ACAD_DSTYLE_DIMTALN
 70
     0
  0
APPID
  5
10A9
330
FFA
100
AcDbSymbolTableRecord
100
AcDbRegAppTableRecord
  2
GENIUS_GENREC_14
 70
     0
  0
APPID
  5
10AA
330
FFA
100
AcDbSymbolTableRecord
100
AcDbRegAppTableRecord
  2
GENIUS_GENOBJ-N-REC_13
 70
     0
  0
APPID
  5
10AB
330
FFA
100
AcDbSymbolTableRecord
100
AcDbRegAppTableRecord
  2
ACAD_DIMASSOC_CALC_DIMLFAC
 70
     0
  0
APPID
  5
10AC
330
FFA
100
AcDbSymbolTableRecord
100
AcDbRegAppTableRecord
  2
ACAD_DIMASSOC_DIMLFAC
 70
     0
  0
APPID
  5
10AD
330
FFA
100
AcDbSymbolTableRecord
100
AcDbRegAppTableRecord
  2
ACAD_DIMASSOC_OVERRIDDEN_D
 70
     0
  0
APPID
  5
10AE
330
FFA
100
AcDbSymbolTableRecord
100
AcDbRegAppTableRecord
  2
ACAD_DSTYLE_DIMEXT_LENGTH
 70
     0
  0
APPID
  5
10AF
330
FFA
100
AcDbSymbolTableRecord
100
AcDbRegAppTableRecord
  2
ACAD_DSTYLE_DIMEXT_ENABLED
 70
     0
  0
APPID
  5
10B0
330
FFA
100
AcDbSymbolTableRecord
100
AcDbRegAppTableRecord
  2
ACAD_DSTYLE_DIMBREAK
 70
     0
  0
APPID
  5
10B1
330
FFA
100
AcDbSymbolTableRecord
100
AcDbRegAppTableRecord
  2
ACAD_DSTYLE_DIMANGULAR_EXT
 70
     0
  0
APPID
  5
10B2
330
FFA
100
AcDbSymbolTableRecord
100
AcDbRegAppTableRecord
  2
ACCMTRANSPARENCY
 70
     0
  0
APPID
  5
10B3
330
FFA
100
AcDbSymbolTableRecord
100
AcDbRegAppTableRecord
  2
GENIUS_GENBLLY_14
 70
     0
  0
APPID
  5
10B4
330
FFA
100
AcDbSymbolTableRecord
100
AcDbRegAppTableRecord
  2
GENIUS_GENTRA_14
 70
     0
  0
APPID
  5
10B5
330
FFA
100
AcDbSymbolTableRecord
100
AcDbRegAppTableRecord
  2
GENIUS_GENOBJ-N-REV_13
 70
     0
  0
APPID
  5
10B6
330
FFA
100
AcDbSymbolTableRecord
100
AcDbRegAppTableRecord
  2
GENIUS_GENOBJ-N-RSSYM_13
 70
     0
  0
APPID
  5
10B7
330
FFA
100
AcDbSymbolTableRecord
100
AcDbRegAppTableRecord
  2
GENIUS_GENSYMENT_13
 70
     0
  0
APPID
  5
10B8
330
FFA
100
AcDbSymbolTableRecord
100
AcDbRegAppTableRecord
  2
GENIUS_GENSCSYM_13
 70
     0
  0
APPID
  5
10B9
330
FFA
100
AcDbSymbolTableRecord
100
AcDbRegAppTableRecord
  2
ACDBBLOCKREPBTAG
 70
     0
  0
APPID
  5
10BA
330
FFA
100
AcDbSymbolTableRecord
100
AcDbRegAppTableRecord
  2
ACAUTHENVIRON
 70
     0
  0
APPID
  5
10BB
330
FFA
100
AcDbSymbolTableRecord
100
AcDbRegAppTableRecord
  2
ACDBDYNAMICBLOCKTRUENAME
 70
     0
  0
APPID
  5
10BC
330
FFA
100
AcDbSymbolTableRecord
100
AcDbRegAppTableRecord
  2
ACDBDYNAMICBLOCKGUID
 70
     0
  0
APPID
  5
10BD
330
FFA
100
AcDbSymbolTableRecord
100
AcDbRegAppTableRecord
  2
ACDBBLOCKREPETAG
 70
     0
  0
APPID
  5
10BE
330
FFA
100
AcDbSymbolTableRecord
100
AcDbRegAppTableRecord
  2
GENIUS_GENOBJ-N-HTC_13
 70
     0
  0
APPID
  5
10BF
330
FFA
100
AcDbSymbolTableRecord
100
AcDbRegAppTableRecord
  2
GENIUS_GENHATCH_13
 70
     0
  0
APPID
  5
10C0
330
FFA
100
AcDbSymbolTableRecord
100
AcDbRegAppTableRecord
  2
GRADIENTCOLOR1ACI
 70
     0
  0
APPID
  5
10C1
330
FFA
100
AcDbSymbolTableRecord
100
AcDbRegAppTableRecord
  2
GRADIENTCOLOR2ACI
 70
     0
  0
APPID
  5
10C2
330
FFA
100
AcDbSymbolTableRecord
100
AcDbRegAppTableRecord
  2
GENIUS_GENFIL_13
 70
     0
  0
APPID
  5
10C3
330
FFA
100
AcDbSymbolTableRecord
100
AcDbRegAppTableRecord
  2
GENIUS_GENOBJ-N-CHA_13
 70
     0
  0
APPID
  5
10C4
330
FFA
100
AcDbSymbolTableRecord
100
AcDbRegAppTableRecord
  2
ACAD_DSTYLE_DIM_LINETYPE
 70
     0
  0
APPID
  5
10C5
330
FFA
100
AcDbSymbolTableRecord
100
AcDbRegAppTableRecord
  2
ACAD_DSTYLE_DIM_EXT1_LINETYPE
 70
     0
  0
APPID
  5
10C6
330
FFA
100
AcDbSymbolTableRecord
100
AcDbRegAppTableRecord
  2
ACAD_DSTYLE_DIM_EXT2_LINETYPE
 70
     0
  0
APPID
  5
10C7
330
FFA
100
AcDbSymbolTableRecord
100
AcDbRegAppTableRecord
  2
ACDBATTR
 70
     0
  0
APPID
  5
10C8
330
FFA
100
AcDbSymbolTableRecord
100
AcDbRegAppTableRecord
  2
ACAD_DSTYLE_DIMRADIAL_EXTENSION
 70
     0
  0
APPID
  5
10C9
330
FFA
100
AcDbSymbolTableRecord
100
AcDbRegAppTableRecord
  2
ACADANNOAV
 70
     0
  0
APPID
  5
10CA
330
FFA
100
AcDbSymbolTableRecord
100
AcDbRegAppTableRecord
  2
ACAD_DSTYLE_DIMTEXT_FILL
 70
     0
  0
APPID
  5
10CB
330
FFA
100
AcDbSymbolTableRecord
100
AcDbRegAppTableRecord
  2
ACAD_DSTYLE_DIMFLIPARROW_W
 70
     0
  0
APPID
  5
10CC
330
FFA
100
AcDbSymbolTableRecord
100
AcDbRegAppTableRecord
  2
ACADBPTGRAPHNODEID
 70
     0
  0
APPID
  5
10CD
330
FFA
100
AcDbSymbolTableRecord
100
AcDbRegAppTableRecord
  2
PE_URL
 70
     0
  0
APPID
  5
10CE
330
FFA
100
AcDbSymbolTableRecord
100
AcDbRegAppTableRecord
  2
ACAD_NAV_VCDISPLAY
 70
     0
  0
APPID
  5
10CF
330
FFA
100
AcDbSymbolTableRecord
100
AcDbRegAppTableRecord
  2
CONTENTBLOCKICON
 70
     0
  0
APPID
  5
1268
330
FFA
100
AcDbSymbolTableRecord
100
AcDbRegAppTableRecord
  2
ACAD_DSTYLE_DIMARC_LENGTH_SYMBOL
 70
     0
  0
ENDTAB
  0
TABLE
  2
DIMSTYLE
  5
FFB
330
0
100
AcDbSymbolTable
 70
     1
100
AcDbDimStyleTable
 71
     1
340
1048
  0
DIMSTYLE
105
1048
330
FFB
100
AcDbSymbolTableRecord
100
AcDbDimStyleTableRecord
  2
STANDARD
 70
     0
271
     8
272
     8
274
     3
279
     2
284
     8
285
     8
286
     8
340
1046
  0
ENDTAB
  0
TABLE
  2
BLOCK_RECORD
  5
FF2
330
0
100
AcDbSymbolTable
 70
     0
  0
BLOCK_RECORD
  5
105C
102
{ACAD_XDICTIONARY
360
12F8
102
}
330
FF2
100
AcDbSymbolTableRecord
100
AcDbBlockTableRecord
  2
*Model_Space
340
105F
  0
BLOCK_RECORD
  5
1058
330
FF2
100
AcDbSymbolTableRecord
100
AcDbBlockTableRecord
  2
*Paper_Space
340
105B
  0
ENDTAB
  0
ENDSEC
  0
SECTION
  2
BLOCKS
  0
BLOCK
  5
105D
330
105C
100
AcDbEntity
  8
0
100
AcDbBlockBegin
  2
*Model_Space
 70
     0
 10
0.0
 20
0.0
 30
0.0
  3
*Model_Space
  1

  0
ENDBLK
  5
105E
330
105C
100
AcDbEntity
  8
0
100
AcDbBlockEnd
  0
BLOCK
  5
1059
330
1058
100
AcDbEntity
 67
     1
  8
0
100
AcDbBlockBegin
  2
*Paper_Space
 70
     0
 10
0.0
 20
0.0
 30
0.0
  3
*Paper_Space
  1

  0
ENDBLK
  5
105A
330
1058
100
AcDbEntity
 67
     1
  8
0
100
AcDbBlockEnd
  0
ENDSEC
  0
SECTION
  2
ENTITIES
  0
LINE
  5
22F
330
105C
100
AcDbEntity
  8
0
100
AcDbLine
 10
-177.5
 20
37.74845886230469
 30
0.0
 11
-177.5
 21
40.63520812988281
 31
0.0
  0
LINE
  5
230
330
105C
100
AcDbEntity
  8
0
100
AcDbLine
 10
-180.0000294709821
 20
42.07860341852483
 30
0.0
 11
-177.5000577111188
 21
40.63524402409552
 31
0.0
  0
LINE
  5
231
330
105C
100
AcDbEntity
  8
0
100
AcDbLine
 10
-179.9999952443659
 20
36.30506184843351
 30
0.0
 11
-177.499970626507
 21
37.74845176044133
 31
0.0
  0
LINE
  5
232
330
105C
100
AcDbEntity
  8
0
100
AcDbLine
 10
-156.0000380898441
 20
-2.886737607803553
 30
0.0
 11
-158.5000098497074
 21
-1.443378213374245
 31
0.0
  0
LINE
  5
233
330
105C
100
AcDbEntity
  8
0
100
AcDbLine
 10
-156.0000098160545
 20
2.886748786118416
 30
0.0
 11
-153.5000380561911
 21
1.443389391689109
 31
0.0
  0
LINE
  5
234
330
105C
100
AcDbEntity
  8
0
100
AcDbLine
 10
-153.5
 20
-1.443374633789062
 30
0.0
 11
-153.5
 21
1.443374633789062
 31
0.0
  0
LINE
  5
235
330
105C
100
AcDbEntity
  8
0
100
AcDbLine
 10
-158.5
 20
-1.443374633789062
 30
0.0
 11
-158.5
 21
1.443374633789062
 31
0.0
  0
LINE
  5
236
330
105C
100
AcDbEntity
  8
0
100
AcDbLine
 10
-156.0000103495441
 20
2.886748172339564
 30
0.0
 11
-158.4999821094075
 21
1.443388777910256
 31
0.0
  0
LINE
  5
237
330
105C
100
AcDbEntity
  8
0
100
AcDbLine
 10
-155.9999820757545
 20
-2.88673822158239
 30
0.0
 11
-153.5000103158912
 21
-1.443378827153082
 31
0.0
  0
LINE
  5
238
330
105C
100
AcDbEntity
  8
0
100
AcDbLine
 10
-180.0000136592492
 20
-42.07859462439579
 30
0.0
 11
-182.500038277108
 21
-40.63520471238795
 31
0.0
  0
LINE
  5
239
330
105C
100
AcDbEntity
  8
0
100
AcDbLine
 10
-180.0000382434553
 20
-36.30507771289528
 30
0.0
 11
-177.5000136255963
 21
-37.74846762490313
 31
0.0
  0
LINE
  5
23A
330
105C
100
AcDbEntity
  8
0
100
AcDbLine
 10
-177.5
 20
-40.63520812988281
 30
0.0
 11
-177.5
 21
-37.74845504760742
 31
0.0
  0
LINE
  5
23B
330
105C
100
AcDbEntity
  8
0
100
AcDbLine
 10
-182.5
 20
-40.63520812988281
 30
0.0
 11
-182.5
 21
-37.74845504760742
 31
0.0
  0
LINE
  5
23C
330
105C
100
AcDbEntity
  8
0
100
AcDbLine
 10
-179.9999618876869
 20
-36.3051023714861
 30
0.0
 11
-182.4999865055458
 21
-37.74849228349396
 31
0.0
  0
LINE
  5
23D
330
105C
100
AcDbEntity
  8
0
100
AcDbLine
 10
-179.9999864718929
 20
-42.07861928298664
 30
0.0
 11
-177.4999618540339
 21
-40.63522937097878
 31
0.0
  0
LINE
  5
24A
330
105C
100
AcDbEntity
  8
0
100
AcDbLine
 10
-182.5
 20
37.74845886230469
 30
0.0
 11
-182.5
 21
40.63520812988281
 31
0.0
  0
LINE
  5
24B
330
105C
100
AcDbEntity
  8
0
100
AcDbLine
 10
-180.0000577447717
 20
36.30511702460288
 30
0.0
 11
-182.5000295046351
 21
37.74847641903219
 31
0.0
  0
LINE
  5
24E
330
105C
100
AcDbEntity
  8
0
100
AcDbLine
 10
-179.99997066016
 20
42.078578759934
 30
0.0
 11
-182.4999952780189
 21
40.63518884792617
 31
0.0
  0
LINE
  5
252
330
105C
100
AcDbEntity
  8
0
  6
CENTER
100
AcDbLine
 10
-145.0
 20
0.0
 30
0.0
 11
-255.0
 21
0.0
 31
0.0
  0
LINE
  5
25E
330
105C
100
AcDbEntity
  8
0
100
AcDbLine
 10
20.5999755859375
 20
36.19183349609375
 30
0.0
 11
18.5999755859375
 21
36.19183349609375
 31
0.0
  0
LINE
  5
260
330
105C
100
AcDbEntity
  8
0
100
AcDbLine
 10
18.1243896484375
 20
33.4183349609375
 30
0.0
 11
15.0
 21
33.4183349609375
 31
0.0
  0
LINE
  5
266
330
105C
100
AcDbEntity
  8
0
100
AcDbLine
 10
34.95842085425238
 20
38.22363689715828
 30
0.0
 11
33.08117714720116
 21
33.06595238590996
 31
0.0
  0
LINE
  5
267
330
105C
100
AcDbEntity
  8
0
100
AcDbLine
 10
31.2017822265625
 20
31.75
 30
0.0
 11
19.99998535919844
 21
31.75
 31
0.0
  0
LINE
  5
26C
330
105C
100
AcDbEntity
  8
0
100
AcDbLine
 10
31.2017822265625
 20
-31.74999618530274
 30
0.0
 11
19.99997089085722
 21
-31.74999618530274
 31
0.0
  0
LINE
  5
26E
330
105C
100
AcDbEntity
  8
0
100
AcDbLine
 10
34.95843213369108
 20
-38.22361916504869
 30
0.0
 11
33.08119364545325
 21
-33.06594899237178
 31
0.0
  0
LINE
  5
275
330
105C
100
AcDbEntity
  8
0
100
AcDbLine
 10
38.0
 20
38.75
 30
0.0
 11
35.71014404296875
 21
38.75
 31
0.0
  0
LINE
  5
276
330
105C
100
AcDbEntity
  8
0
100
AcDbLine
 10
38.0
 20
38.75
 30
0.0
 11
38.0
 21
-38.74999618530273
 31
0.0
  0
LINE
  5
277
330
105C
100
AcDbEntity
  8
0
  6
CENTER
100
AcDbLine
 10
43.0
 20
0.0
 30
0.0
 11
-43.0
 21
0.0
 31
0.0
  0
LINE
  5
27A
330
105C
100
AcDbEntity
  8
0
100
AcDbLine
 10
38.0
 20
-38.74999618530273
 30
0.0
 11
35.71014404296875
 21
-38.74999618530273
 31
0.0
  0
LINE
  5
27B
330
105C
100
AcDbEntity
  8
0
100
AcDbLine
 10
7.5
 20
49.89999389648437
 30
0.0
 11
7.5
 21
51.79998779296874
 31
0.0
  0
LINE
  5
280
330
105C
100
AcDbEntity
  8
0
100
AcDbLine
 10
15.12451171875
 20
-44.96533584594725
 30
0.0
 11
12.0
 21
-44.96533584594725
 31
0.0
  0
LINE
  5
281
330
105C
100
AcDbEntity
  8
0
100
AcDbLine
 10
15.5999755859375
 20
-43.52195739746092
 30
0.0
 11
15.5999755859375
 21
-34.86169052124024
 31
0.0
  0
LINE
  5
282
330
105C
100
AcDbEntity
  8
0
100
AcDbLine
 10
15.12451171875
 20
-42.07858276367186
 30
0.0
 11
12.0
 21
-42.07858276367186
 31
0.0
  0
LINE
  5
283
330
105C
100
AcDbEntity
  8
0
100
AcDbLine
 10
15.12451171875
 20
-36.30508041381836
 30
0.0
 11
12.0
 21
-36.30508041381836
 31
0.0
  0
LINE
  5
284
330
105C
100
AcDbEntity
  8
0
100
AcDbLine
 10
16.5999755859375
 20
-36.19183349609375
 30
0.0
 11
15.5999755859375
 21
-36.19183349609375
 31
0.0
  0
LINE
  5
285
330
105C
100
AcDbEntity
  8
0
100
AcDbLine
 10
16.5999755859375
 20
-42.19183349609375
 30
0.0
 11
15.5999755859375
 21
-42.19183349609375
 31
0.0
  0
LINE
  5
286
330
105C
100
AcDbEntity
  8
0
100
AcDbLine
 10
17.5999755859375
 20
-41.19183349609374
 30
0.0
 11
17.5999755859375
 21
-37.19183349609375
 31
0.0
  0
LINE
  5
287
330
105C
100
AcDbEntity
  8
0
100
AcDbLine
 10
16.59999758747341
 20
-36.19186676443144
 30
0.0
 11
17.59997704484476
 21
-37.19184630609476
 31
0.0
  0
LINE
  5
288
330
105C
100
AcDbEntity
  8
0
100
AcDbLine
 10
17.59997687625719
 20
-41.1918506209099
 30
0.0
 11
16.59999733459386
 21
-42.19183007828128
 31
0.0
  0
LINE
  5
29B
330
105C
100
AcDbEntity
  8
0
100
AcDbLine
 10
18.1243896484375
 20
36.30508422851562
 30
0.0
 11
14.99993896484375
 21
36.30508422851562
 31
0.0
  0
LINE
  5
29C
330
105C
100
AcDbEntity
  8
0
100
AcDbLine
 10
18.09564208984375
 20
44.96534729003905
 30
0.0
 11
14.99993896484375
 21
44.96534729003905
 31
0.0
  0
LINE
  5
2B8
330
105C
100
AcDbEntity
  8
0
100
AcDbLine
 10
18.5999755859375
 20
34.86170959472655
 30
0.0
 11
18.5999755859375
 21
43.52197265625
 31
0.0
  0
LINE
  5
2CB
330
105C
100
AcDbEntity
  8
0
100
AcDbLine
 10
6.66571044921875
 20
-49.89999008178711
 30
0.0
 11
12.0
 21
-49.89999008178711
 31
0.0
  0
LINE
  5
2D1
330
105C
100
AcDbEntity
  8
0
100
AcDbLine
 10
17.11034449467517
 20
33.4183349609375
 30
0.0
 11
19.99998535919844
 21
31.75
 31
0.0
  0
LINE
  5
2DB
330
105C
100
AcDbEntity
  8
0
100
AcDbLine
 10
15.53995716089443
 20
-34.32498635910272
 30
0.0
 11
19.99997089085722
 21
-31.74999618530274
 31
0.0
  0
LINE
  5
2E0
330
105C
100
AcDbEntity
  8
0
100
AcDbLine
 10
20.5999755859375
 20
42.19183349609375
 30
0.0
 11
18.5999755859375
 21
42.19183349609375
 31
0.0
  0
LINE
  5
2E1
330
105C
100
AcDbEntity
  8
0
100
AcDbLine
 10
18.1243896484375
 20
42.07859802246093
 30
0.0
 11
14.99993896484375
 21
42.07859802246093
 31
0.0
  0
LINE
  5
2E2
330
105C
100
AcDbEntity
  8
0
100
AcDbLine
 10
20.5999566527446
 20
42.19182500838282
 30
0.0
 11
21.59993611011595
 21
41.19184546671948
 31
0.0
  0
LINE
  5
2E3
330
105C
100
AcDbEntity
  8
0
100
AcDbLine
 10
21.5999755859375
 20
37.19183349609375
 30
0.0
 11
21.5999755859375
 21
41.19183349609374
 31
0.0
  0
LINE
  5
2E4
330
105C
100
AcDbEntity
  8
0
100
AcDbLine
 10
21.59993594152842
 20
37.19184115190433
 30
0.0
 11
20.59995639986505
 21
36.19186169453296
 31
0.0
  0
LINE
  5
306
330
105C
100
AcDbEntity
  8
0
100
AcDbLine
 10
9.233154296875
 20
54.79998779296875
 30
0.0
 11
9.233154296875
 21
53.79998779296875
 31
0.0
  0
LINE
  5
311
330
105C
100
AcDbEntity
  8
0
100
AcDbLine
 10
16.0
 20
66.09999084472656
 30
0.0
 11
16.0
 21
56.68675143990315
 31
0.0
  0
LINE
  5
312
330
105C
100
AcDbEntity
  8
0
100
AcDbLine
 10
10.99997878380835
 20
53.79998779296875
 30
0.0
 11
16.0
 21
56.68675143990315
 31
0.0
  0
LINE
  5
313
330
105C
100
AcDbEntity
  8
0
100
AcDbLine
 10
11.53587717700034
 20
51.79998779296875
 30
0.0
 11
18.0
 21
55.53205091188636
 31
0.0
  0
LINE
  5
314
330
105C
100
AcDbEntity
  8
0
100
AcDbLine
 10
18.0
 20
66.09999084472656
 30
0.0
 11
18.0
 21
55.53205091188636
 31
0.0
  0
LINE
  5
318
330
105C
100
AcDbEntity
  8
0
100
AcDbLine
 10
16.0
 20
66.09999084472656
 30
0.0
 11
18.0
 21
66.09999084472656
 31
0.0
  0
LINE
  5
31A
330
105C
100
AcDbEntity
  8
0
100
AcDbLine
 10
-56.99996948242185
 20
170.6000061035156
 30
0.0
 11
-56.99996948242185
 21
92.60000610351562
 31
0.0
  0
LINE
  5
31B
330
105C
100
AcDbEntity
  8
0
100
AcDbLine
 10
-68.49996948242189
 20
124.094482421875
 30
0.0
 11
-68.49996948242189
 21
139.1055908203125
 31
0.0
  0
LINE
  5
31C
330
105C
100
AcDbEntity
  8
0
100
AcDbLine
 10
-73.27505493164062
 20
135.3528137207031
 30
0.0
 11
-68.49996948242189
 21
135.3528137207031
 31
0.0
  0
LINE
  5
31D
330
105C
100
AcDbEntity
  8
0
100
AcDbLine
 10
-73.27505493164062
 20
127.8472595214843
 30
0.0
 11
-68.49996948242189
 21
127.8472595214843
 31
0.0
  0
LINE
  5
31E
330
105C
100
AcDbEntity
  8
0
100
AcDbLine
 10
-73.27505493164062
 20
139.1055908203125
 30
0.0
 11
-68.49996948242189
 21
139.1055908203125
 31
0.0
  0
LINE
  5
31F
330
105C
100
AcDbEntity
  8
0
100
AcDbLine
 10
-58.59994506835938
 20
140.1000366210937
 30
0.0
 11
-58.59994506835938
 21
123.1000366210937
 31
0.0
  0
LINE
  5
320
330
105C
100
AcDbEntity
  8
0
100
AcDbLine
 10
-58.59994506835938
 20
140.1000366210937
 30
0.0
 11
-56.99996948242185
 21
140.1000366210937
 31
0.0
  0
LINE
  5
321
330
105C
100
AcDbEntity
  8
0
100
AcDbLine
 10
-73.27505493164062
 20
124.094482421875
 30
0.0
 11
-68.49996948242189
 21
124.094482421875
 31
0.0
  0
LINE
  5
322
330
105C
100
AcDbEntity
  8
0
100
AcDbLine
 10
-58.59994506835938
 20
123.1000366210937
 30
0.0
 11
-56.99996948242185
 21
123.1000366210937
 31
0.0
  0
LINE
  5
323
330
105C
100
AcDbEntity
  8
0
100
AcDbLine
 10
-63.59994506835938
 20
125.9708557128906
 30
0.0
 11
-63.59994506835938
 21
137.2291870117187
 31
0.0
  0
LINE
  5
324
330
105C
100
AcDbEntity
  8
0
100
AcDbLine
 10
-62.87509155273436
 20
124.094482421875
 30
0.0
 11
-59.32485961914061
 21
124.094482421875
 31
0.0
  0
LINE
  5
325
330
105C
100
AcDbEntity
  8
0
100
AcDbLine
 10
-62.87509155273436
 20
139.1055908203125
 30
0.0
 11
-59.32485961914061
 21
139.1055908203125
 31
0.0
  0
LINE
  5
326
330
105C
100
AcDbEntity
  8
0
100
AcDbLine
 10
-62.87509155273436
 20
127.8472595214843
 30
0.0
 11
-59.32485961914061
 21
127.8472595214843
 31
0.0
  0
LINE
  5
327
330
105C
100
AcDbEntity
  8
0
100
AcDbLine
 10
-62.87509155273436
 20
135.3528137207031
 30
0.0
 11
-59.32485961914061
 21
135.3528137207031
 31
0.0
  0
LINE
  5
328
330
105C
100
AcDbEntity
  8
0
100
AcDbLine
 10
-68.49996948242189
 20
135.6000366210937
 30
0.0
 11
-63.59994506835938
 21
135.6000366210937
 31
0.0
  0
LINE
  5
329
330
105C
100
AcDbEntity
  8
0
100
AcDbLine
 10
-68.49996948242189
 20
127.6000366210937
 30
0.0
 11
-63.59994506835938
 21
127.6000366210937
 31
0.0
  0
LINE
  5
32A
330
105C
100
AcDbEntity
  8
0
100
AcDbLine
 10
-63.59994506835938
 20
134.8000183105469
 30
0.0
 11
-68.49996948242189
 21
134.8000183105469
 31
0.0
  0
LINE
  5
32B
330
105C
100
AcDbEntity
  8
0
100
AcDbLine
 10
-63.59994506835938
 20
128.4000244140625
 30
0.0
 11
-68.49996948242189
 21
128.4000244140625
 31
0.0
  0
LINE
  5
32C
330
105C
100
AcDbEntity
  8
0
100
AcDbLine
 10
-73.99996948242187
 20
125.9708557128906
 30
0.0
 11
-73.99996948242187
 21
137.2291870117187
 31
0.0
  0
LINE
  5
32D
330
105C
100
AcDbEntity
  8
0
100
AcDbLine
 10
86.50007629394531
 20
139.1055908203125
 30
0.0
 11
86.50007629394531
 21
124.094482421875
 31
0.0
  0
LINE
  5
32E
330
105C
100
AcDbEntity
  8
0
100
AcDbLine
 10
91.27519226074214
 20
127.8472595214843
 30
0.0
 11
86.50007629394531
 21
127.8472595214843
 31
0.0
  0
LINE
  5
32F
330
105C
100
AcDbEntity
  8
0
100
AcDbLine
 10
91.27519226074214
 20
135.3528137207031
 30
0.0
 11
86.50007629394531
 21
135.3528137207031
 31
0.0
  0
LINE
  5
330
330
105C
100
AcDbEntity
  8
0
100
AcDbLine
 10
91.27519226074214
 20
124.094482421875
 30
0.0
 11
86.50007629394531
 21
124.094482421875
 31
0.0
  0
LINE
  5
331
330
105C
100
AcDbEntity
  8
0
100
AcDbLine
 10
76.60008239746094
 20
123.1000366210937
 30
0.0
 11
76.60008239746094
 21
140.1000366210937
 31
0.0
  0
LINE
  5
332
330
105C
100
AcDbEntity
  8
0
100
AcDbLine
 10
76.60008239746094
 20
123.1000366210937
 30
0.0
 11
75.00007629394531
 21
123.1000366210937
 31
0.0
  0
LINE
  5
333
330
105C
100
AcDbEntity
  8
0
100
AcDbLine
 10
76.60008239746094
 20
140.1000366210937
 30
0.0
 11
75.00007629394531
 21
140.1000366210937
 31
0.0
  0
LINE
  5
334
330
105C
100
AcDbEntity
  8
0
100
AcDbLine
 10
81.60008239746094
 20
137.2291870117187
 30
0.0
 11
81.60008239746094
 21
125.9708557128906
 31
0.0
  0
LINE
  5
335
330
105C
100
AcDbEntity
  8
0
100
AcDbLine
 10
91.27519226074214
 20
139.1055908203125
 30
0.0
 11
86.50007629394531
 21
139.1055908203125
 31
0.0
  0
LINE
  5
336
330
105C
100
AcDbEntity
  8
0
100
AcDbLine
 10
80.87519836425782
 20
139.1055908203125
 30
0.0
 11
77.32496643066406
 21
139.1055908203125
 31
0.0
  0
LINE
  5
337
330
105C
100
AcDbEntity
  8
0
100
AcDbLine
 10
80.87519836425782
 20
124.094482421875
 30
0.0
 11
77.32496643066406
 21
124.094482421875
 31
0.0
  0
LINE
  5
338
330
105C
100
AcDbEntity
  8
0
100
AcDbLine
 10
80.87519836425782
 20
135.3528137207031
 30
0.0
 11
77.32496643066406
 21
135.3528137207031
 31
0.0
  0
LINE
  5
339
330
105C
100
AcDbEntity
  8
0
100
AcDbLine
 10
80.87519836425782
 20
127.8472595214843
 30
0.0
 11
77.32496643066406
 21
127.8472595214843
 31
0.0
  0
LINE
  5
33A
330
105C
100
AcDbEntity
  8
0
100
AcDbLine
 10
86.50007629394531
 20
127.6000366210937
 30
0.0
 11
81.60008239746094
 21
127.6000366210937
 31
0.0
  0
LINE
  5
33B
330
105C
100
AcDbEntity
  8
0
100
AcDbLine
 10
86.50007629394531
 20
135.6000366210937
 30
0.0
 11
81.60008239746094
 21
135.6000366210937
 31
0.0
  0
LINE
  5
33C
330
105C
100
AcDbEntity
  8
0
100
AcDbLine
 10
81.60008239746094
 20
128.4000244140625
 30
0.0
 11
86.50007629394531
 21
128.4000244140625
 31
0.0
  0
LINE
  5
33D
330
105C
100
AcDbEntity
  8
0
100
AcDbLine
 10
81.60008239746094
 20
134.8000183105469
 30
0.0
 11
86.50007629394531
 21
134.8000183105469
 31
0.0
  0
LINE
  5
33E
330
105C
100
AcDbEntity
  8
0
100
AcDbLine
 10
92.00007629394532
 20
137.2291870117187
 30
0.0
 11
92.00007629394532
 21
125.9708557128906
 31
0.0
  0
LINE
  5
33F
330
105C
100
AcDbEntity
  8
0
100
AcDbLine
 10
81.5957489013672
 20
165.9867858886719
 30
0.0
 11
78.10008239746093
 21
165.9867858886719
 31
0.0
  0
LINE
  5
340
330
105C
100
AcDbEntity
  8
0
100
AcDbLine
 10
81.5957489013672
 20
160.2132873535156
 30
0.0
 11
78.10008239746093
 21
160.2132873535156
 31
0.0
  0
LINE
  5
341
330
105C
100
AcDbEntity
  8
0
100
AcDbLine
 10
81.5957489013672
 20
157.3265075683593
 30
0.0
 11
78.10008239746093
 21
157.3265075683593
 31
0.0
  0
LINE
  5
342
330
105C
100
AcDbEntity
  8
0
100
AcDbLine
 10
82.10008239746093
 20
158.7698974609375
 30
0.0
 11
82.10008239746093
 21
167.4301452636719
 31
0.0
  0
LINE
  5
343
330
105C
100
AcDbEntity
  8
0
100
AcDbLine
 10
81.5957489013672
 20
168.87353515625
 30
0.0
 11
78.10008239746093
 21
168.87353515625
 31
0.0
  0
LINE
  5
344
330
105C
100
AcDbEntity
  8
0
100
AcDbLine
 10
81.5957489013672
 20
102.9867858886718
 30
0.0
 11
78.10008239746093
 21
102.9867858886718
 31
0.0
  0
LINE
  5
345
330
105C
100
AcDbEntity
  8
0
100
AcDbLine
 10
81.5957489013672
 20
97.21328735351562
 30
0.0
 11
78.10008239746093
 21
97.21328735351562
 31
0.0
  0
LINE
  5
346
330
105C
100
AcDbEntity
  8
0
100
AcDbLine
 10
81.5957489013672
 20
94.32650756835936
 30
0.0
 11
78.10008239746093
 21
94.32650756835936
 31
0.0
  0
LINE
  5
347
330
105C
100
AcDbEntity
  8
0
100
AcDbLine
 10
82.10008239746093
 20
95.76989746093749
 30
0.0
 11
82.10008239746093
 21
104.4301452636718
 31
0.0
  0
LINE
  5
348
330
105C
100
AcDbEntity
  8
0
100
AcDbLine
 10
81.5957489013672
 20
105.87353515625
 30
0.0
 11
78.10008239746093
 21
105.87353515625
 31
0.0
  0
LINE
  5
349
330
105C
100
AcDbEntity
  8
0
100
AcDbLine
 10
-63.59567260742188
 20
97.21328735351562
 30
0.0
 11
-60.09994506835937
 21
97.21328735351562
 31
0.0
  0
LINE
  5
34A
330
105C
100
AcDbEntity
  8
0
100
AcDbLine
 10
-63.59567260742188
 20
102.9867858886718
 30
0.0
 11
-60.09994506835937
 21
102.9867858886718
 31
0.0
  0
LINE
  5
34B
330
105C
100
AcDbEntity
  8
0
100
AcDbLine
 10
-63.59567260742188
 20
105.87353515625
 30
0.0
 11
-60.09994506835937
 21
105.87353515625
 31
0.0
  0
LINE
  5
34C
330
105C
100
AcDbEntity
  8
0
100
AcDbLine
 10
-64.09994506835939
 20
104.4301452636718
 30
0.0
 11
-64.09994506835939
 21
95.76989746093749
 31
0.0
  0
LINE
  5
34D
330
105C
100
AcDbEntity
  8
0
100
AcDbLine
 10
-63.59567260742188
 20
94.32650756835936
 30
0.0
 11
-60.09994506835937
 21
94.32650756835936
 31
0.0
  0
LINE
  5
34E
330
105C
100
AcDbEntity
  8
0
100
AcDbLine
 10
-63.59567260742188
 20
160.2132873535156
 30
0.0
 11
-60.09994506835937
 21
160.2132873535156
 31
0.0
  0
LINE
  5
34F
330
105C
100
AcDbEntity
  8
0
100
AcDbLine
 10
-63.59567260742188
 20
165.9867858886719
 30
0.0
 11
-60.09994506835937
 21
165.9867858886719
 31
0.0
  0
LINE
  5
350
330
105C
100
AcDbEntity
  8
0
100
AcDbLine
 10
-63.59567260742188
 20
168.87353515625
 30
0.0
 11
-60.09994506835937
 21
168.87353515625
 31
0.0
  0
LINE
  5
351
330
105C
100
AcDbEntity
  8
0
100
AcDbLine
 10
-64.09994506835939
 20
167.4301452636719
 30
0.0
 11
-64.09994506835939
 21
158.7698974609375
 31
0.0
  0
LINE
  5
352
330
105C
100
AcDbEntity
  8
0
100
AcDbLine
 10
-63.59567260742188
 20
157.3265075683593
 30
0.0
 11
-60.09994506835937
 21
157.3265075683593
 31
0.0
  0
LINE
  5
353
330
105C
100
AcDbEntity
  8
0
100
AcDbLine
 10
78.10008239746093
 20
169.2000122070312
 30
0.0
 11
76.60008239746094
 21
169.2000122070312
 31
0.0
  0
LINE
  5
354
330
105C
100
AcDbEntity
  8
0
100
AcDbLine
 10
78.10008239746093
 20
157.0000305175781
 30
0.0
 11
76.60008239746094
 21
157.0000305175781
 31
0.0
  0
LINE
  5
357
330
105C
100
AcDbEntity
  8
0
100
AcDbLine
 10
78.10008239746093
 20
169.2000122070312
 30
0.0
 11
78.10008239746093
 21
157.0000305175781
 31
0.0
  0
LINE
  5
358
330
105C
100
AcDbEntity
  8
0
100
AcDbLine
 10
76.60008239746094
 20
156.8500366210937
 30
0.0
 11
75.00007629394531
 21
156.8500366210937
 31
0.0
  0
LINE
  5
359
330
105C
100
AcDbEntity
  8
0
100
AcDbLine
 10
76.60008239746094
 20
169.3500366210937
 30
0.0
 11
76.60008239746094
 21
156.8500366210937
 31
0.0
  0
LINE
  5
35A
330
105C
100
AcDbEntity
  8
0
100
AcDbLine
 10
76.60008239746094
 20
169.3500366210937
 30
0.0
 11
75.00007629394531
 21
169.3500366210937
 31
0.0
  0
LINE
  5
35B
330
105C
100
AcDbEntity
  8
0
100
AcDbLine
 10
78.10008239746093
 20
106.2000122070312
 30
0.0
 11
76.60008239746094
 21
106.2000122070312
 31
0.0
  0
LINE
  5
35C
330
105C
100
AcDbEntity
  8
0
100
AcDbLine
 10
78.10008239746093
 20
94.00003051757812
 30
0.0
 11
76.60008239746094
 21
94.00003051757812
 31
0.0
  0
LINE
  5
35F
330
105C
100
AcDbEntity
  8
0
100
AcDbLine
 10
78.10008239746093
 20
106.2000122070312
 30
0.0
 11
78.10008239746093
 21
94.00003051757812
 31
0.0
  0
LINE
  5
360
330
105C
100
AcDbEntity
  8
0
100
AcDbLine
 10
76.60008239746094
 20
93.85003662109371
 30
0.0
 11
75.00007629394531
 21
93.85003662109371
 31
0.0
  0
LINE
  5
361
330
105C
100
AcDbEntity
  8
0
100
AcDbLine
 10
76.60008239746094
 20
106.3500366210937
 30
0.0
 11
76.60008239746094
 21
93.85003662109371
 31
0.0
  0
LINE
  5
362
330
105C
100
AcDbEntity
  8
0
100
AcDbLine
 10
76.60008239746094
 20
106.3500366210937
 30
0.0
 11
75.00007629394531
 21
106.3500366210937
 31
0.0
  0
LINE
  5
363
330
105C
100
AcDbEntity
  8
0
100
AcDbLine
 10
-60.09994506835937
 20
94.00003051757812
 30
0.0
 11
-58.59994506835938
 21
94.00003051757812
 31
0.0
  0
LINE
  5
364
330
105C
100
AcDbEntity
  8
0
100
AcDbLine
 10
-60.09994506835937
 20
106.2000122070312
 30
0.0
 11
-58.59994506835938
 21
106.2000122070312
 31
0.0
  0
LINE
  5
367
330
105C
100
AcDbEntity
  8
0
100
AcDbLine
 10
-60.09994506835937
 20
94.00003051757812
 30
0.0
 11
-60.09994506835937
 21
106.2000122070312
 31
0.0
  0
LINE
  5
368
330
105C
100
AcDbEntity
  8
0
100
AcDbLine
 10
-58.59994506835938
 20
106.3500366210937
 30
0.0
 11
-56.99996948242185
 21
106.3500366210937
 31
0.0
  0
LINE
  5
369
330
105C
100
AcDbEntity
  8
0
100
AcDbLine
 10
-58.59994506835938
 20
93.85003662109371
 30
0.0
 11
-58.59994506835938
 21
106.3500366210937
 31
0.0
  0
LINE
  5
36A
330
105C
100
AcDbEntity
  8
0
100
AcDbLine
 10
-58.59994506835938
 20
93.85003662109371
 30
0.0
 11
-56.99996948242185
 21
93.85003662109371
 31
0.0
  0
LINE
  5
36B
330
105C
100
AcDbEntity
  8
0
100
AcDbLine
 10
-60.09994506835937
 20
157.0000305175781
 30
0.0
 11
-58.59994506835938
 21
157.0000305175781
 31
0.0
  0
LINE
  5
36C
330
105C
100
AcDbEntity
  8
0
100
AcDbLine
 10
-60.09994506835937
 20
169.2000122070312
 30
0.0
 11
-58.59994506835938
 21
169.2000122070312
 31
0.0
  0
LINE
  5
36F
330
105C
100
AcDbEntity
  8
0
100
AcDbLine
 10
-60.09994506835937
 20
157.0000305175781
 30
0.0
 11
-60.09994506835937
 21
169.2000122070312
 31
0.0
  0
LINE
  5
370
330
105C
100
AcDbEntity
  8
0
100
AcDbLine
 10
-58.59994506835938
 20
169.3500366210937
 30
0.0
 11
-56.99996948242185
 21
169.3500366210937
 31
0.0
  0
LINE
  5
371
330
105C
100
AcDbEntity
  8
0
100
AcDbLine
 10
-58.59994506835938
 20
156.8500366210937
 30
0.0
 11
-58.59994506835938
 21
169.3500366210937
 31
0.0
  0
LINE
  5
372
330
105C
100
AcDbEntity
  8
0
100
AcDbLine
 10
-58.59994506835938
 20
156.8500366210937
 30
0.0
 11
-56.99996948242185
 21
156.8500366210937
 31
0.0
  0
LINE
  5
377
330
105C
100
AcDbEntity
  8
0
100
AcDbLine
 10
-56.99996948242185
 20
92.60000610351562
 30
0.0
 11
75.00007629394531
 21
92.60000610351562
 31
0.0
  0
LINE
  5
378
330
105C
100
AcDbEntity
  8
0
100
AcDbLine
 10
-56.99996948242185
 20
170.6000061035156
 30
0.0
 11
75.00007629394531
 21
170.6000061035156
 31
0.0
  0
LINE
  5
379
330
105C
100
AcDbEntity
  8
0
100
AcDbLine
 10
-52.49996948242188
 20
170.6000061035156
 30
0.0
 11
-52.49996948242188
 21
92.60000610351562
 31
0.0
  0
LINE
  5
37A
330
105C
100
AcDbEntity
  8
0
100
AcDbLine
 10
70.50007629394531
 20
170.6000061035156
 30
0.0
 11
70.50007629394531
 21
92.60000610351562
 31
0.0
  0
LINE
  5
37B
330
105C
100
AcDbEntity
  8
0
100
AcDbLine
 10
-56.99996948242185
 20
114.9759521484375
 30
0.0
 11
75.00007629394531
 21
114.9759521484375
 31
0.0
  0
LINE
  5
37C
330
105C
100
AcDbEntity
  8
0
100
AcDbLine
 10
-56.99996948242185
 20
148.22412109375
 30
0.0
 11
75.00007629394531
 21
148.22412109375
 31
0.0
  0
LINE
  5
37D
330
105C
100
AcDbEntity
  8
0
100
AcDbLine
 10
-13.80001831054687
 20
172.1000061035156
 30
0.0
 11
-13.80001831054687
 21
170.6000061035156
 31
0.0
  0
LINE
  5
37E
330
105C
100
AcDbEntity
  8
0
100
AcDbLine
 10
13.79995727539062
 20
91.10000610351562
 30
0.0
 11
13.79995727539062
 21
92.60000610351562
 31
0.0
  0
LINE
  5
37F
330
105C
100
AcDbEntity
  8
0
100
AcDbLine
 10
13.79995727539062
 20
172.1000061035156
 30
0.0
 11
-13.80001831054687
 21
172.1000061035156
 31
0.0
  0
LINE
  5
382
330
105C
100
AcDbEntity
  8
0
100
AcDbLine
 10
13.79995727539062
 20
172.1000061035156
 30
0.0
 11
13.79995727539062
 21
170.6000061035156
 31
0.0
  0
LINE
  5
384
330
105C
100
AcDbEntity
  8
0
100
AcDbLine
 10
-11.49996948242187
 20
172.1000061035156
 30
0.0
 11
-11.49996948242187
 21
172.8000610351561
 31
0.0
  0
LINE
  5
385
330
105C
100
AcDbEntity
  8
0
100
AcDbLine
 10
11.50003051757812
 20
89.80001831054686
 30
0.0
 11
11.50003051757812
 21
91.10000610351562
 31
0.0
  0
LINE
  5
386
330
105C
100
AcDbEntity
  8
0
100
AcDbLine
 10
11.50003051757812
 20
172.1000061035156
 30
0.0
 11
11.50003051757812
 21
172.8000610351561
 31
0.0
  0
LINE
  5
388
330
105C
100
AcDbEntity
  8
0
100
AcDbLine
 10
75.00007629394531
 20
170.6000061035156
 30
0.0
 11
75.00007629394531
 21
92.60000610351562
 31
0.0
  0
LINE
  5
389
330
105C
100
AcDbEntity
  8
0
100
AcDbLine
 10
15.0
 20
68.30001747912596
 30
0.0
 11
15.0
 21
89.80001831054686
 31
0.0
  0
LINE
  5
38C
330
105C
100
AcDbEntity
  8
0
100
AcDbLine
 10
11.5
 20
54.80001831054686
 30
0.0
 11
11.5
 21
64.80001747912597
 31
0.0
  0
LINE
  5
391
330
105C
100
AcDbEntity
  8
0
100
AcDbLine
 10
15.0
 20
68.30001747912596
 30
0.0
 11
11.5
 21
64.80001747912597
 31
0.0
  0
LINE
  5
395
330
105C
100
AcDbEntity
  8
0
100
AcDbLine
 10
15.0
 20
47.10000610351563
 30
0.0
 11
15.0
 21
33.2916488647461
 31
0.0
  0
LINE
  5
396
330
105C
100
AcDbEntity
  8
0
100
AcDbLine
 10
35.0
 20
63.26580810546875
 30
0.0
 11
35.0
 21
88.60000610351562
 31
0.0
  0
LINE
  5
397
330
105C
100
AcDbEntity
  8
0
100
AcDbLine
 10
15.5
 20
89.60000610351562
 30
0.0
 11
34.0
 21
89.60000610351562
 31
0.0
  0
LINE
  5
398
330
105C
100
AcDbEntity
  8
0
100
AcDbLine
 10
38.0
 20
63.26580810546875
 30
0.0
 11
38.0
 21
88.60000610351562
 31
0.0
  0
LINE
  5
399
330
105C
100
AcDbEntity
  8
0
100
AcDbLine
 10
14.00004147265702
 20
50.56412796740904
 30
0.0
 11
34.49999754942081
 21
62.39978333913319
 31
0.0
  0
LINE
  5
39A
330
105C
100
AcDbEntity
  8
0
100
AcDbLine
 10
15.50004149284876
 20
47.96605176771342
 30
0.0
 11
35.99999756961256
 21
59.80170713943758
 31
0.0
  0
LINE
  5
39B
330
105C
100
AcDbEntity
  8
0
100
AcDbLine
 10
12.0
 20
49.89999389648438
 30
0.0
 11
12.0
 21
-49.89999008178711
 31
0.0
  0
LINE
  5
39D
330
105C
100
AcDbEntity
  8
0
100
AcDbLine
 10
15.5
 20
89.60000610351562
 30
0.0
 11
15.5
 21
92.60000610351562
 31
0.0
  0
LINE
  5
3AB
330
105C
100
AcDbEntity
  8
0
  6
CENTER
100
AcDbLine
 10
-200.0
 20
208.1000366210937
 30
0.0
 11
-200.0
 21
-54.99999618530273
 31
0.0
  0
LINE
  5
3AE
330
105C
100
AcDbEntity
  8
0
100
AcDbLine
 10
-168.9982604980468
 20
92.59999084472656
 30
0.0
 11
-168.9982604980468
 21
40.79165649414061
 31
0.0
  0
LINE
  5
3AF
330
105C
100
AcDbEntity
  8
0
100
AcDbLine
 10
-168.9982604980468
 20
92.59999084472656
 30
0.0
 11
-230.9982604980469
 21
92.59999084472656
 31
0.0
  0
LINE
  5
3B0
330
105C
100
AcDbEntity
  8
0
100
AcDbLine
 10
-230.9982604980469
 20
92.59999084472656
 30
0.0
 11
-230.9982604980469
 21
40.79165649414061
 31
0.0
  0
LINE
  5
3B1
330
105C
100
AcDbEntity
  8
0
100
AcDbLine
 10
-230.9982604980469
 20
60.95640563964844
 30
0.0
 11
-168.9982604980468
 21
60.95640563964844
 31
0.0
  0
LINE
  5
3B2
330
105C
100
AcDbEntity
  8
0
100
AcDbLine
 10
-173.6698728612584
 20
34.46323388981368
 30
0.0
 11
-170.1698582962019
 21
37.96324845487016
 31
0.0
  0
LINE
  5
3B4
330
105C
100
AcDbEntity
  8
0
100
AcDbLine
 10
-230.9982604980469
 20
47.67735290527343
 30
0.0
 11
-168.9982604980468
 21
47.67735290527343
 31
0.0
  0
LINE
  5
3B7
330
105C
100
AcDbEntity
  8
0
100
AcDbLine
 10
-213.7981872558594
 20
172.1000366210937
 30
0.0
 11
-213.7981872558594
 21
170.6000366210937
 31
0.0
  0
LINE
  5
3B8
330
105C
100
AcDbEntity
  8
0
100
AcDbLine
 10
-211.4982604980469
 20
172.8000610351561
 30
0.0
 11
-211.4982604980469
 21
172.1000366210937
 31
0.0
  0
LINE
  5
3B9
330
105C
100
AcDbEntity
  8
0
100
AcDbLine
 10
-213.7981872558594
 20
172.1000366210937
 30
0.0
 11
-186.1982116699217
 21
172.1000366210937
 31
0.0
  0
LINE
  5
3BA
330
105C
100
AcDbEntity
  8
0
100
AcDbLine
 10
-186.1982116699217
 20
172.1000366210937
 30
0.0
 11
-186.1982116699217
 21
170.6000366210937
 31
0.0
  0
LINE
  5
3BB
330
105C
100
AcDbEntity
  8
0
100
AcDbLine
 10
-188.4982604980469
 20
172.8000610351561
 30
0.0
 11
-188.4982604980469
 21
172.1000366210937
 31
0.0
  0
LINE
  5
3DA
330
105C
100
AcDbEntity
  8
0
100
AcDbLine
 10
-181.9982157023279
 20
139.1055570913447
 30
0.0
 11
-175.4982151254894
 21
135.3527799412185
 31
0.0
  0
LINE
  5
3DB
330
105C
100
AcDbEntity
  8
0
100
AcDbLine
 10
-175.4982604980469
 20
135.3528289794922
 30
0.0
 11
-175.4982604980469
 21
127.8472137451172
 31
0.0
  0
LINE
  5
3DC
330
105C
100
AcDbEntity
  8
0
100
AcDbLine
 10
-181.9981880406465
 20
124.0944622734128
 30
0.0
 11
-175.498187463808
 21
127.8472394235389
 31
0.0
  0
LINE
  5
3DD
330
105C
100
AcDbEntity
  8
0
100
AcDbLine
 10
-188.4982157898256
 20
127.8472268926638
 30
0.0
 11
-181.9982152129871
 21
124.0944497425376
 31
0.0
  0
LINE
  5
3DE
330
105C
100
AcDbEntity
  8
0
100
AcDbLine
 10
-188.4982604980469
 20
135.3528289794922
 30
0.0
 11
-188.4982604980469
 21
127.8472137451172
 31
0.0
  0
LINE
  5
3DF
330
105C
100
AcDbEntity
  8
0
100
AcDbLine
 10
-181.9981875513056
 20
139.1055696222198
 30
0.0
 11
-188.4981881281441
 21
135.3527924720937
 31
0.0
  0
LINE
  5
3E5
330
105C
100
AcDbEntity
  8
0
100
AcDbLine
 10
-182.1983018187788
 20
92.59998981112229
 30
0.0
 11
-184.1983039761865
 21
94.5999919685299
 31
0.0
  0
LINE
  5
3E6
330
105C
100
AcDbEntity
  8
0
100
AcDbLine
 10
-215.798303536528
 20
94.60003512690279
 30
0.0
 11
-217.7983056939356
 21
92.6000329694952
 31
0.0
  0
LINE
  5
3E7
330
105C
100
AcDbEntity
  8
0
100
AcDbLine
 10
-184.1982727050781
 20
94.59999084472656
 30
0.0
 11
-215.7982482910156
 21
94.59999084472656
 31
0.0
  0
LINE
  5
3E8
330
105C
100
AcDbEntity
  8
0
100
AcDbLine
 10
-214.7982482910156
 20
170.6000366210937
 30
0.0
 11
-214.7982482910156
 21
168.6000366210937
 31
0.0
  0
LINE
  5
3E9
330
105C
100
AcDbEntity
  8
0
100
AcDbLine
 10
-214.7982482910156
 20
92.59999084472656
 30
0.0
 11
-214.7982482910156
 21
94.59999084472656
 31
0.0
  0
LINE
  5
3EA
330
105C
100
AcDbEntity
  8
0
100
AcDbLine
 10
-215.7982711677483
 20
168.5999746862713
 30
0.0
 11
-217.7982733251559
 21
170.599976843679
 31
0.0
  0
LINE
  5
3EC
330
105C
100
AcDbEntity
  8
0
100
AcDbLine
 10
-217.7982482910156
 20
170.6000366210937
 30
0.0
 11
-230.7982482910156
 21
170.6000366210937
 31
0.0
  0
LINE
  5
3ED
330
105C
100
AcDbEntity
  8
0
100
AcDbLine
 10
-185.1982727050781
 20
92.59999084472656
 30
0.0
 11
-185.1982727050781
 21
94.59999084472656
 31
0.0
  0
LINE
  5
3EE
330
105C
100
AcDbEntity
  8
0
100
AcDbLine
 10
-182.1982694499993
 20
170.6000631604247
 30
0.0
 11
-184.1982716074068
 21
168.6000610030172
 31
0.0
  0
LINE
  5
3EF
330
105C
100
AcDbEntity
  8
0
100
AcDbLine
 10
-185.1982727050781
 20
170.6000366210937
 30
0.0
 11
-214.7982482910156
 21
170.6000366210937
 31
0.0
  0
LINE
  5
3F0
330
105C
100
AcDbEntity
  8
0
100
AcDbLine
 10
-184.1982727050781
 20
168.6000366210937
 30
0.0
 11
-215.7982482910156
 21
168.6000366210937
 31
0.0
  0
LINE
  5
3F2
330
105C
100
AcDbEntity
  8
0
100
AcDbLine
 10
-185.1982727050781
 20
170.6000366210937
 30
0.0
 11
-185.1982727050781
 21
168.6000366210937
 31
0.0
  0
LINE
  5
3F3
330
105C
100
AcDbEntity
  8
0
100
AcDbLine
 10
-230.7982482910156
 20
170.6000366210937
 30
0.0
 11
-230.7982482910156
 21
148.2241058349609
 31
0.0
  0
LINE
  5
3F4
330
105C
100
AcDbEntity
  8
0
100
AcDbLine
 10
-169.1982727050781
 20
170.6000366210937
 30
0.0
 11
-169.1982727050781
 21
148.2241058349609
 31
0.0
  0
LINE
  5
3F5
330
105C
100
AcDbEntity
  8
0
100
AcDbLine
 10
-230.7982482910156
 20
92.59999084472656
 30
0.0
 11
-230.7982482910156
 21
114.9759368896484
 31
0.0
  0
LINE
  5
3F6
330
105C
100
AcDbEntity
  8
0
100
AcDbLine
 10
-169.1982727050781
 20
92.59999084472656
 30
0.0
 11
-169.1982727050781
 21
114.9759368896484
 31
0.0
  0
LINE
  5
3F7
330
105C
100
AcDbEntity
  8
0
100
AcDbLine
 10
-169.1982727050781
 20
170.6000366210937
 30
0.0
 11
-182.1982727050781
 21
170.6000366210937
 31
0.0
  0
LINE
  5
3FC
330
105C
100
AcDbEntity
  8
0
  6
CENTER
100
AcDbLine
 10
0.0
 20
208.1000366210937
 30
0.0
 11
0.0
 21
-54.99999618530273
 31
0.0
  0
LINE
  5
3FE
330
105C
100
AcDbEntity
  8
0
100
AcDbLine
 10
6.25
 20
199.4000061035156
 30
0.0
 11
6.25
 21
197.8
 31
0.0
  0
LINE
  5
400
330
105C
100
AcDbEntity
  8
0
100
AcDbLine
 10
-6.250030517578125
 20
199.4000061035156
 30
0.0
 11
-6.250030517578125
 21
197.8
 31
0.0
  0
LINE
  5
401
330
105C
100
AcDbEntity
  8
0
100
AcDbLine
 10
-6.250030517578125
 20
199.4000061035156
 30
0.0
 11
6.25
 21
199.4000061035156
 31
0.0
  0
LINE
  5
402
330
105C
100
AcDbEntity
  8
0
100
AcDbLine
 10
5.25
 20
200.9270751953125
 30
0.0
 11
5.25
 21
199.4000061035156
 31
0.0
  0
LINE
  5
403
330
105C
100
AcDbEntity
  8
0
100
AcDbLine
 10
-182.0
 20
197.8
 30
0.0
 11
-182.0
 21
172.8000610351561
 31
0.0
  0
LINE
  5
405
330
105C
100
AcDbEntity
  8
0
100
AcDbLine
 10
-5.25
 20
200.9270751953125
 30
0.0
 11
-5.25
 21
199.4000061035156
 31
0.0
  0
LINE
  5
407
330
105C
100
AcDbEntity
  8
0
100
AcDbLine
 10
-40.00003051757811
 20
197.8
 30
0.0
 11
39.99998474121094
 21
197.8
 31
0.0
  0
LINE
  5
408
330
105C
100
AcDbEntity
  8
0
100
AcDbLine
 10
-40.00003051757811
 20
197.8
 30
0.0
 11
-40.00003051757811
 21
172.8000610351561
 31
0.0
  0
LINE
  5
409
330
105C
100
AcDbEntity
  8
0
100
AcDbLine
 10
39.99998474121094
 20
197.8
 30
0.0
 11
39.99998474121094
 21
172.8000610351561
 31
0.0
  0
LINE
  5
40A
330
105C
100
AcDbEntity
  8
0
100
AcDbLine
 10
-40.00003051757811
 20
172.8000610351561
 30
0.0
 11
39.99998474121094
 21
172.8000610351561
 31
0.0
  0
LINE
  5
40B
330
105C
100
AcDbEntity
  8
0
100
AcDbLine
 10
-202.5
 20
197.8
 30
0.0
 11
-202.5
 21
172.8000610351561
 31
0.0
  0
LINE
  5
40C
330
105C
100
AcDbEntity
  8
0
100
AcDbLine
 10
-197.5
 20
197.8
 30
0.0
 11
-197.5
 21
172.8000610351561
 31
0.0
  0
LINE
  5
40D
330
105C
100
AcDbEntity
  8
0
100
AcDbLine
 10
-218.0000305175781
 20
172.8000610351561
 30
0.0
 11
-182.0
 21
172.8000610351561
 31
0.0
  0
LINE
  5
40E
330
105C
100
AcDbEntity
  8
0
100
AcDbLine
 10
-218.0000305175781
 20
197.8
 30
0.0
 11
-218.0000305175781
 21
172.8000610351561
 31
0.0
  0
LINE
  5
40F
330
105C
100
AcDbEntity
  8
0
100
AcDbLine
 10
-218.0000305175781
 20
197.8
 30
0.0
 11
-182.0
 21
197.8
 31
0.0
  0
LINE
  5
410
330
105C
100
AcDbEntity
  8
0
100
AcDbLine
 10
-194.7500305175781
 20
200.9270751953125
 30
0.0
 11
-194.7500305175781
 21
199.4000061035156
 31
0.0
  0
LINE
  5
411
330
105C
100
AcDbEntity
  8
0
100
AcDbLine
 10
-206.25
 20
199.4000061035156
 30
0.0
 11
-193.75
 21
199.4000061035156
 31
0.0
  0
LINE
  5
412
330
105C
100
AcDbEntity
  8
0
100
AcDbLine
 10
-206.25
 20
199.4000061035156
 30
0.0
 11
-206.25
 21
197.8
 31
0.0
  0
LINE
  5
414
330
105C
100
AcDbEntity
  8
0
100
AcDbLine
 10
-193.75
 20
199.4000061035156
 30
0.0
 11
-193.75
 21
197.8
 31
0.0
  0
LINE
  5
415
330
105C
100
AcDbEntity
  8
0
100
AcDbLine
 10
-205.2500305175781
 20
200.9270751953125
 30
0.0
 11
-205.2500305175781
 21
199.4000061035156
 31
0.0
  0
LINE
  5
416
330
105C
100
AcDbEntity
  8
0
100
AcDbLine
 10
75.0
 20
335.2000122070312
 30
0.0
 11
75.0
 21
264.7999877929688
 31
0.0
  0
LINE
  5
417
330
105C
100
AcDbEntity
  8
0
100
AcDbLine
 10
-57.0
 20
317.800048828125
 30
0.0
 11
-0.5162887573242188
 21
317.800048828125
 31
0.0
  0
LINE
  5
418
330
105C
100
AcDbEntity
  8
0
  6
CENTER
100
AcDbLine
 10
-60.0
 20
300.0
 30
0.0
 11
79.99999809265135
 21
300.0
 31
0.0
  0
LINE
  5
419
330
105C
100
AcDbEntity
  8
0
100
AcDbLine
 10
-57.0
 20
284.2000122070313
 30
0.0
 11
-5.677047729492186
 21
284.2000122070313
 31
0.0
  0
LINE
  5
41A
330
105C
100
AcDbEntity
  8
0
100
AcDbLine
 10
-57.0
 20
282.2000427246094
 30
0.0
 11
-0.5157508850097658
 21
282.2000427246094
 31
0.0
  0
LINE
  5
41B
330
105C
100
AcDbEntity
  8
0
100
AcDbLine
 10
-57.0
 20
315.7999877929687
 30
0.0
 11
-5.677585601806639
 21
315.7999877929687
 31
0.0
  0
LINE
  5
41C
330
105C
100
AcDbEntity
  8
0
100
AcDbLine
 10
-57.0
 20
330.8000793457031
 30
0.0
 11
75.0
 21
330.8000793457031
 31
0.0
  0
LINE
  5
41D
330
105C
100
AcDbEntity
  8
0
100
AcDbLine
 10
-57.0
 20
269.2000122070313
 30
0.0
 11
75.0
 21
269.2000122070313
 31
0.0
  0
LINE
  5
41E
330
105C
100
AcDbEntity
  8
0
100
AcDbLine
 10
70.50012016296385
 20
335.2000122070312
 30
0.0
 11
70.50012016296385
 21
264.7999877929688
 31
0.0
  0
LINE
  5
41F
330
105C
100
AcDbEntity
  8
0
100
AcDbLine
 10
-57.0
 20
335.2000122070312
 30
0.0
 11
-57.0
 21
264.7999877929688
 31
0.0
  0
LINE
  5
420
330
105C
100
AcDbEntity
  8
0
100
AcDbLine
 10
-52.5
 20
335.2000122070312
 30
0.0
 11
-52.5
 21
264.7999877929688
 31
0.0
  0
LINE
  5
421
330
105C
100
AcDbEntity
  8
0
  6
CENTER
100
AcDbLine
 10
0.000091552734375
 20
359.850003649172
 30
0.0
 11
0.000091552734375
 21
240.1503625617655
 31
0.0
  0
LINE
  5
42C
330
105C
100
AcDbEntity
  8
0
100
AcDbLine
 10
-58.5999755859375
 20
318.0499877929687
 30
0.0
 11
-57.0
 21
318.0499877929687
 31
0.0
  0
LINE
  5
42D
330
105C
100
AcDbEntity
  8
0
100
AcDbLine
 10
-58.5999755859375
 20
318.0499877929687
 30
0.0
 11
-58.5999755859375
 21
330.550048828125
 31
0.0
  0
LINE
  5
42E
330
105C
100
AcDbEntity
  8
0
100
AcDbLine
 10
-58.5999755859375
 20
330.550048828125
 30
0.0
 11
-57.0
 21
330.550048828125
 31
0.0
  0
LINE
  5
42F
330
105C
100
AcDbEntity
  8
0
100
AcDbLine
 10
-60.0999755859375
 20
318.2000427246094
 30
0.0
 11
-60.0999755859375
 21
330.3999938964844
 31
0.0
  0
LINE
  5
432
330
105C
100
AcDbEntity
  8
0
100
AcDbLine
 10
-60.0999755859375
 20
330.3999938964844
 30
0.0
 11
-58.5999755859375
 21
330.3999938964844
 31
0.0
  0
LINE
  5
433
330
105C
100
AcDbEntity
  8
0
100
AcDbLine
 10
-60.0999755859375
 20
318.2000427246094
 30
0.0
 11
-58.5999755859375
 21
318.2000427246094
 31
0.0
  0
LINE
  5
434
330
105C
100
AcDbEntity
  8
0
100
AcDbLine
 10
-58.5999755859375
 20
269.449951171875
 30
0.0
 11
-57.0
 21
269.449951171875
 31
0.0
  0
LINE
  5
435
330
105C
100
AcDbEntity
  8
0
100
AcDbLine
 10
-58.5999755859375
 20
269.449951171875
 30
0.0
 11
-58.5999755859375
 21
290.5000305175781
 31
0.0
  0
LINE
  5
436
330
105C
100
AcDbEntity
  8
0
100
AcDbLine
 10
-58.5999755859375
 20
281.9500122070312
 30
0.0
 11
-57.0
 21
281.9500122070312
 31
0.0
  0
LINE
  5
437
330
105C
100
AcDbEntity
  8
0
100
AcDbLine
 10
-60.0999755859375
 20
269.6000061035156
 30
0.0
 11
-60.0999755859375
 21
281.7999572753906
 31
0.0
  0
LINE
  5
43A
330
105C
100
AcDbEntity
  8
0
100
AcDbLine
 10
-60.0999755859375
 20
281.7999572753906
 30
0.0
 11
-58.5999755859375
 21
281.7999572753906
 31
0.0
  0
LINE
  5
43B
330
105C
100
AcDbEntity
  8
0
100
AcDbLine
 10
-60.0999755859375
 20
269.6000061035156
 30
0.0
 11
-58.5999755859375
 21
269.6000061035156
 31
0.0
  0
LINE
  5
43C
330
105C
100
AcDbEntity
  8
0
100
AcDbLine
 10
76.60000419616697
 20
281.9500122070312
 30
0.0
 11
75.0
 21
281.9500122070312
 31
0.0
  0
LINE
  5
43D
330
105C
100
AcDbEntity
  8
0
100
AcDbLine
 10
76.60000419616697
 20
290.5000305175781
 30
0.0
 11
76.60000419616697
 21
269.449951171875
 31
0.0
  0
LINE
  5
43E
330
105C
100
AcDbEntity
  8
0
100
AcDbLine
 10
76.60000419616697
 20
269.449951171875
 30
0.0
 11
75.0
 21
269.449951171875
 31
0.0
  0
LINE
  5
43F
330
105C
100
AcDbEntity
  8
0
100
AcDbLine
 10
78.10000419616698
 20
281.7999572753906
 30
0.0
 11
78.10000419616698
 21
269.6000061035156
 31
0.0
  0
LINE
  5
442
330
105C
100
AcDbEntity
  8
0
100
AcDbLine
 10
78.10000419616698
 20
269.6000061035156
 30
0.0
 11
76.60000419616697
 21
269.6000061035156
 31
0.0
  0
LINE
  5
443
330
105C
100
AcDbEntity
  8
0
100
AcDbLine
 10
78.10000419616698
 20
281.7999572753906
 30
0.0
 11
76.60000419616697
 21
281.7999572753906
 31
0.0
  0
LINE
  5
444
330
105C
100
AcDbEntity
  8
0
100
AcDbLine
 10
76.60000419616697
 20
330.550048828125
 30
0.0
 11
75.0
 21
330.550048828125
 31
0.0
  0
LINE
  5
445
330
105C
100
AcDbEntity
  8
0
100
AcDbLine
 10
76.60000419616697
 20
330.550048828125
 30
0.0
 11
76.60000419616697
 21
318.0499877929687
 31
0.0
  0
LINE
  5
446
330
105C
100
AcDbEntity
  8
0
100
AcDbLine
 10
76.60000419616697
 20
318.0499877929687
 30
0.0
 11
75.0
 21
318.0499877929687
 31
0.0
  0
LINE
  5
447
330
105C
100
AcDbEntity
  8
0
100
AcDbLine
 10
78.10000419616698
 20
330.3999938964844
 30
0.0
 11
78.10000419616698
 21
318.2000427246094
 31
0.0
  0
LINE
  5
44A
330
105C
100
AcDbEntity
  8
0
100
AcDbLine
 10
78.10000419616698
 20
318.2000427246094
 30
0.0
 11
76.60000419616697
 21
318.2000427246094
 31
0.0
  0
LINE
  5
44B
330
105C
100
AcDbEntity
  8
0
100
AcDbLine
 10
78.10000419616698
 20
330.3999938964844
 30
0.0
 11
76.60000419616697
 21
330.3999938964844
 31
0.0
  0
LINE
  5
44C
330
105C
100
AcDbEntity
  8
0
100
AcDbLine
 10
-64.09998321533203
 20
321.7999877929687
 30
0.0
 11
-64.09998321533203
 21
326.800048828125
 31
0.0
  0
LINE
  5
44D
330
105C
100
AcDbEntity
  8
0
100
AcDbLine
 10
-63.59571075439453
 20
319.300048828125
 30
0.0
 11
-60.0999755859375
 21
319.300048828125
 31
0.0
  0
LINE
  5
44E
330
105C
100
AcDbEntity
  8
0
100
AcDbLine
 10
-63.59571075439453
 20
324.3000183105469
 30
0.0
 11
-60.0999755859375
 21
324.3000183105469
 31
0.0
  0
LINE
  5
44F
330
105C
100
AcDbEntity
  8
0
100
AcDbLine
 10
-63.59571075439453
 20
329.3000793457031
 30
0.0
 11
-60.0999755859375
 21
329.3000793457031
 31
0.0
  0
LINE
  5
450
330
105C
100
AcDbEntity
  8
0
100
AcDbLine
 10
-64.09998321533203
 20
273.199951171875
 30
0.0
 11
-64.09998321533203
 21
278.2000122070312
 31
0.0
  0
LINE
  5
451
330
105C
100
AcDbEntity
  8
0
100
AcDbLine
 10
-63.59571075439453
 20
270.7000122070312
 30
0.0
 11
-60.0999755859375
 21
270.7000122070312
 31
0.0
  0
LINE
  5
452
330
105C
100
AcDbEntity
  8
0
100
AcDbLine
 10
-63.59571075439453
 20
275.6999816894531
 30
0.0
 11
-60.0999755859375
 21
275.6999816894531
 31
0.0
  0
LINE
  5
453
330
105C
100
AcDbEntity
  8
0
100
AcDbLine
 10
-63.59571075439453
 20
280.699951171875
 30
0.0
 11
-60.0999755859375
 21
280.699951171875
 31
0.0
  0
LINE
  5
454
330
105C
100
AcDbEntity
  8
0
100
AcDbLine
 10
82.10000610351562
 20
326.800048828125
 30
0.0
 11
82.10000610351562
 21
321.7999877929687
 31
0.0
  0
LINE
  5
455
330
105C
100
AcDbEntity
  8
0
100
AcDbLine
 10
81.59567070007325
 20
329.3000793457031
 30
0.0
 11
78.10000419616698
 21
329.3000793457031
 31
0.0
  0
LINE
  5
456
330
105C
100
AcDbEntity
  8
0
100
AcDbLine
 10
81.59567070007325
 20
324.3000183105469
 30
0.0
 11
78.10000419616698
 21
324.3000183105469
 31
0.0
  0
LINE
  5
457
330
105C
100
AcDbEntity
  8
0
100
AcDbLine
 10
81.59567070007325
 20
319.300048828125
 30
0.0
 11
78.10000419616698
 21
319.300048828125
 31
0.0
  0
LINE
  5
458
330
105C
100
AcDbEntity
  8
0
100
AcDbLine
 10
82.10000610351562
 20
278.2000122070312
 30
0.0
 11
82.10000610351562
 21
273.199951171875
 31
0.0
  0
LINE
  5
459
330
105C
100
AcDbEntity
  8
0
100
AcDbLine
 10
81.59567070007325
 20
280.699951171875
 30
0.0
 11
78.10000419616698
 21
280.699951171875
 31
0.0
  0
LINE
  5
45A
330
105C
100
AcDbEntity
  8
0
100
AcDbLine
 10
81.59567070007325
 20
275.6999816894531
 30
0.0
 11
78.10000419616698
 21
275.6999816894531
 31
0.0
  0
LINE
  5
45B
330
105C
100
AcDbEntity
  8
0
100
AcDbLine
 10
81.59567070007325
 20
270.7000122070312
 30
0.0
 11
78.10000419616698
 21
270.7000122070312
 31
0.0
  0
LINE
  5
45C
330
105C
100
AcDbEntity
  8
0
100
AcDbLine
 10
-68.50000762939453
 20
275.500030517578
 30
0.0
 11
-68.50000762939453
 21
288.5000610351562
 31
0.0
  0
LINE
  5
45D
330
105C
100
AcDbEntity
  8
0
100
AcDbLine
 10
-73.27508926391601
 20
288.5000610351562
 30
0.0
 11
-68.50000762939453
 21
288.5000610351562
 31
0.0
  0
LINE
  5
45E
330
105C
100
AcDbEntity
  8
0
100
AcDbLine
 10
-58.5999755859375
 20
290.5000305175781
 30
0.0
 11
-57.0
 21
290.5000305175781
 31
0.0
  0
LINE
  5
460
330
105C
100
AcDbEntity
  8
0
100
AcDbLine
 10
-73.27508926391601
 20
275.500030517578
 30
0.0
 11
-68.50000762939453
 21
275.500030517578
 31
0.0
  0
LINE
  5
461
330
105C
100
AcDbEntity
  8
0
100
AcDbLine
 10
-74.00000381469727
 20
278.7500610351563
 30
0.0
 11
-74.00000381469727
 21
285.2500305175781
 31
0.0
  0
LINE
  5
462
330
105C
100
AcDbEntity
  8
0
100
AcDbLine
 10
-73.27508926391601
 20
282.0
 30
0.0
 11
-68.50000762939453
 21
282.0
 31
0.0
  0
LINE
  5
463
330
105C
100
AcDbEntity
  8
0
100
AcDbLine
 10
-62.8751220703125
 20
282.0
 30
0.0
 11
-59.32489013671875
 21
282.0
 31
0.0
  0
LINE
  5
464
330
105C
100
AcDbEntity
  8
0
100
AcDbLine
 10
-63.59997940063475
 20
280.689697265625
 30
0.0
 11
-63.59997940063475
 21
285.2500305175781
 31
0.0
  0
LINE
  5
465
330
105C
100
AcDbEntity
  8
0
100
AcDbLine
 10
-62.8751220703125
 20
288.5000610351562
 30
0.0
 11
-59.32489013671875
 21
288.5000610351562
 31
0.0
  0
LINE
  5
466
330
105C
100
AcDbEntity
  8
0
100
AcDbLine
 10
-64.07202529907225
 20
278.800048828125
 30
0.0
 11
-68.50000762939453
 21
278.800048828125
 31
0.0
  0
LINE
  5
467
330
105C
100
AcDbEntity
  8
0
100
AcDbLine
 10
-63.599853515625
 20
285.2000427246094
 30
0.0
 11
-68.50000762939453
 21
285.2000427246094
 31
0.0
  0
LINE
  5
468
330
105C
100
AcDbEntity
  8
0
100
AcDbLine
 10
91.27511501312254
 20
288.5000610351562
 30
0.0
 11
86.49999904632569
 21
288.5000610351562
 31
0.0
  0
LINE
  5
469
330
105C
100
AcDbEntity
  8
0
100
AcDbLine
 10
-64.09692764282225
 20
278.0000610351562
 30
0.0
 11
-68.50000762939453
 21
278.0000610351562
 31
0.0
  0
LINE
  5
46A
330
105C
100
AcDbEntity
  8
0
100
AcDbLine
 10
-63.56311798095703
 20
286.000030517578
 30
0.0
 11
-68.50000762939453
 21
286.000030517578
 31
0.0
  0
LINE
  5
46B
330
105C
100
AcDbEntity
  8
0
100
AcDbLine
 10
76.60000419616697
 20
290.5000305175781
 30
0.0
 11
75.0
 21
290.5000305175781
 31
0.0
  0
LINE
  5
46D
330
105C
100
AcDbEntity
  8
0
100
AcDbLine
 10
91.27511501312254
 20
275.500030517578
 30
0.0
 11
86.49999904632569
 21
275.500030517578
 31
0.0
  0
LINE
  5
46E
330
105C
100
AcDbEntity
  8
0
100
AcDbLine
 10
86.49999904632569
 20
275.500030517578
 30
0.0
 11
86.49999904632569
 21
288.5000610351562
 31
0.0
  0
LINE
  5
46F
330
105C
100
AcDbEntity
  8
0
100
AcDbLine
 10
91.27511501312254
 20
282.0
 30
0.0
 11
86.49999904632569
 21
282.0
 31
0.0
  0
LINE
  5
470
330
105C
100
AcDbEntity
  8
0
100
AcDbLine
 10
80.87512207031251
 20
282.0
 30
0.0
 11
77.32489013671875
 21
282.0
 31
0.0
  0
LINE
  5
471
330
105C
100
AcDbEntity
  8
0
100
AcDbLine
 10
81.60000514984131
 20
280.689697265625
 30
0.0
 11
81.60000514984131
 21
285.2500305175781
 31
0.0
  0
LINE
  5
472
330
105C
100
AcDbEntity
  8
0
100
AcDbLine
 10
91.99999809265136
 20
278.7500610351563
 30
0.0
 11
91.99999809265136
 21
285.2500305175781
 31
0.0
  0
LINE
  5
473
330
105C
100
AcDbEntity
  8
0
100
AcDbLine
 10
80.87512207031251
 20
288.5000610351562
 30
0.0
 11
77.32489013671875
 21
288.5000610351562
 31
0.0
  0
LINE
  5
474
330
105C
100
AcDbEntity
  8
0
100
AcDbLine
 10
82.07201957702634
 20
278.800048828125
 30
0.0
 11
86.49999904632569
 21
278.800048828125
 31
0.0
  0
LINE
  5
475
330
105C
100
AcDbEntity
  8
0
100
AcDbLine
 10
81.599853515625
 20
285.2000427246094
 30
0.0
 11
86.49999904632569
 21
285.2000427246094
 31
0.0
  0
LINE
  5
476
330
105C
100
AcDbEntity
  8
0
100
AcDbLine
 10
82.09689331054686
 20
278.0000610351562
 30
0.0
 11
86.49999904632569
 21
278.0000610351562
 31
0.0
  0
LINE
  5
477
330
105C
100
AcDbEntity
  8
0
100
AcDbLine
 10
81.56314086914063
 20
286.000030517578
 30
0.0
 11
86.49999904632569
 21
286.000030517578
 31
0.0
  0
LINE
  5
478
330
105C
100
AcDbEntity
  8
0
100
AcDbLine
 10
-57.0
 20
264.7999877929688
 30
0.0
 11
75.0
 21
264.7999877929688
 31
0.0
  0
LINE
  5
479
330
105C
100
AcDbEntity
  8
0
100
AcDbLine
 10
-57.0
 20
335.2000122070312
 30
0.0
 11
75.0
 21
335.2000122070312
 31
0.0
  0
LINE
  5
47A
330
105C
100
AcDbEntity
  8
0
100
AcDbLine
 10
0.5159797668457033
 20
282.2000427246094
 30
0.0
 11
75.0
 21
282.2000427246094
 31
0.0
  0
LINE
  5
47B
330
105C
100
AcDbEntity
  8
0
100
AcDbLine
 10
5.677265167236328
 20
284.2000122070313
 30
0.0
 11
75.0
 21
284.2000122070313
 31
0.0
  0
LINE
  5
47C
330
105C
100
AcDbEntity
  8
0
100
AcDbLine
 10
5.67780303955078
 20
315.7999877929687
 30
0.0
 11
75.0
 21
315.7999877929687
 31
0.0
  0
LINE
  5
47D
330
105C
100
AcDbEntity
  8
0
100
AcDbLine
 10
0.5165061950683594
 20
317.800048828125
 30
0.0
 11
75.0
 21
317.800048828125
 31
0.0
  0
LINE
  5
4AA
330
105C
100
AcDbEntity
  8
0
100
AcDbLine
 10
17.30007934570312
 20
81.10005187988281
 30
0.0
 11
17.30007934570312
 21
89.60003662109375
 31
0.0
  0
LINE
  5
4AC
330
105C
100
AcDbEntity
  8
0
100
AcDbLine
 10
17.30007934570312
 20
88.60005187988281
 30
0.0
 11
30.30014038085937
 21
88.60005187988281
 31
0.0
  0
LINE
  5
4AE
330
105C
100
AcDbEntity
  8
0
100
AcDbLine
 10
17.30007934570312
 20
81.10005187988281
 30
0.0
 11
30.30014038085937
 21
81.10005187988281
 31
0.0
  0
LINE
  5
4AF
330
105C
100
AcDbEntity
  8
0
100
AcDbLine
 10
18.16610153708217
 20
80.60005976835844
 30
0.0
 11
17.30012899517925
 21
81.10002925751052
 31
0.0
  0
LINE
  5
4B0
330
105C
100
AcDbEntity
  8
0
100
AcDbLine
 10
18.16610717773437
 20
80.60006713867187
 30
0.0
 11
29.43405151367187
 21
80.60006713867187
 31
0.0
  0
LINE
  5
4B1
330
105C
100
AcDbEntity
  8
0
100
AcDbLine
 10
29.43406116476598
 20
80.60008454605444
 30
0.0
 11
30.30008656466453
 21
81.10008455278501
 31
0.0
  0
LINE
  5
4B3
330
105C
100
AcDbEntity
  8
0
100
AcDbLine
 10
30.30014038085937
 20
81.10005187988281
 30
0.0
 11
30.30014038085937
 21
89.60003662109375
 31
0.0
  0
CIRCLE
  5
4E7
330
105C
100
AcDbEntity
  8
0
100
AcDbCircle
 10
-180.0
 20
39.19183349609375
 30
0.0
 40
4.5
  0
CIRCLE
  5
4E8
330
105C
100
AcDbEntity
  8
0
100
AcDbCircle
 10
-180.0
 20
39.19183349609375
 30
0.0
 40
5.0
  0
CIRCLE
  5
4E9
330
105C
100
AcDbEntity
  8
0
100
AcDbCircle
 10
-156.0
 20
0.0
 30
0.0
 40
4.5
  0
CIRCLE
  5
4EA
330
105C
100
AcDbEntity
  8
0
100
AcDbCircle
 10
-156.0
 20
0.0
 30
0.0
 40
5.0
  0
CIRCLE
  5
4EB
330
105C
100
AcDbEntity
  8
0
100
AcDbCircle
 10
-180.0
 20
-39.19182968139649
 30
0.0
 40
4.5
  0
CIRCLE
  5
4EC
330
105C
100
AcDbEntity
  8
0
100
AcDbCircle
 10
-180.0
 20
-39.19182968139649
 30
0.0
 40
5.0
  0
ARC
  5
4F5
330
105C
100
AcDbEntity
  8
0
100
AcDbCircle
 10
-200.0
 20
0.0
 30
0.0
 40
50.0
100
AcDbArc
 50
127.9610259490598
 51
52.03503532543582
  0
CIRCLE
  5
4F6
330
105C
100
AcDbEntity
  8
0
100
AcDbCircle
 10
-200.0
 20
0.0
 30
0.0
 40
38.75
  0
ARC
  5
4FC
330
105C
100
AcDbEntity
  8
0
100
AcDbCircle
 10
16.171630859375
 20
34.86170959472655
 30
0.0
 40
2.428322076797484
100
AcDbArc
 50
323.530686455054
 51
36.46931354494608
  0
ARC
  5
4FE
330
105C
100
AcDbEntity
  8
0
100
AcDbCircle
 10
35.71014404296875
 20
37.94999694824219
 30
0.0
 40
0.8000000119209291
100
AcDbArc
 50
89.99999567428933
 51
159.9999953454872
  0
ARC
  5
4FF
330
105C
100
AcDbEntity
  8
0
100
AcDbCircle
 10
35.71014404296875
 20
-37.94999313354492
 30
0.0
 40
0.8000000119209291
100
AcDbArc
 50
200.0000046545128
 51
270.0000043257107
  0
ARC
  5
501
330
105C
100
AcDbEntity
  8
0
100
AcDbCircle
 10
31.2017822265625
 20
-33.74999618530273
 30
0.0
 40
2.0
100
AcDbArc
 50
20.00000454082821
 51
89.99999567428933
  0
ARC
  5
50D
330
105C
100
AcDbEntity
  8
0
100
AcDbCircle
 10
31.2017822265625
 20
33.75
 30
0.0
 40
2.0
100
AcDbArc
 50
270.0000043257107
 51
339.9999954591718
  0
ARC
  5
50E
330
105C
100
AcDbEntity
  8
0
100
AcDbCircle
 10
6.5999755859375
 20
-39.19183349609375
 30
0.0
 40
9.0
100
AcDbArc
 50
341.291703759532
 51
18.70829965556162
  0
ARC
  5
50F
330
105C
100
AcDbEntity
  8
0
100
AcDbCircle
 10
13.17169189453125
 20
-34.8617057800293
 30
0.0
 40
2.428322076797484
100
AcDbArc
 50
323.5306830399586
 51
36.46973190693103
  0
ARC
  5
510
330
105C
100
AcDbEntity
  8
0
100
AcDbCircle
 10
13.17169189453125
 20
-43.52195739746092
 30
0.0
 40
2.428322076797484
100
AcDbArc
 50
323.5306830399586
 51
36.46931354494608
  0
ARC
  5
530
330
105C
100
AcDbEntity
  8
0
100
AcDbCircle
 10
6.66571044921875
 20
-50.29999923706053
 30
0.0
 40
0.4000000059604645
100
AcDbArc
 50
90.00000250447842
 51
118.9550253774277
  0
ARC
  5
531
330
105C
100
AcDbEntity
  8
0
100
AcDbCircle
 10
6.27838134765625
 20
-49.60000228881836
 30
0.0
 40
0.4000000059604645
100
AcDbArc
 50
269.9999974955215
 51
298.955027198661
  0
ARC
  5
53C
330
105C
100
AcDbEntity
  8
0
100
AcDbCircle
 10
9.5999755859375
 20
39.19183349609375
 30
0.0
 40
9.0
100
AcDbArc
 50
341.291703759532
 51
18.70829965556162
  0
ARC
  5
53D
330
105C
100
AcDbEntity
  8
0
100
AcDbCircle
 10
16.171630859375
 20
43.52197265625
 30
0.0
 40
2.428322076797484
100
AcDbArc
 50
323.5306830399586
 51
36.46931354494608
  0
ARC
  5
55A
330
105C
100
AcDbEntity
  8
0
100
AcDbCircle
 10
-71.20901489257812
 20
137.2291870117187
 30
0.0
 40
2.790960788726806
100
AcDbArc
 50
137.7544653697277
 51
222.245530987808
  0
ARC
  5
55B
330
105C
100
AcDbEntity
  8
0
100
AcDbCircle
 10
-63.92349243164062
 20
131.6000366210937
 30
0.0
 40
10.07649993896484
100
AcDbArc
 50
158.1345204189944
 51
201.8654759385395
  0
ARC
  5
55C
330
105C
100
AcDbEntity
  8
0
100
AcDbCircle
 10
-71.20901489257812
 20
125.9708557128906
 30
0.0
 40
2.790960788726806
100
AcDbArc
 50
137.7544653697277
 51
222.245530987808
  0
ARC
  5
55D
330
105C
100
AcDbEntity
  8
0
100
AcDbCircle
 10
-60.80899047851563
 20
137.2291870117187
 30
0.0
 40
2.790962934494018
100
AcDbArc
 50
137.7545063508621
 51
222.2454900066718
  0
ARC
  5
55E
330
105C
100
AcDbEntity
  8
0
100
AcDbCircle
 10
-60.80899047851563
 20
125.9708557128906
 30
0.0
 40
2.790962934494018
100
AcDbArc
 50
137.7545063508621
 51
222.2454900066718
  0
ARC
  5
55F
330
105C
100
AcDbEntity
  8
0
100
AcDbCircle
 10
-61.39096069335938
 20
125.9708557128906
 30
0.0
 40
2.790962934494018
100
AcDbArc
 50
317.7545047569997
 51
42.24549524300015
  0
ARC
  5
560
330
105C
100
AcDbEntity
  8
0
100
AcDbCircle
 10
-61.39096069335938
 20
137.2291870117187
 30
0.0
 40
2.790962934494018
100
AcDbArc
 50
317.7545047569997
 51
42.24549524300015
  0
ARC
  5
561
330
105C
100
AcDbEntity
  8
0
100
AcDbCircle
 10
-68.67648315429689
 20
131.6000366210937
 30
0.0
 40
10.07651138305664
100
AcDbArc
 50
338.1345512685318
 51
21.86544531637392
  0
ARC
  5
562
330
105C
100
AcDbEntity
  8
0
100
AcDbCircle
 10
-53.52346801757811
 20
131.6000366210937
 30
0.0
 40
10.07651138305664
100
AcDbArc
 50
158.1345477397503
 51
201.8654486177829
  0
ARC
  5
563
330
105C
100
AcDbEntity
  8
0
100
AcDbCircle
 10
89.20912170410156
 20
125.9708557128906
 30
0.0
 40
2.790960788726806
100
AcDbArc
 50
317.7544637758655
 51
42.2455362241345
  0
ARC
  5
564
330
105C
100
AcDbEntity
  8
0
100
AcDbCircle
 10
81.92356872558596
 20
131.6000366210937
 30
0.0
 40
10.07649993896484
100
AcDbArc
 50
338.13452736287
 51
21.86547605222479
  0
ARC
  5
565
330
105C
100
AcDbEntity
  8
0
100
AcDbCircle
 10
89.20912170410156
 20
137.2291870117187
 30
0.0
 40
2.790960788726806
100
AcDbArc
 50
317.7544637758655
 51
42.2455362241345
  0
ARC
  5
566
330
105C
100
AcDbEntity
  8
0
100
AcDbCircle
 10
78.80912780761717
 20
125.9708557128906
 30
0.0
 40
2.790962934494018
100
AcDbArc
 50
317.7545047569997
 51
42.24549524300015
  0
ARC
  5
567
330
105C
100
AcDbEntity
  8
0
100
AcDbCircle
 10
78.80912780761717
 20
137.2291870117187
 30
0.0
 40
2.790962934494018
100
AcDbArc
 50
317.7545047569997
 51
42.24549524300015
  0
ARC
  5
568
330
105C
100
AcDbEntity
  8
0
100
AcDbCircle
 10
79.39103698730467
 20
137.2291870117187
 30
0.0
 40
2.790962934494018
100
AcDbArc
 50
137.7545063508621
 51
222.2454900066718
  0
ARC
  5
569
330
105C
100
AcDbEntity
  8
0
100
AcDbCircle
 10
79.39103698730467
 20
125.9708557128906
 30
0.0
 40
2.790962934494018
100
AcDbArc
 50
137.7545063508621
 51
222.2454900066718
  0
ARC
  5
56A
330
105C
100
AcDbEntity
  8
0
100
AcDbCircle
 10
86.67658996582032
 20
131.6000366210937
 30
0.0
 40
10.07651138305664
100
AcDbArc
 50
158.1345477397503
 51
201.8654486177829
  0
ARC
  5
56B
330
105C
100
AcDbEntity
  8
0
100
AcDbCircle
 10
71.52357482910156
 20
131.6000366210937
 30
0.0
 40
10.07651138305664
100
AcDbArc
 50
338.1345546836261
 51
21.86544873146818
  0
ARC
  5
56C
330
105C
100
AcDbEntity
  8
0
100
AcDbCircle
 10
79.78242492675781
 20
158.7698974609375
 30
0.0
 40
2.317657947540283
100
AcDbArc
 50
321.4810525530649
 51
38.51894403184092
  0
ARC
  5
56D
330
105C
100
AcDbEntity
  8
0
100
AcDbCircle
 10
73.58592224121091
 20
163.1000366210937
 30
0.0
 40
8.514156341552734
100
AcDbArc
 50
340.1808008117857
 51
19.8191957731195
  0
ARC
  5
56E
330
105C
100
AcDbEntity
  8
0
100
AcDbCircle
 10
79.78242492675781
 20
167.4301452636719
 30
0.0
 40
2.317657947540283
100
AcDbArc
 50
321.4810525530649
 51
38.51894403184092
  0
ARC
  5
56F
330
105C
100
AcDbEntity
  8
0
100
AcDbCircle
 10
79.78242492675781
 20
95.76989746093749
 30
0.0
 40
2.317657947540283
100
AcDbArc
 50
321.4810525530649
 51
38.51894403184092
  0
ARC
  5
570
330
105C
100
AcDbEntity
  8
0
100
AcDbCircle
 10
73.58592224121091
 20
100.1000366210937
 30
0.0
 40
8.514156341552734
100
AcDbArc
 50
340.1808008117857
 51
19.8191957731195
  0
ARC
  5
571
330
105C
100
AcDbEntity
  8
0
100
AcDbCircle
 10
79.78242492675781
 20
104.4301452636718
 30
0.0
 40
2.317657947540283
100
AcDbArc
 50
321.4810525530649
 51
38.51894403184092
  0
ARC
  5
572
330
105C
100
AcDbEntity
  8
0
100
AcDbCircle
 10
-61.78231811523438
 20
104.4301452636718
 30
0.0
 40
2.317657947540283
100
AcDbArc
 50
141.481057562021
 51
218.5189387955126
  0
ARC
  5
573
330
105C
100
AcDbEntity
  8
0
100
AcDbCircle
 10
-55.58578491210937
 20
100.1000366210937
 30
0.0
 40
8.514156341552734
100
AcDbArc
 50
160.1808041131953
 51
199.8191922443395
  0
ARC
  5
574
330
105C
100
AcDbEntity
  8
0
100
AcDbCircle
 10
-61.78231811523438
 20
95.76989746093749
 30
0.0
 40
2.317657947540283
100
AcDbArc
 50
141.481057562021
 51
218.5189387955126
  0
ARC
  5
575
330
105C
100
AcDbEntity
  8
0
100
AcDbCircle
 10
-61.78231811523438
 20
167.4301452636719
 30
0.0
 40
2.317657947540283
100
AcDbArc
 50
141.481057562021
 51
218.5189387955126
  0
ARC
  5
576
330
105C
100
AcDbEntity
  8
0
100
AcDbCircle
 10
-55.58578491210937
 20
163.1000366210937
 30
0.0
 40
8.514156341552734
100
AcDbArc
 50
160.1808041131953
 51
199.8191922443395
  0
ARC
  5
577
330
105C
100
AcDbEntity
  8
0
100
AcDbCircle
 10
-61.78231811523438
 20
158.7698974609375
 30
0.0
 40
2.317657947540283
100
AcDbArc
 50
141.481057562021
 51
218.5189387955126
  0
ARC
  5
580
330
105C
100
AcDbEntity
  8
0
100
AcDbCircle
 10
34.0
 20
88.60000610351562
 30
0.0
 40
1.0
100
AcDbArc
 50
0.0
 51
90.00000250447842
  0
ARC
  5
581
330
105C
100
AcDbEntity
  8
0
100
AcDbCircle
 10
16.0
 20
47.10000610351563
 30
0.0
 40
4.0
100
AcDbArc
 50
120.0000033393032
 51
180.000005008956
  0
ARC
  5
582
330
105C
100
AcDbEntity
  8
0
100
AcDbCircle
 10
16.0
 20
47.10000610351563
 30
0.0
 40
1.0
100
AcDbArc
 50
120.0000033393032
 51
180.000005008956
  0
ARC
  5
583
330
105C
100
AcDbEntity
  8
0
100
AcDbCircle
 10
34.0
 20
63.26580810546875
 30
0.0
 40
4.0
100
AcDbArc
 50
299.9999983303482
 51
0.0
  0
ARC
  5
584
330
105C
100
AcDbEntity
  8
0
100
AcDbCircle
 10
34.0
 20
63.26580810546875
 30
0.0
 40
1.0
100
AcDbArc
 50
299.9999983303482
 51
0.0
  0
ARC
  5
585
330
105C
100
AcDbEntity
  8
0
100
AcDbCircle
 10
34.0
 20
88.60000610351562
 30
0.0
 40
4.0
100
AcDbArc
 50
0.0
 51
90.00000250447842
  0
ARC
  5
58C
330
105C
100
AcDbEntity
  8
0
100
AcDbCircle
 10
-176.4982604980469
 20
37.2916488647461
 30
0.0
 40
4.0
100
AcDbArc
 50
247.3409951881668
 51
314.9999987477614
  0
ARC
  5
58E
330
105C
100
AcDbEntity
  8
0
100
AcDbCircle
 10
-172.9982604980468
 20
40.79165649414061
 30
0.0
 40
4.0
100
AcDbArc
 50
314.9999987477614
 51
0.0
  0
ARC
  5
58F
330
105C
100
AcDbEntity
  8
0
100
AcDbCircle
 10
-199.9982604980468
 20
-19.0
 30
0.0
 40
57.0
100
AcDbArc
 50
67.34099336693461
 51
68.99122171192178
  0
CIRCLE
  5
594
330
105C
100
AcDbEntity
  8
0
100
AcDbCircle
 10
-217.9982604980469
 20
131.6000213623047
 30
0.0
 40
4.863999843597412
  0
CIRCLE
  5
595
330
105C
100
AcDbEntity
  8
0
100
AcDbCircle
 10
-217.9982604980469
 20
131.6000213623047
 30
0.0
 40
4.282999992370604
  0
CIRCLE
  5
5A9
330
105C
100
AcDbEntity
  8
0
100
AcDbCircle
 10
-181.9982604980468
 20
131.6000213623047
 30
0.0
 40
6.5
  0
ARC
  5
5AA
330
105C
100
AcDbEntity
  8
0
100
AcDbCircle
 10
-181.9982604980468
 20
131.6000213623047
 30
0.0
 40
7.5
100
AcDbArc
 50
330.0735637176289
 51
29.92643628237101
  0
ARC
  5
5AB
330
105C
100
AcDbEntity
  8
0
100
AcDbCircle
 10
-181.9982604980468
 20
131.6000213623047
 30
0.0
 40
7.5
100
AcDbArc
 50
90.07332458521657
 51
149.9266684330119
  0
ARC
  5
5AC
330
105C
100
AcDbEntity
  8
0
100
AcDbCircle
 10
-181.9982604980468
 20
131.6000213623047
 30
0.0
 40
7.5
100
AcDbArc
 50
210.073331566988
 51
269.9266685845919
  0
ARC
  5
5AD
330
105C
100
AcDbEntity
  8
0
100
AcDbCircle
 10
-181.9982604980468
 20
131.6000213623047
 30
0.0
 40
7.5
100
AcDbArc
 50
270.074282632936
 51
329.9257208579498
  0
ARC
  5
5B2
330
105C
100
AcDbEntity
  8
0
100
AcDbCircle
 10
-181.9982604980468
 20
131.6000213623047
 30
0.0
 40
7.5
100
AcDbArc
 50
30.0733263306609
 51
89.92667359354971
  0
ARC
  5
5B9
330
105C
100
AcDbEntity
  8
0
100
AcDbCircle
 10
-199.9982604980468
 20
131.6000213623047
 30
0.0
 40
35.0
100
AcDbArc
 50
151.6423709713841
 51
208.3576390465291
  0
ARC
  5
5BA
330
105C
100
AcDbEntity
  8
0
100
AcDbCircle
 10
-199.9982604980468
 20
131.6000213623047
 30
0.0
 40
35.0
100
AcDbArc
 50
331.6423608397866
 51
28.35764257530835
  0
ARC
  5
5BB
330
105C
100
AcDbEntity
  8
0
100
AcDbCircle
 10
-181.9982604980468
 20
131.6000213623047
 30
0.0
 40
7.5
100
AcDbArc
 50
150.0733262548701
 51
209.9266701026648
  0
ARC
  5
5BD
330
105C
100
AcDbEntity
  8
0
100
AcDbCircle
 10
-3.350006103515625
 20
200.9270751953125
 30
0.0
 40
1.899999976158142
100
AcDbArc
 50
106.0728583008641
 51
180.000005008956
  0
ARC
  5
5BE
330
105C
100
AcDbEntity
  8
0
100
AcDbCircle
 10
3.350006103515625
 20
200.9270751953125
 30
0.0
 40
1.899999976158142
100
AcDbArc
 50
0.0
 51
73.92713987790151
  0
ARC
  5
5BF
330
105C
100
AcDbEntity
  8
0
100
AcDbCircle
 10
0.0
 20
189.3000610351561
 30
0.0
 40
14.0
100
AcDbArc
 50
73.92713987790151
 51
106.0728583008641
  0
ARC
  5
5C0
330
105C
100
AcDbEntity
  8
0
100
AcDbCircle
 10
-203.3500366210938
 20
200.9270751953125
 30
0.0
 40
1.899999976158142
100
AcDbArc
 50
106.0728583008641
 51
180.000005008956
  0
ARC
  5
5C1
330
105C
100
AcDbEntity
  8
0
100
AcDbCircle
 10
-196.6500244140625
 20
200.9270751953125
 30
0.0
 40
1.899999976158142
100
AcDbArc
 50
0.0
 51
73.92713987790151
  0
ARC
  5
5C2
330
105C
100
AcDbEntity
  8
0
100
AcDbCircle
 10
-200.0000305175781
 20
189.3000610351561
 30
0.0
 40
14.0
100
AcDbArc
 50
73.92713987790151
 51
106.0728583008641
  0
CIRCLE
  5
5C3
330
105C
100
AcDbEntity
  8
0
100
AcDbCircle
 10
-23.78821563720703
 20
276.2000427246094
 30
0.0
 40
3.49999988079071
  0
CIRCLE
  5
5C4
330
105C
100
AcDbEntity
  8
0
100
AcDbCircle
 10
-23.78821563720703
 20
323.800048828125
 30
0.0
 40
4.000000119209288
  0
CIRCLE
  5
5C5
330
105C
100
AcDbEntity
  8
0
100
AcDbCircle
 10
23.788330078125
 20
276.2000427246094
 30
0.0
 40
4.000000119209288
  0
CIRCLE
  5
5C6
330
105C
100
AcDbEntity
  8
0
100
AcDbCircle
 10
-23.78821563720703
 20
276.2000427246094
 30
0.0
 40
4.000000119209288
  0
CIRCLE
  5
5C7
330
105C
100
AcDbEntity
  8
0
100
AcDbCircle
 10
23.788330078125
 20
323.800048828125
 30
0.0
 40
4.000000119209288
  0
CIRCLE
  5
5C8
330
105C
100
AcDbEntity
  8
0
100
AcDbCircle
 10
23.788330078125
 20
323.800048828125
 30
0.0
 40
3.49999988079071
  0
CIRCLE
  5
5C9
330
105C
100
AcDbEntity
  8
0
100
AcDbCircle
 10
-23.78821563720703
 20
323.800048828125
 30
0.0
 40
3.49999988079071
  0
CIRCLE
  5
5CB
330
105C
100
AcDbEntity
  8
0
100
AcDbCircle
 10
23.788330078125
 20
276.2000427246094
 30
0.0
 40
3.49999988079071
  0
ARC
  5
5CC
330
105C
100
AcDbEntity
  8
0
100
AcDbCircle
 10
-57.65137481689453
 20
321.7999877929687
 30
0.0
 40
6.448659181594847
100
AcDbArc
 50
157.1899325775371
 51
202.8100637799954
  0
ARC
  5
5CD
330
105C
100
AcDbEntity
  8
0
100
AcDbCircle
 10
-57.65137481689453
 20
326.800048828125
 30
0.0
 40
6.448659181594847
100
AcDbArc
 50
157.1899325775371
 51
202.8100637799954
  0
ARC
  5
5CE
330
105C
100
AcDbEntity
  8
0
100
AcDbCircle
 10
-57.65137481689453
 20
273.199951171875
 30
0.0
 40
6.448659181594847
100
AcDbArc
 50
157.1899325775371
 51
202.8100637799954
  0
ARC
  5
5CF
330
105C
100
AcDbEntity
  8
0
100
AcDbCircle
 10
-57.65137481689453
 20
278.2000122070312
 30
0.0
 40
6.448659181594847
100
AcDbArc
 50
157.1899325775371
 51
202.8100637799954
  0
ARC
  5
5D0
330
105C
100
AcDbEntity
  8
0
100
AcDbCircle
 10
75.65133476257326
 20
326.800048828125
 30
0.0
 40
6.448659181594847
100
AcDbArc
 50
337.1899361063181
 51
22.81006047858586
  0
ARC
  5
5D1
330
105C
100
AcDbEntity
  8
0
100
AcDbCircle
 10
75.65133476257326
 20
321.7999877929687
 30
0.0
 40
6.448659181594847
100
AcDbArc
 50
337.1899361063181
 51
22.81006047858586
  0
ARC
  5
5D2
330
105C
100
AcDbEntity
  8
0
100
AcDbCircle
 10
75.65133476257326
 20
278.2000122070312
 30
0.0
 40
6.448659181594847
100
AcDbArc
 50
337.1899361063181
 51
22.81006047858586
  0
ARC
  5
5D3
330
105C
100
AcDbEntity
  8
0
100
AcDbCircle
 10
75.65133476257326
 20
273.199951171875
 30
0.0
 40
6.448659181594847
100
AcDbArc
 50
337.1899361063181
 51
22.81006047858586
  0
ARC
  5
5D4
330
105C
100
AcDbEntity
  8
0
100
AcDbCircle
 10
-66.35199737548828
 20
278.7500610351563
 30
0.0
 40
7.647994279861449
100
AcDbArc
 50
154.8526281831829
 51
205.147368174352
  0
ARC
  5
5D5
330
105C
100
AcDbEntity
  8
0
100
AcDbCircle
 10
-66.24799346923828
 20
285.2500305175781
 30
0.0
 40
7.647994995117185
100
AcDbArc
 50
334.8526282968673
 51
25.14736828803729
  0
ARC
  5
5D6
330
105C
100
AcDbEntity
  8
0
100
AcDbCircle
 10
-66.24799346923828
 20
278.7500610351563
 30
0.0
 40
7.647994995117185
100
AcDbArc
 50
23.50261604721632
 51
25.14737511822647
  0
ARC
  5
5D7
330
105C
100
AcDbEntity
  8
0
100
AcDbCircle
 10
-66.35199737548828
 20
285.2500305175781
 30
0.0
 40
7.647994279861449
100
AcDbArc
 50
154.8526281831829
 51
205.147368174352
  0
ARC
  5
5D8
330
105C
100
AcDbEntity
  8
0
100
AcDbCircle
 10
-55.95203018188477
 20
278.7500610351563
 30
0.0
 40
7.647994995117185
100
AcDbArc
 50
154.8526281831829
 51
165.2286417589144
  0
ARC
  5
5D9
330
105C
100
AcDbEntity
  8
0
100
AcDbCircle
 10
-55.95203018188477
 20
285.2500305175781
 30
0.0
 40
7.647994995117185
100
AcDbArc
 50
154.8526281831829
 51
205.147368174352
  0
ARC
  5
5DA
330
105C
100
AcDbEntity
  8
0
100
AcDbCircle
 10
84.35202026367187
 20
278.7500610351563
 30
0.0
 40
7.647994279861449
100
AcDbArc
 50
334.8526282968673
 51
25.14737511822647
  0
ARC
  5
5DB
330
105C
100
AcDbEntity
  8
0
100
AcDbCircle
 10
84.24798488616941
 20
285.2500305175781
 30
0.0
 40
7.647994995117185
100
AcDbArc
 50
154.8526281831829
 51
205.147368174352
  0
ARC
  5
5DC
330
105C
100
AcDbEntity
  8
0
100
AcDbCircle
 10
84.35202026367187
 20
285.2500305175781
 30
0.0
 40
7.647994279861449
100
AcDbArc
 50
334.8526282968673
 51
25.14737511822647
  0
ARC
  5
5DD
330
105C
100
AcDbEntity
  8
0
100
AcDbCircle
 10
73.95199584960938
 20
278.7500610351563
 30
0.0
 40
7.647994995117185
100
AcDbArc
 50
14.77135812739936
 51
25.14737511822647
  0
ARC
  5
5DE
330
105C
100
AcDbEntity
  8
0
100
AcDbCircle
 10
73.95199584960938
 20
285.2500305175781
 30
0.0
 40
7.647994995117185
100
AcDbArc
 50
334.8526282968673
 51
25.14736828803729
  0
POINT
  5
955
330
105C
100
AcDbEntity
  8
0
100
AcDbPoint
 10
0.0
 20
300.0000915527344
 30
0.0
  0
LINE
  5
956
330
105C
100
AcDbEntity
  8
0
100
AcDbLine
 10
-39.99992570846939
 20
302.5001540571859
 30
0.0
 11
0.000113128698672
 21
318.000168723049
 31
0.0
  0
LINE
  5
957
330
105C
100
AcDbEntity
  8
0
100
AcDbLine
 10
-39.99993896484375
 20
302.5001678466797
 30
0.0
 11
-39.99993896484375
 21
297.5001525878906
 31
0.0
  0
LINE
  5
958
330
105C
100
AcDbEntity
  8
0
100
AcDbLine
 10
-39.99994436039452
 20
297.5001815094197
 30
0.0
 11
0.0000540161041727
 21
282.0001825220657
 31
0.0
  0
LINE
  5
95A
330
105C
100
AcDbEntity
  8
0
100
AcDbLine
 10
40.00011271679425
 20
297.5001587891962
 30
0.0
 11
0.0000925537813146
 21
282.0001513595682
 31
0.0
  0
LINE
  5
95B
330
105C
100
AcDbEntity
  8
0
100
AcDbLine
 10
40.00007629394531
 20
302.5001678466797
 30
0.0
 11
40.00007629394531
 21
297.5001525878906
 31
0.0
  0
LINE
  5
95C
330
105C
100
AcDbEntity
  8
0
100
AcDbLine
 10
40.00011540676064
 20
302.5001685074264
 30
0.0
 11
0.0000761249698371
 21
318.0001833455808
 31
0.0
  0
CIRCLE
  5
95E
330
105C
100
AcDbEntity
  8
0
100
AcDbCircle
 10
0.000091552734375
 20
300.0001831054687
 30
0.0
 40
6.25
  0
CIRCLE
  5
95F
330
105C
100
AcDbEntity
  8
0
100
AcDbCircle
 10
0.000091552734375
 20
300.0001831054687
 30
0.0
 40
5.25
  0
LINE
  5
971
330
105C
100
AcDbEntity
  8
0
100
AcDbLine
 10
19.99998535919844
 20
31.75
 30
0.0
 11
19.99997089085722
 21
-31.74999618530274
 31
0.0
  0
LINE
  5
972
330
105C
100
AcDbEntity
  8
0
100
AcDbLine
 10
32.34893509618908
 20
32.11169590926852
 30
0.0
 11
32.34893509618907
 21
-32.11169209457125
 31
0.0
  0
LINE
  5
973
330
105C
100
AcDbEntity
  8
0
100
AcDbLine
 10
35.25128293840609
 20
-38.60531481470085
 30
0.0
 11
35.25128293840609
 21
38.60531862939811
 31
0.0
  0
LINE
  5
974
330
105C
100
AcDbEntity
  8
0
100
AcDbLine
 10
13.52579476935644
 20
33.2916488647461
 30
0.0
 11
13.52579476935644
 21
5.773513793945305
 31
0.0
  0
LINE
  5
977
330
105C
100
AcDbEntity
  8
0
100
AcDbLine
 10
-34.9584208542524
 20
38.2236368971583
 30
0.0
 11
-33.08117714720117
 21
33.06595238590997
 31
0.0
  0
LINE
  5
978
330
105C
100
AcDbEntity
  8
0
100
AcDbLine
 10
-31.20178222656253
 20
31.75000000000001
 30
0.0
 11
-19.99998535919846
 21
31.75000000000001
 31
0.0
  0
LINE
  5
979
330
105C
100
AcDbEntity
  8
0
100
AcDbLine
 10
-31.20178222656255
 20
-31.74999618530272
 30
0.0
 11
-19.99997089085725
 21
-31.74999618530273
 31
0.0
  0
LINE
  5
97A
330
105C
100
AcDbEntity
  8
0
100
AcDbLine
 10
-34.95843213369113
 20
-38.22361916504867
 30
0.0
 11
-33.0811936454533
 21
-33.06594899237176
 31
0.0
  0
LINE
  5
97B
330
105C
100
AcDbEntity
  8
0
100
AcDbLine
 10
-38.00000000000002
 20
38.75000000000002
 30
0.0
 11
-35.71014404296877
 21
38.75000000000002
 31
0.0
  0
LINE
  5
97C
330
105C
100
AcDbEntity
  8
0
100
AcDbLine
 10
-38.00000000000002
 20
38.75000000000002
 30
0.0
 11
-38.00000000000005
 21
-38.74999618530272
 31
0.0
  0
LINE
  5
97D
330
105C
100
AcDbEntity
  8
0
100
AcDbLine
 10
-38.00000000000005
 20
-38.74999618530272
 30
0.0
 11
-35.7101440429688
 21
-38.74999618530272
 31
0.0
  0
LINE
  5
97E
330
105C
100
AcDbEntity
  8
0
100
AcDbLine
 10
-7.500000000000014
 20
49.89999389648437
 30
0.0
 11
-7.500000000000014
 21
51.79998779296874
 31
0.0
  0
LINE
  5
98D
330
105C
100
AcDbEntity
  8
0
100
AcDbLine
 10
6.27838134765625
 20
-49.99999618530273
 30
0.0
 11
-6.278381347656302
 21
-49.99999618530273
 31
0.0
  0
LINE
  5
98E
330
105C
100
AcDbEntity
  8
0
100
AcDbLine
 10
-6.665710449218801
 20
-49.89999008178711
 30
0.0
 11
-12.00000000000005
 21
-49.8999900817871
 31
0.0
  0
LINE
  5
990
330
105C
100
AcDbEntity
  8
0
100
AcDbLine
 10
-15.77060575625047
 20
34.19183349609374
 30
0.0
 11
-19.99998535919846
 21
31.75000000000001
 31
0.0
  0
LINE
  5
992
330
105C
100
AcDbEntity
  8
0
100
AcDbLine
 10
12.0
 20
49.89999389648438
 30
0.0
 11
-12.00000000000001
 21
49.89999389648438
 31
0.0
  0
LINE
  5
993
330
105C
100
AcDbEntity
  8
0
100
AcDbLine
 10
-15.77059128790923
 20
-34.19182968139649
 30
0.0
 11
-19.99997089085725
 21
-31.74999618530273
 31
0.0
  0
LINE
  5
99A
330
105C
100
AcDbEntity
  8
0
100
AcDbLine
 10
-9.233154296875014
 20
54.79998779296875
 30
0.0
 11
-9.233154296875014
 21
53.79998779296875
 31
0.0
  0
LINE
  5
99B
330
105C
100
AcDbEntity
  8
0
100
AcDbLine
 10
-10.99997878380836
 20
53.79998779296876
 30
0.0
 11
10.99997878380835
 21
53.79998779296875
 31
0.0
  0
LINE
  5
99C
330
105C
100
AcDbEntity
  8
0
100
AcDbLine
 10
-16.00000000000001
 20
66.09999084472656
 30
0.0
 11
-16.00000000000001
 21
56.68675143990316
 31
0.0
  0
LINE
  5
99D
330
105C
100
AcDbEntity
  8
0
100
AcDbLine
 10
-10.99997878380836
 20
53.79998779296876
 30
0.0
 11
-16.00000000000001
 21
56.68675143990316
 31
0.0
  0
LINE
  5
99E
330
105C
100
AcDbEntity
  8
0
100
AcDbLine
 10
-11.53587717700035
 20
51.79998779296876
 30
0.0
 11
-18.00000000000001
 21
55.53205091188637
 31
0.0
  0
LINE
  5
99F
330
105C
100
AcDbEntity
  8
0
100
AcDbLine
 10
-18.00000000000001
 20
66.09999084472656
 30
0.0
 11
-18.00000000000001
 21
55.53205091188637
 31
0.0
  0
LINE
  5
9A0
330
105C
100
AcDbEntity
  8
0
100
AcDbLine
 10
-11.53587717700035
 20
51.79998779296876
 30
0.0
 11
11.53587717700034
 21
51.79998779296875
 31
0.0
  0
LINE
  5
9A1
330
105C
100
AcDbEntity
  8
0
100
AcDbLine
 10
-16.00000000000001
 20
66.09999084472656
 30
0.0
 11
-18.00000000000001
 21
66.09999084472656
 31
0.0
  0
LINE
  5
9A2
330
105C
100
AcDbEntity
  8
0
100
AcDbLine
 10
-13.79995727539062
 20
91.10000610351562
 30
0.0
 11
-13.79995727539062
 21
92.60000610351562
 31
0.0
  0
LINE
  5
9A3
330
105C
100
AcDbEntity
  8
0
100
AcDbLine
 10
-13.79995727539062
 20
91.10000610351562
 30
0.0
 11
13.79995727539062
 21
91.10000610351562
 31
0.0
  0
LINE
  5
9A4
330
105C
100
AcDbEntity
  8
0
100
AcDbLine
 10
-11.50003051757812
 20
89.80001831054686
 30
0.0
 11
-11.50003051757812
 21
91.10000610351562
 31
0.0
  0
LINE
  5
9A5
330
105C
100
AcDbEntity
  8
0
100
AcDbLine
 10
-15.00000000000001
 20
68.30001747912596
 30
0.0
 11
-15.0
 21
89.80001831054686
 31
0.0
  0
LINE
  5
9A6
330
105C
100
AcDbEntity
  8
0
100
AcDbLine
 10
-11.50000000000001
 20
54.80001831054688
 30
0.0
 11
-11.50000000000001
 21
64.80001747912597
 31
0.0
  0
LINE
  5
9A7
330
105C
100
AcDbEntity
  8
0
100
AcDbLine
 10
-15.0
 20
89.80001831054686
 30
0.0
 11
15.0
 21
89.80001831054686
 31
0.0
  0
LINE
  5
9A8
330
105C
100
AcDbEntity
  8
0
100
AcDbLine
 10
-15.00000000000001
 20
68.30001747912596
 30
0.0
 11
-11.50000000000001
 21
64.80001747912597
 31
0.0
  0
LINE
  5
9A9
330
105C
100
AcDbEntity
  8
0
100
AcDbLine
 10
11.5
 20
54.80001831054686
 30
0.0
 11
-11.50000000000001
 21
54.80001831054688
 31
0.0
  0
LINE
  5
9AA
330
105C
100
AcDbEntity
  8
0
100
AcDbLine
 10
-15.00000000000001
 20
47.10000610351563
 30
0.0
 11
-15.00000000000002
 21
33.2916488647461
 31
0.0
  0
LINE
  5
9AB
330
105C
100
AcDbEntity
  8
0
100
AcDbLine
 10
-35.00000000000002
 20
63.26580810546875
 30
0.0
 11
-35.0
 21
88.60000610351567
 31
0.0
  0
LINE
  5
9AC
330
105C
100
AcDbEntity
  8
0
100
AcDbLine
 10
-15.5
 20
89.60000610351562
 30
0.0
 11
-34.0
 21
89.60000610351562
 31
0.0
  0
LINE
  5
9AD
330
105C
100
AcDbEntity
  8
0
100
AcDbLine
 10
-38.00000000000002
 20
63.26580810546875
 30
0.0
 11
-38.0
 21
88.60000610351567
 31
0.0
  0
LINE
  5
9AE
330
105C
100
AcDbEntity
  8
0
100
AcDbLine
 10
-14.00004147265702
 20
50.56412796740904
 30
0.0
 11
-34.49999754942083
 21
62.3997833391332
 31
0.0
  0
LINE
  5
9AF
330
105C
100
AcDbEntity
  8
0
100
AcDbLine
 10
-15.50004149284878
 20
47.96605176771342
 30
0.0
 11
-35.99999756961258
 21
59.8017071394376
 31
0.0
  0
LINE
  5
9B0
330
105C
100
AcDbEntity
  8
0
100
AcDbLine
 10
-12.00000000000001
 20
49.89999389648438
 30
0.0
 11
-12.00000000000005
 21
-49.8999900817871
 31
0.0
  0
LINE
  5
9B2
330
105C
100
AcDbEntity
  8
0
100
AcDbLine
 10
-15.5
 20
89.60000610351562
 30
0.0
 11
-15.5
 21
92.60000610351562
 31
0.0
  0
LINE
  5
9B3
330
105C
100
AcDbEntity
  8
0
100
AcDbLine
 10
-17.30007934570313
 20
81.10005187988281
 30
0.0
 11
-17.30007934570313
 21
89.60003662109375
 31
0.0
  0
LINE
  5
9B4
330
105C
100
AcDbEntity
  8
0
100
AcDbLine
 10
-17.30007934570313
 20
88.60005187988281
 30
0.0
 11
-30.30014038085937
 21
88.60005187988281
 31
0.0
  0
LINE
  5
9B5
330
105C
100
AcDbEntity
  8
0
100
AcDbLine
 10
-17.30007934570313
 20
81.10005187988281
 30
0.0
 11
-30.30014038085937
 21
81.10005187988281
 31
0.0
  0
LINE
  5
9B6
330
105C
100
AcDbEntity
  8
0
100
AcDbLine
 10
-18.16610153708218
 20
80.60005976835844
 30
0.0
 11
-17.30012899517926
 21
81.10002925751052
 31
0.0
  0
LINE
  5
9B7
330
105C
100
AcDbEntity
  8
0
100
AcDbLine
 10
-18.16610717773437
 20
80.60006713867187
 30
0.0
 11
-29.43405151367188
 21
80.60006713867187
 31
0.0
  0
LINE
  5
9B8
330
105C
100
AcDbEntity
  8
0
100
AcDbLine
 10
-29.43406116476598
 20
80.60008454605444
 30
0.0
 11
-30.30008656466453
 21
81.10008455278507
 31
0.0
  0
LINE
  5
9B9
330
105C
100
AcDbEntity
  8
0
100
AcDbLine
 10
-30.30014038085937
 20
81.10005187988281
 30
0.0
 11
-30.30014038085937
 21
89.60003662109377
 31
0.0
  0
ARC
  5
9BB
330
105C
100
AcDbEntity
  8
0
100
AcDbCircle
 10
-35.71014404296877
 20
37.9499969482422
 30
0.0
 40
0.8000000119209291
100
AcDbArc
 50
20.00000465451279
 51
90.00000432571068
  0
ARC
  5
9BC
330
105C
100
AcDbEntity
  8
0
100
AcDbCircle
 10
-35.7101440429688
 20
-37.94999313354491
 30
0.0
 40
0.8000000119209291
100
AcDbArc
 50
269.9999956742892
 51
339.9999953454872
  0
ARC
  5
9BD
330
105C
100
AcDbEntity
  8
0
100
AcDbCircle
 10
-31.20178222656255
 20
-33.74999618530272
 30
0.0
 40
2.0
100
AcDbArc
 50
90.00000432571068
 51
159.9999954591718
  0
ARC
  5
9BE
330
105C
100
AcDbEntity
  8
0
100
AcDbCircle
 10
-31.20178222656253
 20
33.75000000000002
 30
0.0
 40
2.0
100
AcDbArc
 50
200.0000045408282
 51
269.9999956742892
  0
ARC
  5
9C3
330
105C
100
AcDbEntity
  8
0
100
AcDbCircle
 10
-6.665710449218801
 20
-50.29999923706053
 30
0.0
 40
0.4000000059604645
100
AcDbArc
 50
61.04497462257214
 51
89.9999974955215
  0
ARC
  5
9C4
330
105C
100
AcDbEntity
  8
0
100
AcDbCircle
 10
-6.278381347656302
 20
-49.60000228881836
 30
0.0
 40
0.4000000059604645
100
AcDbArc
 50
241.0449728013391
 51
270.0000025044785
  0
ARC
  5
9C8
330
105C
100
AcDbEntity
  8
0
100
AcDbCircle
 10
-34.0
 20
88.60000610351567
 30
0.0
 40
1.0
100
AcDbArc
 50
89.9999974955215
 51
180.0
  0
ARC
  5
9C9
330
105C
100
AcDbEntity
  8
0
100
AcDbCircle
 10
-16.00000000000002
 20
47.10000610351563
 30
0.0
 40
4.0
100
AcDbArc
 50
359.9999949910439
 51
59.99999666069681
  0
ARC
  5
9CA
330
105C
100
AcDbEntity
  8
0
100
AcDbCircle
 10
-16.00000000000002
 20
47.10000610351563
 30
0.0
 40
1.0
100
AcDbArc
 50
359.9999949910439
 51
59.99999666069681
  0
ARC
  5
9CB
330
105C
100
AcDbEntity
  8
0
100
AcDbCircle
 10
-34.00000000000002
 20
63.26580810546875
 30
0.0
 40
4.0
100
AcDbArc
 50
180.0
 51
240.0000016696518
  0
ARC
  5
9CC
330
105C
100
AcDbEntity
  8
0
100
AcDbCircle
 10
-34.00000000000002
 20
63.26580810546875
 30
0.0
 40
1.0
100
AcDbArc
 50
180.0
 51
240.0000016696518
  0
ARC
  5
9CD
330
105C
100
AcDbEntity
  8
0
100
AcDbCircle
 10
-34.0
 20
88.60000610351567
 30
0.0
 40
4.0
100
AcDbArc
 50
89.9999974955215
 51
180.0
  0
LINE
  5
9CE
330
105C
100
AcDbEntity
  8
0
100
AcDbLine
 10
-19.99998535919846
 20
31.75000000000001
 30
0.0
 11
-19.99997089085725
 21
-31.74999618530273
 31
0.0
  0
LINE
  5
9CF
330
105C
100
AcDbEntity
  8
0
100
AcDbLine
 10
-32.3489350961891
 20
32.11169590926854
 30
0.0
 11
-32.34893509618913
 21
-32.11169209457124
 31
0.0
  0
LINE
  5
9D0
330
105C
100
AcDbEntity
  8
0
100
AcDbLine
 10
-35.25128293840615
 20
-38.60531481470083
 30
0.0
 11
-35.25128293840612
 21
38.60531862939814
 31
0.0
  0
LINE
  5
9D1
330
105C
100
AcDbEntity
  8
0
100
AcDbLine
 10
-13.52579476935647
 20
33.2916488647461
 30
0.0
 11
-13.52579476935647
 21
5.000000000000007
 31
0.0
  0
LINE
  5
9D2
330
105C
100
AcDbEntity
  8
0
100
AcDbLine
 10
-222.5
 20
37.74845886230469
 30
0.0
 11
-222.5
 21
40.63520812988281
 31
0.0
  0
LINE
  5
9D3
330
105C
100
AcDbEntity
  8
0
100
AcDbLine
 10
-219.9999705290178
 20
42.07860341852483
 30
0.0
 11
-222.4999422888812
 21
40.63524402409552
 31
0.0
  0
LINE
  5
9D4
330
105C
100
AcDbEntity
  8
0
100
AcDbLine
 10
-220.000004755634
 20
36.30506184843351
 30
0.0
 11
-222.500029373493
 21
37.74845176044133
 31
0.0
  0
LINE
  5
9D5
330
105C
100
AcDbEntity
  8
0
100
AcDbLine
 10
-243.9999619101559
 20
-2.886737607803553
 30
0.0
 11
-241.4999901502925
 21
-1.443378213374245
 31
0.0
  0
LINE
  5
9D6
330
105C
100
AcDbEntity
  8
0
100
AcDbLine
 10
-243.9999901839455
 20
2.886748786118416
 30
0.0
 11
-246.4999619438088
 21
1.443389391689109
 31
0.0
  0
LINE
  5
9D7
330
105C
100
AcDbEntity
  8
0
100
AcDbLine
 10
-246.5
 20
-1.443374633789062
 30
0.0
 11
-246.5
 21
1.443374633789062
 31
0.0
  0
LINE
  5
9D8
330
105C
100
AcDbEntity
  8
0
100
AcDbLine
 10
-241.5
 20
-1.443374633789062
 30
0.0
 11
-241.5
 21
1.443374633789062
 31
0.0
  0
LINE
  5
9D9
330
105C
100
AcDbEntity
  8
0
100
AcDbLine
 10
-243.9999896504559
 20
2.886748172339564
 30
0.0
 11
-241.5000178905925
 21
1.443388777910256
 31
0.0
  0
LINE
  5
9DA
330
105C
100
AcDbEntity
  8
0
100
AcDbLine
 10
-244.0000179242455
 20
-2.88673822158239
 30
0.0
 11
-246.4999896841088
 21
-1.443378827153082
 31
0.0
  0
LINE
  5
9DB
330
105C
100
AcDbEntity
  8
0
100
AcDbLine
 10
-219.9999863407508
 20
-42.07859462439579
 30
0.0
 11
-217.4999617228918
 21
-40.63520471238795
 31
0.0
  0
LINE
  5
9DC
330
105C
100
AcDbEntity
  8
0
100
AcDbLine
 10
-219.9999617565447
 20
-36.30507771289528
 30
0.0
 11
-222.4999863744037
 21
-37.74846762490313
 31
0.0
  0
LINE
  5
9DD
330
105C
100
AcDbEntity
  8
0
100
AcDbLine
 10
-222.5
 20
-40.63520812988281
 30
0.0
 11
-222.5
 21
-37.74845504760742
 31
0.0
  0
LINE
  5
9DE
330
105C
100
AcDbEntity
  8
0
100
AcDbLine
 10
-217.5
 20
-40.63520812988281
 30
0.0
 11
-217.5
 21
-37.74845504760742
 31
0.0
  0
LINE
  5
9DF
330
105C
100
AcDbEntity
  8
0
100
AcDbLine
 10
-220.0000381123131
 20
-36.3051023714861
 30
0.0
 11
-217.5000134944542
 21
-37.74849228349396
 31
0.0
  0
LINE
  5
9E0
330
105C
100
AcDbEntity
  8
0
100
AcDbLine
 10
-220.000013528107
 20
-42.07861928298664
 30
0.0
 11
-222.5000381459661
 21
-40.63522937097878
 31
0.0
  0
LINE
  5
9E1
330
105C
100
AcDbEntity
  8
0
100
AcDbLine
 10
-217.5
 20
37.74845886230469
 30
0.0
 11
-217.5
 21
40.63520812988281
 31
0.0
  0
LINE
  5
9E2
330
105C
100
AcDbEntity
  8
0
100
AcDbLine
 10
-219.9999422552282
 20
36.30511702460288
 30
0.0
 11
-217.4999704953648
 21
37.74847641903219
 31
0.0
  0
LINE
  5
9E3
330
105C
100
AcDbEntity
  8
0
100
AcDbLine
 10
-220.00002933984
 20
42.078578759934
 30
0.0
 11
-217.5000047219811
 21
40.63518884792617
 31
0.0
  0
LINE
  5
9E4
330
105C
100
AcDbEntity
  8
0
100
AcDbLine
 10
-226.3301271387414
 20
34.46323388981368
 30
0.0
 11
-229.830141703798
 21
37.96324845487016
 31
0.0
  0
CIRCLE
  5
9E5
330
105C
100
AcDbEntity
  8
0
100
AcDbCircle
 10
-220.0
 20
39.19183349609375
 30
0.0
 40
4.5
  0
CIRCLE
  5
9E6
330
105C
100
AcDbEntity
  8
0
100
AcDbCircle
 10
-220.0
 20
39.19183349609375
 30
0.0
 40
5.0
  0
CIRCLE
  5
9E7
330
105C
100
AcDbEntity
  8
0
100
AcDbCircle
 10
-244.0
 20
0.0
 30
0.0
 40
4.5
  0
CIRCLE
  5
9E8
330
105C
100
AcDbEntity
  8
0
100
AcDbCircle
 10
-244.0
 20
0.0
 30
0.0
 40
5.0
  0
CIRCLE
  5
9E9
330
105C
100
AcDbEntity
  8
0
100
AcDbCircle
 10
-220.0
 20
-39.19182968139649
 30
0.0
 40
4.5
  0
CIRCLE
  5
9EA
330
105C
100
AcDbEntity
  8
0
100
AcDbCircle
 10
-220.0
 20
-39.19182968139649
 30
0.0
 40
5.0
  0
ARC
  5
9ED
330
105C
100
AcDbEntity
  8
0
100
AcDbCircle
 10
-223.5017395019531
 20
37.2916488647461
 30
0.0
 40
4.0
100
AcDbArc
 50
225.0000012522384
 51
292.6590048118329
  0
ARC
  5
9EE
330
105C
100
AcDbEntity
  8
0
100
AcDbCircle
 10
-227.0017395019531
 20
40.79165649414061
 30
0.0
 40
4.0
100
AcDbArc
 50
180.0
 51
225.0000012522384
  0
ARC
  5
9EF
330
105C
100
AcDbEntity
  8
0
100
AcDbCircle
 10
-200.0017395019531
 20
-19.0
 30
0.0
 40
57.0
100
AcDbArc
 50
111.0087782880781
 51
112.659006633065
  0
CIRCLE
  5
9F9
330
105C
100
AcDbEntity
  8
0
100
AcDbCircle
 10
-200.0
 20
0.0
 30
0.0
 40
29.75
  0
CIRCLE
  5
A1D
330
105C
100
AcDbEntity
  8
0
100
AcDbCircle
 10
-175.6982539174968
 20
163.1000248105804
 30
0.0
 40
6.25
  0
CIRCLE
  5
A21
330
105C
100
AcDbEntity
  8
0
100
AcDbCircle
 10
-175.6982727050781
 20
100.0999908447265
 30
0.0
 40
6.25
  0
CIRCLE
  5
A23
330
105C
100
AcDbEntity
  8
0
100
AcDbCircle
 10
-224.2982482910156
 20
100.0999908447265
 30
0.0
 40
6.25
  0
CIRCLE
  5
A25
330
105C
100
AcDbEntity
  8
0
100
AcDbCircle
 10
-224.2982482910156
 20
163.1000213623047
 30
0.0
 40
6.25
  0
LINE
  5
A29
330
105C
100
AcDbEntity
  8
0
100
AcDbLine
 10
-229.2982459597651
 20
165.9867713623046
 30
0.0
 11
-229.2982459597651
 21
160.2132713623046
 31
0.0
  0
LINE
  5
A2A
330
105C
100
AcDbEntity
  8
0
100
AcDbLine
 10
-219.2982506222662
 20
160.2132713623046
 30
0.0
 11
-219.2982506222662
 21
165.9867713623046
 31
0.0
  0
CIRCLE
  5
A2B
330
105C
100
AcDbEntity
  8
0
100
AcDbCircle
 10
-224.2982482910156
 20
163.1000213623047
 30
0.0
 40
4.899999999999997
  0
LINE
  5
A2C
330
105C
100
AcDbEntity
  8
0
100
AcDbLine
 10
-229.2982459597651
 20
160.2132713623046
 30
0.0
 11
-224.2982482910156
 21
157.3265213623046
 31
0.0
  0
LINE
  5
A2D
330
105C
100
AcDbEntity
  8
0
100
AcDbLine
 10
-224.2982482910156
 20
157.3265213623046
 30
0.0
 11
-219.2982506222662
 21
160.2132713623046
 31
0.0
  0
LINE
  5
A2E
330
105C
100
AcDbEntity
  8
0
100
AcDbLine
 10
-224.2982482910156
 20
168.8735213623045
 30
0.0
 11
-229.2982459597651
 21
165.9867713623046
 31
0.0
  0
LINE
  5
A2F
330
105C
100
AcDbEntity
  8
0
100
AcDbLine
 10
-219.2982506222662
 20
165.9867713623046
 30
0.0
 11
-224.2982482910156
 21
168.8735213623045
 31
0.0
  0
LINE
  5
A30
330
105C
100
AcDbEntity
  8
0
100
AcDbLine
 10
-229.2982459597651
 20
102.9867408447265
 30
0.0
 11
-229.2982459597651
 21
97.21324084472655
 31
0.0
  0
LINE
  5
A31
330
105C
100
AcDbEntity
  8
0
100
AcDbLine
 10
-219.2982506222662
 20
97.21324084472653
 30
0.0
 11
-219.2982506222662
 21
102.9867408447265
 31
0.0
  0
CIRCLE
  5
A32
330
105C
100
AcDbEntity
  8
0
100
AcDbCircle
 10
-224.2982482910156
 20
100.0999908447265
 30
0.0
 40
4.899999999999997
  0
LINE
  5
A33
330
105C
100
AcDbEntity
  8
0
100
AcDbLine
 10
-229.2982459597651
 20
97.21324084472655
 30
0.0
 11
-224.2982482910156
 21
94.32649084472652
 31
0.0
  0
LINE
  5
A34
330
105C
100
AcDbEntity
  8
0
100
AcDbLine
 10
-224.2982482910156
 20
94.32649084472652
 30
0.0
 11
-219.2982506222662
 21
97.21324084472653
 31
0.0
  0
LINE
  5
A35
330
105C
100
AcDbEntity
  8
0
100
AcDbLine
 10
-224.2982482910156
 20
105.8734908447265
 30
0.0
 11
-229.2982459597651
 21
102.9867408447265
 31
0.0
  0
LINE
  5
A36
330
105C
100
AcDbEntity
  8
0
100
AcDbLine
 10
-219.2982506222662
 20
102.9867408447265
 30
0.0
 11
-224.2982482910156
 21
105.8734908447265
 31
0.0
  0
LINE
  5
A37
330
105C
100
AcDbEntity
  8
0
100
AcDbLine
 10
-180.6982703738276
 20
102.9867408447265
 30
0.0
 11
-180.6982703738276
 21
97.21324084472655
 31
0.0
  0
LINE
  5
A38
330
105C
100
AcDbEntity
  8
0
100
AcDbLine
 10
-170.6982750363287
 20
97.21324084472653
 30
0.0
 11
-170.6982750363287
 21
102.9867408447265
 31
0.0
  0
CIRCLE
  5
A39
330
105C
100
AcDbEntity
  8
0
100
AcDbCircle
 10
-175.6982727050781
 20
100.0999908447265
 30
0.0
 40
4.899999999999997
  0
LINE
  5
A3A
330
105C
100
AcDbEntity
  8
0
100
AcDbLine
 10
-180.6982703738276
 20
97.21324084472655
 30
0.0
 11
-175.6982727050781
 21
94.32649084472652
 31
0.0
  0
LINE
  5
A3B
330
105C
100
AcDbEntity
  8
0
100
AcDbLine
 10
-175.6982727050781
 20
94.32649084472652
 30
0.0
 11
-170.6982750363287
 21
97.21324084472653
 31
0.0
  0
LINE
  5
A3C
330
105C
100
AcDbEntity
  8
0
100
AcDbLine
 10
-175.6982727050781
 20
105.8734908447265
 30
0.0
 11
-180.6982703738276
 21
102.9867408447265
 31
0.0
  0
LINE
  5
A3D
330
105C
100
AcDbEntity
  8
0
100
AcDbLine
 10
-170.6982750363287
 20
102.9867408447265
 30
0.0
 11
-175.6982727050781
 21
105.8734908447265
 31
0.0
  0
LINE
  5
A3E
330
105C
100
AcDbEntity
  8
0
100
AcDbLine
 10
-180.6982515862463
 20
165.9867748105804
 30
0.0
 11
-180.6982515862463
 21
160.2132748105804
 31
0.0
  0
LINE
  5
A3F
330
105C
100
AcDbEntity
  8
0
100
AcDbLine
 10
-170.6982562487474
 20
160.2132748105804
 30
0.0
 11
-170.6982562487474
 21
165.9867748105804
 31
0.0
  0
CIRCLE
  5
A40
330
105C
100
AcDbEntity
  8
0
100
AcDbCircle
 10
-175.6982539174968
 20
163.1000248105804
 30
0.0
 40
4.899999999999997
  0
LINE
  5
A41
330
105C
100
AcDbEntity
  8
0
100
AcDbLine
 10
-180.6982515862463
 20
160.2132748105804
 30
0.0
 11
-175.6982539174968
 21
157.3265248105804
 31
0.0
  0
LINE
  5
A42
330
105C
100
AcDbEntity
  8
0
100
AcDbLine
 10
-175.6982539174968
 20
157.3265248105804
 30
0.0
 11
-170.6982562487474
 21
160.2132748105804
 31
0.0
  0
LINE
  5
A43
330
105C
100
AcDbEntity
  8
0
100
AcDbLine
 10
-175.6982539174968
 20
168.8735248105804
 30
0.0
 11
-180.6982515862463
 21
165.9867748105804
 31
0.0
  0
LINE
  5
A44
330
105C
100
AcDbEntity
  8
0
100
AcDbLine
 10
-170.6982562487474
 20
165.9867748105804
 30
0.0
 11
-175.6982539174968
 21
168.8735248105804
 31
0.0
  0
TEXT
  5
A7A
330
105C
100
AcDbEntity
  8
0
100
AcDbText
 10
-366.6666666666666
 20
379.1666666666667
 30
0.0
 40
50.0
  1
LVB__T20000 2.5S
 72
     4
 11
0.0
 21
400.0
 31
0.0
100
AcDbText
  0
LINE
  5
ACE
330
105C
100
AcDbEntity
  8
0
100
AcDbLine
 10
34.95843213369108
 20
261.7763808349513
 30
0.0
 11
33.85792916144537
 21
264.7999877929688
 31
0.0
  0
LINE
  5
ACF
330
105C
100
AcDbEntity
  8
0
100
AcDbLine
 10
38.0
 20
264.7999877929688
 30
0.0
 11
38.0
 21
261.2500038146972
 31
0.0
  0
LINE
  5
AD0
330
105C
100
AcDbEntity
  8
0
100
AcDbLine
 10
38.0
 20
261.2500038146972
 30
0.0
 11
35.71014404296875
 21
261.2500038146972
 31
0.0
  0
LINE
  5
AD5
330
105C
100
AcDbEntity
  8
0
100
AcDbLine
 10
6.66571044921875
 20
250.1000099182129
 30
0.0
 11
12.0
 21
250.1000099182129
 31
0.0
  0
LINE
  5
AD7
330
105C
100
AcDbEntity
  8
0
100
AcDbLine
 10
12.0
 20
264.7999877929688
 30
0.0
 11
12.0
 21
250.1000099182129
 31
0.0
  0
ARC
  5
AD8
330
105C
100
AcDbEntity
  8
0
100
AcDbCircle
 10
35.71014404296875
 20
262.0500068664551
 30
0.0
 40
0.8000000119209291
100
AcDbArc
 50
200.0000046545132
 51
270.0000043257107
  0
ARC
  5
ADA
330
105C
100
AcDbEntity
  8
0
100
AcDbCircle
 10
16.05596923828125
 20
262.5088233947754
 30
0.0
 40
3.0
100
AcDbArc
 50
130.2066182938349
 51
175.6318325485179
  0
ARC
  5
ADB
330
105C
100
AcDbEntity
  8
0
100
AcDbCircle
 10
6.66571044921875
 20
249.7000007629395
 30
0.0
 40
0.4000000059604645
100
AcDbArc
 50
90.00000250447842
 51
118.9550253774286
  0
ARC
  5
ADC
330
105C
100
AcDbEntity
  8
0
100
AcDbCircle
 10
6.27838134765625
 20
250.3999977111817
 30
0.0
 40
0.4000000059604645
100
AcDbArc
 50
269.9999974955215
 51
298.9550271986605
  0
LINE
  5
ADF
330
105C
100
AcDbEntity
  8
0
100
AcDbLine
 10
35.25128293840609
 20
261.3946851852992
 30
0.0
 11
35.25128293840609
 21
264.7999877929688
 31
0.0
  0
LINE
  5
AE2
330
105C
100
AcDbEntity
  8
0
100
AcDbLine
 10
-34.95843213369113
 20
261.7763808349514
 30
0.0
 11
-33.85792916144541
 21
264.7999877929688
 31
0.0
  0
LINE
  5
AE3
330
105C
100
AcDbEntity
  8
0
100
AcDbLine
 10
-38.00000000000005
 20
264.7999877929688
 30
0.0
 11
-38.00000000000005
 21
261.2500038146972
 31
0.0
  0
LINE
  5
AE4
330
105C
100
AcDbEntity
  8
0
100
AcDbLine
 10
-38.00000000000005
 20
261.2500038146972
 30
0.0
 11
-35.7101440429688
 21
261.2500038146972
 31
0.0
  0
LINE
  5
AE6
330
105C
100
AcDbEntity
  8
0
100
AcDbLine
 10
-13.067384513177
 20
262.770283412509
 30
0.0
 11
-12.9125047838066
 21
261.0
 31
0.0
  0
LINE
  5
AE7
330
105C
100
AcDbEntity
  8
0
100
AcDbLine
 10
6.27838134765625
 20
250.0000038146973
 30
0.0
 11
-6.278381347656302
 21
250.0000038146973
 31
0.0
  0
LINE
  5
AE8
330
105C
100
AcDbEntity
  8
0
100
AcDbLine
 10
-6.665710449218801
 20
250.1000099182129
 30
0.0
 11
-12.00000000000005
 21
250.1000099182129
 31
0.0
  0
LINE
  5
AEA
330
105C
100
AcDbEntity
  8
0
100
AcDbLine
 10
-12.00000000000003
 20
264.7999877929688
 30
0.0
 11
-12.00000000000005
 21
250.1000099182129
 31
0.0
  0
ARC
  5
AEB
330
105C
100
AcDbEntity
  8
0
100
AcDbCircle
 10
-35.7101440429688
 20
262.0500068664551
 30
0.0
 40
0.8000000119209291
100
AcDbArc
 50
269.9999956742892
 51
339.9999953454868
  0
ARC
  5
AED
330
105C
100
AcDbEntity
  8
0
100
AcDbCircle
 10
-16.0559692382813
 20
262.5088233947754
 30
0.0
 40
3.0
100
AcDbArc
 50
4.999861763397652
 51
49.79338170616511
  0
ARC
  5
AEE
330
105C
100
AcDbEntity
  8
0
100
AcDbCircle
 10
-6.665710449218801
 20
249.7000007629395
 30
0.0
 40
0.4000000059604645
100
AcDbArc
 50
61.04497462257138
 51
89.9999974955215
  0
ARC
  5
AEF
330
105C
100
AcDbEntity
  8
0
100
AcDbCircle
 10
-6.278381347656302
 20
250.3999977111817
 30
0.0
 40
0.4000000059604645
100
AcDbArc
 50
241.0449728013395
 51
270.0000025044785
  0
LINE
  5
AF2
330
105C
100
AcDbEntity
  8
0
100
AcDbLine
 10
-35.25128293840615
 20
261.3946851852992
 30
0.0
 11
-35.25128293840615
 21
264.7999877929688
 31
0.0
  0
LINE
  5
AF4
330
105C
100
AcDbEntity
  8
0
100
AcDbLine
 10
34.95843213369108
 20
338.2236191650488
 30
0.0
 11
33.85792916144537
 21
335.2000122070312
 31
0.0
  0
LINE
  5
AF5
330
105C
100
AcDbEntity
  8
0
100
AcDbLine
 10
38.0
 20
335.2000122070312
 30
0.0
 11
38.0
 21
338.7499961853027
 31
0.0
  0
LINE
  5
AF6
330
105C
100
AcDbEntity
  8
0
100
AcDbLine
 10
38.0
 20
338.7499961853027
 30
0.0
 11
35.71014404296875
 21
338.7499961853027
 31
0.0
  0
LINE
  5
AF9
330
105C
100
AcDbEntity
  8
0
100
AcDbLine
 10
6.66571044921875
 20
349.8999900817871
 30
0.0
 11
12.0
 21
349.8999900817871
 31
0.0
  0
LINE
  5
AFA
330
105C
100
AcDbEntity
  8
0
100
AcDbLine
 10
12.0
 20
335.2000122070312
 30
0.0
 11
12.0
 21
349.8999900817871
 31
0.0
  0
ARC
  5
AFB
330
105C
100
AcDbEntity
  8
0
100
AcDbCircle
 10
35.71014404296875
 20
337.9499931335449
 30
0.0
 40
0.8000000119209291
100
AcDbArc
 50
89.99999567428933
 51
159.9999953454898
  0
ARC
  5
AFC
330
105C
100
AcDbEntity
  8
0
100
AcDbCircle
 10
16.05596923828125
 20
337.4911766052246
 30
0.0
 40
3.0
100
AcDbArc
 50
184.3681674514668
 51
229.7933817061651
  0
ARC
  5
AFD
330
105C
100
AcDbEntity
  8
0
100
AcDbCircle
 10
6.66571044921875
 20
350.2999992370606
 30
0.0
 40
0.4000000059604645
100
AcDbArc
 50
241.0449746225708
 51
269.9999974955216
  0
ARC
  5
AFE
330
105C
100
AcDbEntity
  8
0
100
AcDbCircle
 10
6.27838134765625
 20
349.6000022888184
 30
0.0
 40
0.4000000059604645
100
AcDbArc
 50
61.04497280133994
 51
90.00000250447849
  0
LINE
  5
AFF
330
105C
100
AcDbEntity
  8
0
100
AcDbLine
 10
35.25128293840609
 20
338.6053148147008
 30
0.0
 11
35.25128293840609
 21
335.2000122070312
 31
0.0
  0
LINE
  5
B00
330
105C
100
AcDbEntity
  8
0
100
AcDbLine
 10
-34.95843213369113
 20
338.2236191650488
 30
0.0
 11
-33.85792916144541
 21
335.2000122070312
 31
0.0
  0
LINE
  5
B01
330
105C
100
AcDbEntity
  8
0
100
AcDbLine
 10
-38.00000000000005
 20
335.2000122070312
 30
0.0
 11
-38.00000000000005
 21
338.7499961853027
 31
0.0
  0
LINE
  5
B02
330
105C
100
AcDbEntity
  8
0
100
AcDbLine
 10
-38.00000000000005
 20
338.7499961853027
 30
0.0
 11
-35.7101440429688
 21
338.7499961853027
 31
0.0
  0
LINE
  5
B05
330
105C
100
AcDbEntity
  8
0
100
AcDbLine
 10
6.27838134765625
 20
349.9999961853027
 30
0.0
 11
-6.278381347656302
 21
349.9999961853027
 31
0.0
  0
LINE
  5
B06
330
105C
100
AcDbEntity
  8
0
100
AcDbLine
 10
-6.665710449218801
 20
349.8999900817871
 30
0.0
 11
-12.00000000000005
 21
349.8999900817871
 31
0.0
  0
LINE
  5
B07
330
105C
100
AcDbEntity
  8
0
100
AcDbLine
 10
-12.00000000000003
 20
335.2000122070312
 30
0.0
 11
-12.00000000000005
 21
349.8999900817871
 31
0.0
  0
ARC
  5
B08
330
105C
100
AcDbEntity
  8
0
100
AcDbCircle
 10
-35.7101440429688
 20
337.9499931335449
 30
0.0
 40
0.8000000119209291
100
AcDbArc
 50
20.00000465451021
 51
90.00000432571068
  0
ARC
  5
B09
330
105C
100
AcDbEntity
  8
0
100
AcDbCircle
 10
-16.0559692382813
 20
337.4911766052246
 30
0.0
 40
3.0
100
AcDbArc
 50
310.206618293835
 51
355.0001382366024
  0
ARC
  5
B0A
330
105C
100
AcDbEntity
  8
0
100
AcDbCircle
 10
-6.665710449218801
 20
350.2999992370606
 30
0.0
 40
0.4000000059604645
100
AcDbArc
 50
270.0000025044785
 51
298.9550253774292
  0
ARC
  5
B0B
330
105C
100
AcDbEntity
  8
0
100
AcDbCircle
 10
-6.278381347656302
 20
349.6000022888184
 30
0.0
 40
0.4000000059604645
100
AcDbArc
 50
89.99999749552154
 51
118.9550271986601
  0
LINE
  5
B0C
330
105C
100
AcDbEntity
  8
0
100
AcDbLine
 10
-35.25128293840615
 20
338.6053148147008
 30
0.0
 11
-35.25128293840615
 21
335.2000122070312
 31
0.0
  0
LINE
  5
12E6
330
105C
100
AcDbEntity
  8
0
100
AcDbLine
 10
-15.00000000000003
 20
33.2916488647461
 30
0.0
 11
-12.00000000000002
 21
33.2916488647461
 31
0.0
  0
LINE
  5
12E7
330
105C
100
AcDbEntity
  8
0
100
AcDbLine
 10
-20.6
 20
44.19183349609373
 30
0.0
 11
-15.0
 21
44.19183349609376
 31
0.0
  0
LINE
  5
12E8
330
105C
100
AcDbEntity
  8
0
100
AcDbLine
 10
-20.59999999999996
 20
34.19183349609374
 30
0.0
 11
-15.0
 21
34.19183349609374
 31
0.0
  0
LINE
  5
12F3
330
105C
100
AcDbEntity
  8
0
100
AcDbLine
 10
-21.0
 20
43.49901317306619
 30
0.0
 11
-21.0
 21
34.88465381912131
 31
0.0
  0
LINE
  5
12F5
330
105C
100
AcDbEntity
  8
0
100
AcDbLine
 10
-20.6
 20
34.19183349609374
 30
0.0
 11
-21.0
 21
34.88465381912131
 31
0.0
  0
LINE
  5
12F6
330
105C
100
AcDbEntity
  8
0
100
AcDbLine
 10
-20.6
 20
44.19183349609373
 30
0.0
 11
-20.6
 21
34.19183349609374
 31
0.0
  0
LINE
  5
12F7
330
105C
100
AcDbEntity
  8
0
100
AcDbLine
 10
-20.6
 20
44.19183349609373
 30
0.0
 11
-21.0
 21
43.49901317306619
 31
0.0
  0
LINE
  5
12FA
330
105C
100
AcDbEntity
  8
0
100
AcDbLine
 10
11.99999999999999
 20
33.2916488647461
 30
0.0
 11
15.0
 21
33.2916488647461
 31
0.0
  0
LINE
  5
12FC
330
105C
100
AcDbEntity
  8
0
100
AcDbLine
 10
-17.60000000000002
 20
4.999999999999985
 30
0.0
 11
-12.00000000000003
 21
5.000000000000014
 31
0.0
  0
LINE
  5
12FD
330
105C
100
AcDbEntity
  8
0
100
AcDbLine
 10
-17.59999999999999
 20
-5.000000000000014
 30
0.0
 11
-12.00000000000003
 21
-5.000000000000014
 31
0.0
  0
LINE
  5
12FF
330
105C
100
AcDbEntity
  8
0
100
AcDbLine
 10
-18.00000000000003
 20
4.307179676972438
 30
0.0
 11
-18.00000000000003
 21
-4.307179676972438
 31
0.0
  0
LINE
  5
1300
330
105C
100
AcDbEntity
  8
0
100
AcDbLine
 10
-17.60000000000002
 20
-5.000000000000014
 30
0.0
 11
-18.00000000000003
 21
-4.307179676972438
 31
0.0
  0
LINE
  5
1301
330
105C
100
AcDbEntity
  8
0
100
AcDbLine
 10
-17.60000000000002
 20
4.999999999999985
 30
0.0
 11
-17.60000000000002
 21
-5.000000000000014
 31
0.0
  0
LINE
  5
1302
330
105C
100
AcDbEntity
  8
0
100
AcDbLine
 10
-17.60000000000002
 20
4.999999999999985
 30
0.0
 11
-18.00000000000003
 21
4.307179676972438
 31
0.0
  0
LINE
  5
1303
330
105C
100
AcDbEntity
  8
0
100
AcDbLine
 10
-17.60000000000002
 20
-34.1918296813965
 30
0.0
 11
-12.00000000000003
 21
-34.19182968139647
 31
0.0
  0
LINE
  5
1304
330
105C
100
AcDbEntity
  8
0
100
AcDbLine
 10
-17.59999999999999
 20
-44.1918296813965
 30
0.0
 11
-12.00000000000003
 21
-44.1918296813965
 31
0.0
  0
LINE
  5
1306
330
105C
100
AcDbEntity
  8
0
100
AcDbLine
 10
-18.00000000000003
 20
-34.88465000442405
 30
0.0
 11
-18.00000000000003
 21
-43.49900935836892
 31
0.0
  0
LINE
  5
1307
330
105C
100
AcDbEntity
  8
0
100
AcDbLine
 10
-17.60000000000002
 20
-44.1918296813965
 30
0.0
 11
-18.00000000000003
 21
-43.49900935836892
 31
0.0
  0
LINE
  5
1308
330
105C
100
AcDbEntity
  8
0
100
AcDbLine
 10
-17.60000000000002
 20
-34.1918296813965
 30
0.0
 11
-17.60000000000002
 21
-44.1918296813965
 31
0.0
  0
LINE
  5
1309
330
105C
100
AcDbEntity
  8
0
100
AcDbLine
 10
-17.60000000000002
 20
-34.1918296813965
 30
0.0
 11
-18.00000000000003
 21
-34.88465000442405
 31
0.0
  0
LINE
  5
130A
330
105C
100
AcDbEntity
  8
0
100
AcDbLine
 10
-13.52579476935647
 20
-5.000000000000014
 30
0.0
 11
-13.52579476935648
 21
-34.19182968139648
 31
0.0
  0
LINE
  5
130D
330
105C
100
AcDbEntity
  8
0
100
AcDbLine
 10
15.1243896484375
 20
-5.77349853515625
 30
0.0
 11
12.0
 21
-5.77349853515625
 31
0.0
  0
LINE
  5
130E
330
105C
100
AcDbEntity
  8
0
100
AcDbLine
 10
15.1243896484375
 20
-2.886749267578132
 30
0.0
 11
11.99993896484375
 21
-2.886749267578132
 31
0.0
  0
LINE
  5
130F
330
105C
100
AcDbEntity
  8
0
100
AcDbLine
 10
15.09564208984375
 20
5.773513793945305
 30
0.0
 11
11.99993896484375
 21
5.773513793945305
 31
0.0
  0
LINE
  5
1310
330
105C
100
AcDbEntity
  8
0
100
AcDbLine
 10
15.5999755859375
 20
-4.330123901367194
 30
0.0
 11
15.5999755859375
 21
4.33013916015625
 31
0.0
  0
LINE
  5
1312
330
105C
100
AcDbEntity
  8
0
100
AcDbLine
 10
15.1243896484375
 20
2.88676452636718
 30
0.0
 11
11.99993896484375
 21
2.88676452636718
 31
0.0
  0
ARC
  5
1316
330
105C
100
AcDbEntity
  8
0
100
AcDbCircle
 10
13.171630859375
 20
-4.330123901367194
 30
0.0
 40
2.428322076797484
100
AcDbArc
 50
323.530686455054
 51
36.46931354494598
  0
ARC
  5
1317
330
105C
100
AcDbEntity
  8
0
100
AcDbCircle
 10
6.5999755859375
 20
0.0
 30
0.0
 40
9.0
100
AcDbArc
 50
341.291703759532
 51
18.70829965556165
  0
ARC
  5
1318
330
105C
100
AcDbEntity
  8
0
100
AcDbCircle
 10
13.171630859375
 20
4.33013916015625
 30
0.0
 40
2.428322076797484
100
AcDbArc
 50
323.5306830399587
 51
36.46931354494598
  0
LINE
  5
131C
330
105C
100
AcDbEntity
  8
0
100
AcDbLine
 10
15.1244780391629
 20
-33.41831588745118
 30
0.0
 11
11.99993896484375
 21
-33.41831588745118
 31
0.0
  0
LINE
  5
1326
330
105C
100
AcDbEntity
  8
0
100
AcDbLine
 10
16.5999755859375
 20
2.999996185302741
 30
0.0
 11
15.5999755859375
 21
2.999996185302741
 31
0.0
  0
LINE
  5
1327
330
105C
100
AcDbEntity
  8
0
100
AcDbLine
 10
16.5999755859375
 20
-3.000003814697258
 30
0.0
 11
15.5999755859375
 21
-3.000003814697258
 31
0.0
  0
LINE
  5
1328
330
105C
100
AcDbEntity
  8
0
100
AcDbLine
 10
17.5999755859375
 20
-2.000003814697251
 30
0.0
 11
17.5999755859375
 21
1.999996185302741
 31
0.0
  0
LINE
  5
1329
330
105C
100
AcDbEntity
  8
0
100
AcDbLine
 10
16.59999758747341
 20
2.999962916965053
 30
0.0
 11
17.59997704484476
 21
1.999983375301738
 31
0.0
  0
LINE
  5
132A
330
105C
100
AcDbEntity
  8
0
100
AcDbLine
 10
17.59997687625719
 20
-2.000020939513412
 30
0.0
 11
16.59999733459386
 21
-3.000000396884793
 31
0.0
  0
LINE
  5
132B
330
105C
100
AcDbEntity
  8
0
100
AcDbLine
 10
13.52579476935643
 20
-5.77349853515625
 30
0.0
 11
13.52579476935643
 21
-33.41831588745118
 31
0.0
  0
LINE
  5
132E
330
105C
100
AcDbEntity
  8
0
100
AcDbLine
 10
-17.60000000000004
 20
261.0
 30
0.0
 11
-12.00000000000004
 21
261.0
 31
0.0
  0
LINE
  5
132F
330
105C
100
AcDbEntity
  8
0
100
AcDbLine
 10
-17.60000000000001
 20
251.0
 30
0.0
 11
-12.00000000000004
 21
251.0
 31
0.0
  0
LINE
  5
1331
330
105C
100
AcDbEntity
  8
0
100
AcDbLine
 10
-18.00000000000004
 20
260.3071796769725
 30
0.0
 11
-18.00000000000004
 21
251.6928203230275
 31
0.0
  0
LINE
  5
1332
330
105C
100
AcDbEntity
  8
0
100
AcDbLine
 10
-17.60000000000004
 20
251.0
 30
0.0
 11
-18.00000000000004
 21
251.6928203230275
 31
0.0
  0
LINE
  5
1333
330
105C
100
AcDbEntity
  8
0
100
AcDbLine
 10
-17.60000000000004
 20
261.0
 30
0.0
 11
-17.60000000000004
 21
251.0
 31
0.0
  0
LINE
  5
1334
330
105C
100
AcDbEntity
  8
0
100
AcDbLine
 10
-17.60000000000004
 20
261.0
 30
0.0
 11
-18.00000000000004
 21
260.3071796769725
 31
0.0
  0
LINE
  5
133D
330
105C
100
AcDbEntity
  8
0
100
AcDbLine
 10
16.59997558593748
 20
258.9999961853028
 30
0.0
 11
15.59997558593749
 21
258.9999961853028
 31
0.0
  0
LINE
  5
133E
330
105C
100
AcDbEntity
  8
0
100
AcDbLine
 10
16.59997558593748
 20
252.9999961853028
 30
0.0
 11
15.59997558593749
 21
252.9999961853028
 31
0.0
  0
LINE
  5
133F
330
105C
100
AcDbEntity
  8
0
100
AcDbLine
 10
17.59997558593748
 20
253.9999961853027
 30
0.0
 11
17.59997558593748
 21
257.9999961853027
 31
0.0
  0
LINE
  5
1340
330
105C
100
AcDbEntity
  8
0
100
AcDbLine
 10
16.59999758747339
 20
258.999962916965
 30
0.0
 11
17.59997704484475
 21
257.9999833753017
 31
0.0
  0
LINE
  5
1341
330
105C
100
AcDbEntity
  8
0
100
AcDbLine
 10
17.59997687625718
 20
253.9999790604866
 30
0.0
 11
16.59999733459384
 21
252.9999996031152
 31
0.0
  0
LINE
  5
1356
330
105C
100
AcDbEntity
  8
0
100
AcDbLine
 10
0.0
 20
49.89999389648438
 30
0.0
 11
0.0
 21
-49.99999618530273
 31
0.0
  0
LINE
  5
1357
330
105C
100
AcDbEntity
  8
0
100
AcDbLine
 10
0.000091552734375
 20
250.0000038146973
 30
0.0
 11
0.000091552734375
 21
264.7999877929688
 31
0.0
  0
LINE
  5
1358
330
105C
100
AcDbEntity
  8
0
100
AcDbLine
 10
0.000091552734375
 20
349.9999961853027
 30
0.0
 11
0.000091552734375
 21
335.2000122070312
 31
0.0
  0
LINE
  5
1418
330
105C
100
AcDbEntity
  8
0
100
AcDbLine
 10
15.59999999999999
 20
251.1
 30
0.0
 11
15.59999999999999
 21
260.9
 31
0.0
  0
ARC
  5
1419
330
105C
100
AcDbEntity
  8
0
100
AcDbCircle
 10
8.321314873352008
 20
253.5
 30
0.0
 40
7.220950126647949
100
AcDbArc
 50
339.7444458007815
 51
20.25555419921852
  0
ARC
  5
141C
330
105C
100
AcDbEntity
  8
0
100
AcDbCircle
 10
8.321314873352008
 20
258.5
 30
0.0
 40
7.220950126647949
100
AcDbArc
 50
339.7444458007815
 51
20.25555419921852
  0
LINE
  5
141E
330
105C
100
AcDbEntity
  8
0
100
AcDbLine
 10
12.0
 20
261.0
 30
0.0
 11
15.54226499999998
 21
261.0
 31
0.0
  0
LINE
  5
141F
330
105C
100
AcDbEntity
  8
0
100
AcDbLine
 10
15.54226499999998
 20
261.0
 30
0.0
 11
15.59999999999999
 21
260.9
 31
0.0
  0
LINE
  5
1421
330
105C
100
AcDbEntity
  8
0
100
AcDbLine
 10
12.0
 20
256.0
 30
0.0
 11
15.09568477499999
 21
256.0
 31
0.0
  0
LINE
  5
1422
330
105C
100
AcDbEntity
  8
0
100
AcDbLine
 10
12.0
 20
251.0000000000001
 30
0.0
 11
15.54226499999998
 21
251.0
 31
0.0
  0
LINE
  5
1423
330
105C
100
AcDbEntity
  8
0
100
AcDbLine
 10
15.54226499999998
 20
251.0
 30
0.0
 11
15.59999999999999
 21
251.1
 31
0.0
  0
LINE
  5
1425
330
105C
100
AcDbEntity
  8
0
100
AcDbLine
 10
13.0646835719378
 20
262.7373186076973
 30
0.0
 11
12.91268788927535
 21
261.0
 31
0.0
  0
LINE
  5
1426
330
105C
100
AcDbEntity
  8
0
100
AcDbLine
 10
-17.60000000000004
 20
339.0
 30
0.0
 11
-12.00000000000004
 21
339.0
 31
0.0
  0
LINE
  5
1427
330
105C
100
AcDbEntity
  8
0
100
AcDbLine
 10
-17.60000000000001
 20
349.0
 30
0.0
 11
-12.00000000000004
 21
349.0
 31
0.0
  0
LINE
  5
1428
330
105C
100
AcDbEntity
  8
0
100
AcDbLine
 10
-18.00000000000004
 20
339.6928203230276
 30
0.0
 11
-18.00000000000004
 21
348.3071796769725
 31
0.0
  0
LINE
  5
1429
330
105C
100
AcDbEntity
  8
0
100
AcDbLine
 10
-17.60000000000004
 20
349.0
 30
0.0
 11
-18.00000000000004
 21
348.3071796769725
 31
0.0
  0
LINE
  5
142A
330
105C
100
AcDbEntity
  8
0
100
AcDbLine
 10
-17.60000000000004
 20
339.0
 30
0.0
 11
-17.60000000000004
 21
349.0
 31
0.0
  0
LINE
  5
142B
330
105C
100
AcDbEntity
  8
0
100
AcDbLine
 10
-17.60000000000004
 20
339.0
 30
0.0
 11
-18.00000000000004
 21
339.6928203230276
 31
0.0
  0
LINE
  5
142C
330
105C
100
AcDbEntity
  8
0
100
AcDbLine
 10
16.59997558593748
 20
341.0000038146973
 30
0.0
 11
15.59997558593749
 21
341.0000038146973
 31
0.0
  0
LINE
  5
142D
330
105C
100
AcDbEntity
  8
0
100
AcDbLine
 10
16.59997558593748
 20
347.0000038146973
 30
0.0
 11
15.59997558593749
 21
347.0000038146973
 31
0.0
  0
LINE
  5
142E
330
105C
100
AcDbEntity
  8
0
100
AcDbLine
 10
17.59997558593748
 20
346.0000038146973
 30
0.0
 11
17.59997558593748
 21
342.0000038146973
 31
0.0
  0
LINE
  5
142F
330
105C
100
AcDbEntity
  8
0
100
AcDbLine
 10
16.59999758747339
 20
341.000037083035
 30
0.0
 11
17.59997704484475
 21
342.0000166246983
 31
0.0
  0
LINE
  5
1430
330
105C
100
AcDbEntity
  8
0
100
AcDbLine
 10
17.59997687625718
 20
346.0000209395134
 30
0.0
 11
16.59999733459384
 21
347.0000003968848
 31
0.0
  0
LINE
  5
1431
330
105C
100
AcDbEntity
  8
0
100
AcDbLine
 10
15.59999999999999
 20
348.9
 30
0.0
 11
15.59999999999999
 21
339.1
 31
0.0
  0
ARC
  5
1432
330
105C
100
AcDbEntity
  8
0
100
AcDbCircle
 10
8.321314873352008
 20
346.5
 30
0.0
 40
7.220950126647949
100
AcDbArc
 50
339.7444458007815
 51
20.25555419921851
  0
ARC
  5
1433
330
105C
100
AcDbEntity
  8
0
100
AcDbCircle
 10
8.321314873352008
 20
341.5
 30
0.0
 40
7.220950126647949
100
AcDbArc
 50
339.7444458007815
 51
20.25555419921851
  0
LINE
  5
1434
330
105C
100
AcDbEntity
  8
0
100
AcDbLine
 10
12.0
 20
339.0
 30
0.0
 11
15.54226499999998
 21
339.0
 31
0.0
  0
LINE
  5
1435
330
105C
100
AcDbEntity
  8
0
100
AcDbLine
 10
15.54226499999998
 20
339.0
 30
0.0
 11
15.59999999999999
 21
339.1
 31
0.0
  0
LINE
  5
1436
330
105C
100
AcDbEntity
  8
0
100
AcDbLine
 10
12.0
 20
344.0
 30
0.0
 11
15.09568477499999
 21
344.0
 31
0.0
  0
LINE
  5
1437
330
105C
100
AcDbEntity
  8
0
100
AcDbLine
 10
12.0
 20
348.9999999999999
 30
0.0
 11
15.54226499999998
 21
349.0
 31
0.0
  0
LINE
  5
1438
330
105C
100
AcDbEntity
  8
0
100
AcDbLine
 10
15.54226499999998
 20
349.0
 30
0.0
 11
15.59999999999999
 21
348.9
 31
0.0
  0
LINE
  5
1439
330
105C
100
AcDbEntity
  8
0
100
AcDbLine
 10
-13.067384513177
 20
337.229716587491
 30
0.0
 11
-12.9125047838066
 21
339.0
 31
0.0
  0
LINE
  5
143A
330
105C
100
AcDbEntity
  8
0
100
AcDbLine
 10
13.06468357193773
 20
337.2626813923035
 30
0.0
 11
12.91268788927535
 21
339.0
 31
0.0
  0
ENDSEC
  0
SECTION
  2
OBJECTS
  0
DICTIONARY
  5
FFD
330
0
100
AcDbDictionary
281
     1
  3
ACAD_2007HEADERVARS_RT
350
1652
  3
ACAD_CIP_PREVIOUS_PRODUCT_INFO
350
11C9
  3
ACAD_COLOR
350
1053
  3
ACAD_GROUP
350
FFE
  3
ACAD_LAYOUT
350
1052
  3
ACAD_MATERIAL
350
1001
  3
ACAD_MLEADERSTYLE
350
1056
  3
ACAD_MLINESTYLE
350
104F
  3
ACAD_PLOTSETTINGS
350
1051
  3
ACAD_PLOTSTYLENAME
350
FFF
  3
ACAD_SCALELIST
350
1033
  3
ACAD_TABLESTYLE
350
1054
  3
ACAD_VISUALSTYLE
350
101A
  3
ACDB_RECOMPOSE_DATA
350
1651
  3
AcDbVariableDictionary
350
1269
  3
AcmDictionary
350
11EF
  3
AEC_PROPERTY_SET_DEFS
350
1413
  3
AMG
350
11CA
  3
AMGSNAPSETTINGS
350
1221
  0
DICTIONARY
  5
122E
330
FF9
100
AcDbDictionary
280
     1
281
     1
  0
DICTIONARY
  5
155F
330
FF3
100
AcDbDictionary
280
     1
281
     1
  3
ACAD_LAYERSTATES
360
1560
  0
DICTIONARY
  5
1228
330
1045
100
AcDbDictionary
280
     1
281
     1
  3
ADSK_XREC_LAYER_RECONCILED
360
1229
  0
DICTIONARY
  5
12F8
330
105C
100
AcDbDictionary
280
     1
281
     1
  3
ACAD_SORTENTS
360
12F9
  0
DICTIONARY
  5
1652
102
{ACAD_REACTORS
330
FFD
102
}
330
FFD
100
AcDbDictionary
281
     1
  3
DIMARCSYM
350
1653
  3
DIMLTEX1
350
1655
  3
DIMLTEX2
350
1656
  3
DIMLTYPE
350
1654
  0
XRECORD
  5
11C9
102
{ACAD_REACTORS
330
FFD
102
}
330
FFD
100
AcDbXrecord
280
     1
300
AMECH_PP
300
2012
300
PDSU_F_S
  0
DICTIONARY
  5
1053
102
{ACAD_REACTORS
330
FFD
102
}
330
FFD
100
AcDbDictionary
281
     1
  0
DICTIONARY
  5
FFE
102
{ACAD_REACTORS
330
FFD
102
}
330
FFD
100
AcDbDictionary
281
     1
  0
DICTIONARY
  5
1052
102
{ACAD_REACTORS
330
FFD
102
}
330
FFD
100
AcDbDictionary
281
     1
  3
Model
350
105F
  3
レイアウト1
350
105B
  0
DICTIONARY
  5
1001
102
{ACAD_REACTORS
330
FFD
102
}
330
FFD
100
AcDbDictionary
281
     1
  3
ByBlock
350
100A
  3
ByLayer
350
1002
  3
Global
350
1012
  0
DICTIONARY
  5
1056
102
{ACAD_REACTORS
330
FFD
102
}
330
FFD
100
AcDbDictionary
281
     1
  3
Standard
350
1057
  0
DICTIONARY
  5
104F
102
{ACAD_REACTORS
330
FFD
102
}
330
FFD
100
AcDbDictionary
281
     1
  3
Standard
350
1050
  0
DICTIONARY
  5
1051
102
{ACAD_REACTORS
330
FFD
102
}
330
FFD
100
AcDbDictionary
281
     1
  0
ACDBDICTIONARYWDFLT
  5
FFF
102
{ACAD_REACTORS
330
FFD
102
}
330
FFD
100
AcDbDictionary
281
     1
  3
Normal
350
1000
100
AcDbDictionaryWithDefault
340
1000
  0
DICTIONARY
  5
1033
102
{ACAD_REACTORS
330
FFD
102
}
330
FFD
100
AcDbDictionary
281
     1
  3
A0
350
1034
  3
A1
350
1035
  3
A2
350
1036
  3
A3
350
1037
  3
A4
350
1038
  3
A5
350
1039
  3
A6
350
103A
  3
A7
350
103B
  3
A8
350
103C
  3
A9
350
103D
  3
B0
350
103E
  3
B1
350
103F
  3
B2
350
1040
  3
B3
350
1041
  3
B4
350
1042
  3
B5
350
1043
  3
B6
350
1044
  0
DICTIONARY
  5
1054
102
{ACAD_REACTORS
330
FFD
102
}
330
FFD
100
AcDbDictionary
281
     1
  3
Standard
350
1055
  0
DICTIONARY
  5
101A
102
{ACAD_REACTORS
330
FFD
102
}
330
FFD
100
AcDbDictionary
281
     1
  3
2dWireframe
350
1020
  3
3D Hidden
350
1558
  3
3dWireframe
350
1557
  3
Basic
350
101F
  3
Brighten
350
1026
  3
ColorChange
350
102A
  3
Conceptual
350
1023
  3
Dim
350
1025
  3
EdgeColorOff
350
1032
  3
Facepattern
350
1029
  3
Flat
350
101B
  3
FlatWithEdges
350
101C
  3
Gouraud
350
101D
  3
GouraudWithEdges
350
101E
  3
Hidden
350
1022
  3
JitterOff
350
1030
  3
Linepattern
350
1028
  3
OverhangOff
350
1031
  3
Realistic
350
1024
  3
Shaded
350
102F
  3
Shaded with edges
350
102E
  3
Shades of Gray
350
102B
  3
Sketchy
350
102C
  3
Thicken
350
1027
  3
Wireframe
350
1021
  3
X-Ray
350
102D
  0
XRECORD
  5
1651
102
{ACAD_REACTORS
330
FFD
102
}
330
FFD
100
AcDbXrecord
280
     1
 90
        1
330
1055
  0
DICTIONARY
  5
1269
102
{ACAD_REACTORS
330
FFD
102
}
330
FFD
100
AcDbDictionary
281
     1
  3
CANNOSCALE
350
126C
  3
CMLEADERSTYLE
350
126B
  3
CTABLESTYLE
350
126A
  3
DIMASSOC
350
126F
  3
INDEXCTL
350
126E
  3
LAYEREVAL
350
1569
  3
LAYERNOTIFY
350
156A
  3
LIGHTINGUNITS
350
1568
  3
MSLTSCALE
350
1567
  3
SOLIDHIST
350
15E4
  3
SORTENTS
350
126D
  3
XCLIPFRAME
350
164F
  0
DICTIONARY
  5
11EF
102
{ACAD_REACTORS
330
FFD
102
}
330
FFD
100
AcDbDictionary
281
     1
  3
AcmStdDictionary
350
11F8
  0
DICTIONARY
  5
1413
102
{ACAD_REACTORS
330
FFD
102
}
330
FFD
100
AcDbDictionary
281
     1
  0
DICTIONARY
  5
11CA
102
{ACAD_REACTORS
330
FFD
102
}
330
FFD
100
AcDbDictionary
281
     1
  0
DICTIONARY
  5
1221
102
{ACAD_REACTORS
330
FFD
102
}
330
FFD
100
AcDbDictionary
281
     1
  0
DICTIONARY
  5
1560
102
{ACAD_REACTORS
330
155F
102
}
330
155F
100
AcDbDictionary
281
     1
  0
XRECORD
  5
1229
102
{ACAD_REACTORS
330
1228
102
}
330
1228
100
AcDbXrecord
280
     1
290
     1
  0
SORTENTSTABLE
  5
12F9
102
{ACAD_REACTORS
330
12F8
102
}
330
12F8
100
AcDbSortentsTable
330
105C
331
130D
  5
1312
331
1309
  5
1310
331
5C7
  5
5CB
331
AD7
  5
ADF
331
5C3
  5
5C6
331
1340
  5
1343
331
1301
  5
1306
331
5BF
  5
5C2
331
97E
  5
992
331
ACF
  5
ADA
331
32F
  5
32F
331
9BD
  5
9C8
331
5BB
  5
5BF
331
97A
  5
97E
331
B0A
  5
12E9
331
32B
  5
32B
331
9B9
  5
9BE
331
43F
  5
444
331
327
  5
327
331
43B
  5
43E
331
323
  5
323
331
39D
  5
39D
331
3FC
  5
3FE
331
362
  5
362
331
437
  5
43C
331
501
  5
50F
331
476
  5
479
331
399
  5
399
331
433
  5
436
331
56C
  5
56F
331
472
  5
475
331
568
  5
56B
331
2B8
  5
2B8
331
12FD
  5
1303
331
29C
  5
29C
331
1334
  5
1337
331
12F5
  5
12FB
331
972
  5
977
331
B06
  5
B0B
331
9B5
  5
9B9
331
B02
  5
B08
331
95E
  5
972
331
5AB
  5
5B2
331
AFE
  5
B03
331
31F
  5
31F
331
9AD
  5
9B2
331
95A
  5
95E
331
A43
  5
AD0
331
AFA
  5
AFF
331
35A
  5
35A
331
31B
  5
31B
331
395
  5
395
331
3F4
  5
3F5
331
9A9
  5
9AD
331
9E8
  5
9EF
331
42F
  5
434
331
46E
  5
471
331
391
  5
391
331
3F0
  5
3F2
331
46A
  5
46E
331
4F5
  5
4FE
331
564
  5
567
331
1423
  5
1423
331
352
  5
352
331
313
  5
313
331
3EC
  5
3ED
331
466
  5
469
331
560
  5
563
331
389
  5
389
331
3E8
  5
3E9
331
55C
  5
55F
331
462
  5
465
331
4E9
  5
4EC
331
288
  5
288
331
284
  5
284
331
23D
  5
23D
331
280
  5
280
331
1328
  5
132E
331
239
  5
239
331
956
  5
95A
331
A3F
  5
A44
331
AF6
  5
AFD
331
9A5
  5
9A9
331
9E4
  5
9E9
331
58F
  5
5A9
331
A3B
  5
A40
331
AF2
  5
AF8
331
9A1
  5
9A5
331
9E0
  5
9E5
331
5DE
  5
957
331
141F
  5
141F
331
5DA
  5
5DD
331
A37
  5
A3C
331
AEE
  5
AF6
331
34E
  5
34E
331
99D
  5
9A1
331
9DC
  5
9E1
331
A33
  5
A38
331
AEA
  5
AF2
331
34A
  5
34A
331
385
  5
385
331
9D8
  5
9DD
331
41F
  5
42C
331
45E
  5
462
331
346
  5
346
331
41B
  5
41E
331
53C
  5
55B
331
45A
  5
45D
331
342
  5
342
331
2E3
  5
2E3
331
37D
  5
37D
331
3DC
  5
3DD
331
417
  5
418
331
456
  5
459
331
379
  5
379
331
452
  5
455
331
4B1
  5
4E8
331
530
  5
53D
331
235
  5
235
331
231
  5
231
331
131C
  5
1329
331
1318
  5
1327
331
5D6
  5
5D9
331
583
  5
58C
331
A2F
  5
A34
331
AE6
  5
AED
331
9D4
  5
9D9
331
5D2
  5
5D5
331
1310
  5
1318
331
577
  5
582
331
A2B
  5
A30
331
AE2
  5
AE8
331
9D0
  5
9D4
331
5CE
  5
5D1
331
573
  5
576
331
33E
  5
33E
331
98D
  5
993
331
9CC
  5
9D0
331
A23
  5
A2C
331
ADA
  5
AE3
331
9C8
  5
9CC
331
33A
  5
33A
331
2DB
  5
2DB
331
40F
  5
410
331
44E
  5
451
331
1357
  5
1401
331
336
  5
336
331
371
  5
371
331
3B8
  5
3B9
331
40B
  5
40C
331
44A
  5
44D
331
332
  5
332
331
3B4
  5
3B7
331
407
  5
408
331
510
  5
53C
331
446
  5
44B
331
369
  5
369
331
3B0
  5
3B1
331
403
  5
405
331
47D
  5
4AE
331
442
  5
445
331
479
  5
47C
331
26C
  5
26C
331
2CB
  5
2CB
331
1308
  5
130F
331
260
  5
260
331
5C6
  5
5C9
331
1304
  5
130A
331
9C4
  5
9CB
331
5C2
  5
5C5
331
1300
  5
1305
331
5BE
  5
5C1
331
97D
  5
990
331
ACE
  5
AD8
331
32E
  5
32E
331
9BC
  5
9C4
331
5BA
  5
5BE
331
979
  5
97D
331
B09
  5
12E6
331
32A
  5
32A
331
9B8
  5
9BD
331
43E
  5
443
331
326
  5
326
331
43A
  5
43D
331
322
  5
322
331
361
  5
361
331
436
  5
43B
331
56F
  5
572
331
475
  5
478
331
398
  5
398
331
432
  5
435
331
4FC
  5
501
331
56B
  5
56E
331
471
  5
474
331
133F
  5
1342
331
12FC
  5
1302
331
29B
  5
29B
331
1333
  5
1336
331
B05
  5
B0A
331
9B4
  5
9B8
331
5B2
  5
5BB
331
971
  5
974
331
A7A
  5
AD4
331
B01
  5
B07
331
9B0
  5
9B5
331
9EF
  5
A25
331
AFD
  5
B02
331
3F7
  5
3FC
331
31E
  5
31E
331
9AC
  5
9B0
331
5AA
  5
5AD
331
A42
  5
ACF
331
AF9
  5
AFE
331
359
  5
359
331
3F3
  5
3F4
331
31A
  5
31A
331
9A8
  5
9AC
331
42E
  5
433
331
567
  5
56A
331
46D
  5
470
331
3EF
  5
3F0
331
563
  5
566
331
469
  5
46D
331
1422
  5
1422
331
351
  5
351
331
38C
  5
38C
331
312
  5
312
331
465
  5
468
331
55F
  5
562
331
388
  5
388
331
4EC
  5
4FC
331
55B
  5
55E
331
461
  5
464
331
4E8
  5
4EB
331
132F
  5
1333
331
287
  5
287
331
283
  5
283
331
132B
  5
97A
331
23C
  5
23C
331
12E8
  5
12F6
331
1327
  5
132B
331
238
  5
238
331
9E7
  5
9EE
331
955
  5
958
331
A3E
  5
A43
331
AF5
  5
AFC
331
9A4
  5
9A8
331
9E3
  5
9E8
331
A3A
  5
A3F
331
9A0
  5
9A4
331
9DF
  5
9E4
331
58E
  5
595
331
5DD
  5
956
331
141E
  5
141E
331
A36
  5
A3B
331
AED
  5
AF5
331
34D
  5
34D
331
3E7
  5
3E8
331
306
  5
306
331
99C
  5
9A0
331
9DB
  5
9E0
331
5D9
  5
5DC
331
A32
  5
A37
331
384
  5
384
331
349
  5
349
331
41E
  5
421
331
45D
  5
461
331
3DF
  5
3E5
331
345
  5
345
331
41A
  5
41D
331
459
  5
45C
331
341
  5
341
331
37C
  5
37C
331
3DB
  5
3DC
331
2E2
  5
2E2
331
416
  5
417
331
455
  5
458
331
378
  5
378
331
412
  5
414
331
451
  5
454
331
4B0
  5
4E7
331
27B
  5
27B
331
234
  5
234
331
230
  5
230
331
277
  5
277
331
1317
  5
1326
331
9D7
  5
9DC
331
5D5
  5
5D8
331
A2E
  5
A33
331
9D3
  5
9D8
331
582
  5
585
331
5D1
  5
5D4
331
A2A
  5
A2F
331
990
  5
99B
331
9CF
  5
9D3
331
576
  5
581
331
5CD
  5
5D0
331
33D
  5
33D
331
9CB
  5
9CF
331
572
  5
575
331
5C9
  5
5CD
331
3BB
  5
3DA
331
339
  5
339
331
40E
  5
40F
331
44D
  5
450
331
1356
  5
1400
331
370
  5
370
331
3B7
  5
3B8
331
335
  5
335
331
40A
  5
40B
331
4AC
  5
4B0
331
36C
  5
36C
331
331
  5
331
331
445
  5
44A
331
50F
  5
531
331
368
  5
368
331
402
  5
403
331
47C
  5
4AC
331
478
  5
47B
331
130F
  5
1317
331
267
  5
267
331
1307
  5
130E
331
5C5
  5
5C8
331
1303
  5
1309
331
5C1
  5
5C4
331
AD5
  5
ADC
331
9C3
  5
9CA
331
5BD
  5
5C0
331
97C
  5
98E
331
5B9
  5
5BD
331
B0C
  5
12F4
331
32D
  5
32D
331
3AF
  5
3B0
331
9BB
  5
9C3
331
978
  5
97C
331
B08
  5
12E5
331
329
  5
329
331
3AB
  5
3AB
331
43D
  5
442
331
364
  5
364
331
325
  5
325
331
3FE
  5
400
331
321
  5
321
331
39B
  5
39B
331
360
  5
360
331
435
  5
43A
331
4FF
  5
50E
331
56E
  5
571
331
474
  5
477
331
470
  5
473
331
56A
  5
56D
331
12FF
  5
1304
331
133E
  5
1341
331
12F7
  5
12FE
331
974
  5
979
331
9B7
  5
9BC
331
1332
  5
1335
331
12F3
  5
12F7
331
9B3
  5
9B7
331
5AD
  5
5BA
331
B00
  5
B06
331
9AF
  5
9B4
331
9EE
  5
A23
331
95C
  5
971
331
5A9
  5
5AC
331
AFC
  5
B01
331
35C
  5
35C
331
397
  5
397
331
3F6
  5
3F7
331
31D
  5
31D
331
9AB
  5
9AF
331
9EA
  5
A1D
331
958
  5
95C
331
A41
  5
ACE
331
358
  5
358
331
3F2
  5
3F3
331
42D
  5
432
331
566
  5
569
331
3EE
  5
3EF
331
354
  5
354
331
468
  5
46B
331
562
  5
565
331
1421
  5
1421
331
350
  5
350
331
311
  5
311
331
3EA
  5
3EC
331
464
  5
467
331
55E
  5
561
331
421
  5
42E
331
4EB
  5
4F6
331
55A
  5
55D
331
460
  5
463
331
24B
  5
24B
331
132E
  5
1332
331
286
  5
286
331
282
  5
282
331
132A
  5
1331
331
23B
  5
23B
331
1326
  5
132A
331
12E7
  5
12F5
331
595
  5
5AB
331
9A7
  5
9AB
331
9E6
  5
9ED
331
A3D
  5
A42
331
AF4
  5
AFB
331
9A3
  5
9A7
331
9E2
  5
9E7
331
5DC
  5
955
331
A39
  5
A3E
331
99F
  5
9A3
331
9DE
  5
9E3
331
5D8
  5
5DB
331
A35
  5
A3A
331
99B
  5
99F
331
9DA
  5
9DF
331
34C
  5
34C
331
3E6
  5
3E7
331
1419
  5
1419
331
A31
  5
A36
331
AE8
  5
AEF
331
348
  5
348
331
41D
  5
420
331
4E7
  5
4EA
331
45C
  5
460
331
344
  5
344
331
37F
  5
37F
331
3DE
  5
3DF
331
419
  5
41C
331
458
  5
45B
331
340
  5
340
331
2E1
  5
2E1
331
37B
  5
37B
331
3DA
  5
3DB
331
415
  5
416
331
454
  5
457
331
411
  5
412
331
4B3
  5
4E9
331
450
  5
453
331
237
  5
237
331
27A
  5
27A
331
233
  5
233
331
22F
  5
22F
331
276
  5
276
331
1316
  5
131C
331
585
  5
58F
331
9D6
  5
9DB
331
5D4
  5
5D7
331
1312
  5
131A
331
581
  5
584
331
A2D
  5
A32
331
AE4
  5
AEB
331
993
  5
99D
331
9D2
  5
9D7
331
5D0
  5
5D3
331
575
  5
580
331
A29
  5
A2E
331
9CE
  5
9D2
331
5CC
  5
5CF
331
571
  5
574
331
A25
  5
A2D
331
ADC
  5
AE5
331
33C
  5
33C
331
377
  5
377
331
9CA
  5
9CE
331
5C8
  5
5CC
331
A21
  5
A2B
331
AD8
  5
AE2
331
338
  5
338
331
3BA
  5
3BB
331
40D
  5
40E
331
4AF
  5
4B3
331
44C
  5
44F
331
334
  5
334
331
36F
  5
36F
331
409
  5
40A
331
330
  5
330
331
2D1
  5
2D1
331
36B
  5
36B
331
3B2
  5
3B4
331
405
  5
407
331
50E
  5
530
331
444
  5
447
331
401
  5
402
331
47B
  5
4AA
331
26E
  5
26E
331
130E
  5
1316
331
266
  5
266
331
130A
  5
9D6
331
1306
  5
130D
331
5C4
  5
5C7
331
1341
  5
1345
331
1302
  5
1308
331
5C0
  5
5C3
331
97B
  5
98D
331
AD0
  5
ADB
331
9BE
  5
9C9
331
A1D
  5
A2A
331
B0B
  5
12F1
331
32C
  5
32C
331
3AE
  5
3AF
331
367
  5
367
331
328
  5
328
331
43C
  5
43F
331
363
  5
363
331
324
  5
324
331
477
  5
47A
331
320
  5
320
331
39A
  5
39A
331
434
  5
437
331
4FE
  5
50D
331
56D
  5
570
331
473
  5
476
331
569
  5
56C
331
25E
  5
25E
331
133D
  5
1340
331
12FA
  5
1301
331
252
  5
252
331
977
  5
97B
331
12F6
  5
12FD
331
973
  5
978
331
B07
  5
B0C
331
9B6
  5
9BB
331
1331
  5
1334
331
95F
  5
973
331
9B2
  5
9B6
331
9F9
  5
A29
331
5AC
  5
5B9
331
AFF
  5
B04
331
35F
  5
35F
331
9AE
  5
9B3
331
9ED
  5
A21
331
95B
  5
95F
331
A44
  5
AD1
331
AFB
  5
B00
331
35B
  5
35B
331
31C
  5
31C
331
396
  5
396
331
3F5
  5
3F6
331
9AA
  5
9AE
331
9E9
  5
9F9
331
46F
  5
472
331
A40
  5
A7A
331
357
  5
357
331
318
  5
318
331
42C
  5
42F
331
4F6
  5
4FF
331
565
  5
568
331
46B
  5
46F
331
353
  5
353
331
314
  5
314
331
3ED
  5
3EE
331
467
  5
46A
331
561
  5
564
331
3E9
  5
3EA
331
55D
  5
560
331
463
  5
466
331
420
  5
42D
331
4EA
  5
4F5
331
24E
  5
24E
331
24A
  5
24A
331
285
  5
285
331
281
  5
281
331
1329
  5
132F
331
23A
  5
23A
331
957
  5
95B
331
12E6
  5
12FF
331
594
  5
5AA
331
9A6
  5
9AA
331
9E5
  5
9EA
331
A3C
  5
A41
331
9A2
  5
9A6
331
9E1
  5
9E6
331
58C
  5
594
331
A38
  5
A3D
331
AEF
  5
AF7
331
99E
  5
9A2
331
9DD
  5
9E2
331
5DB
  5
5DE
331
34F
  5
34F
331
141C
  5
141C
331
A34
  5
A39
331
AEB
  5
AF4
331
99A
  5
99E
331
9D9
  5
9DE
331
34B
  5
34B
331
386
  5
386
331
3E5
  5
3E6
331
1418
  5
1418
331
A30
  5
A35
331
347
  5
347
331
382
  5
382
331
41C
  5
41F
331
53D
  5
55C
331
45B
  5
45E
331
343
  5
343
331
2E4
  5
2E4
331
37E
  5
37E
331
3DD
  5
3DE
331
418
  5
419
331
457
  5
45A
331
2E0
  5
2E0
331
37A
  5
37A
331
414
  5
415
331
453
  5
456
331
410
  5
411
331
531
  5
55A
331
236
  5
236
331
232
  5
232
331
275
  5
275
331
5D7
  5
5DA
331
584
  5
58E
331
AE7
  5
AEE
331
9D5
  5
9DA
331
5D3
  5
5D6
331
580
  5
583
331
A2C
  5
A31
331
AE3
  5
AEA
331
992
  5
99C
331
9D1
  5
9D5
331
5CF
  5
5D2
331
574
  5
577
331
ADF
  5
AE6
331
33F
  5
33F
331
98E
  5
99A
331
9CD
  5
9D1
331
5CB
  5
5CE
331
570
  5
573
331
ADB
  5
AE4
331
9C9
  5
9CD
331
33B
  5
33B
331
44F
  5
452
331
1358
  5
1402
331
337
  5
337
331
372
  5
372
331
3B9
  5
3BA
331
40C
  5
40D
331
4AE
  5
4B1
331
44B
  5
44E
331
333
  5
333
331
408
  5
409
331
4AA
  5
4AF
331
447
  5
44C
331
36A
  5
36A
331
3B1
  5
3B2
331
443
  5
446
331
50D
  5
510
331
400
  5
401
331
47A
  5
47D
  0
XRECORD
  5
1653
102
{ACAD_REACTORS
330
1652
102
}
330
1652
100
AcDbXrecord
280
     1
 70
     1
  0
XRECORD
  5
1655
102
{ACAD_REACTORS
330
1652
102
}
330
1652
100
AcDbXrecord
280
     1
340
104B
  0
XRECORD
  5
1656
102
{ACAD_REACTORS
330
1652
102
}
330
1652
100
AcDbXrecord
280
     1
340
104B
  0
XRECORD
  5
1654
102
{ACAD_REACTORS
330
1652
102
}
330
1652
100
AcDbXrecord
280
     1
340
104B
  0
LAYOUT
  5
105F
102
{ACAD_XDICTIONARY
360
1565
102
}
102
{ACAD_REACTORS
330
1052
102
}
330
1052
100
AcDbPlotSettings
  1

  2
iR C4580
  4

  6

 40
0.0
 41
0.0
 42
0.0
 43
0.0
 44
0.0
 45
0.0
 46
0.0
 47
0.0
 48
0.0
 49
0.0
140
0.0
141
0.0
142
1.0
143
1.0
 70
  1712
 72
     0
 73
     0
 74
     0
  7

 75
     0
147
1.0
 76
     0
 77
     2
 78
   300
148
0.0
149
0.0
100
AcDbLayout
  1
Model
 70
     1
 71
     0
 10
0.0
 20
0.0
 11
12.0
 21
9.0
 12
0.0
 22
0.0
 32
0.0
 14
0.0
 24
0.0
 34
0.0
 15
0.0
 25
0.0
 35
0.0
146
0.0
 13
0.0
 23
0.0
 33
0.0
 16
1.0
 26
0.0
 36
0.0
 17
0.0
 27
1.0
 37
0.0
 76
     0
330
105C
331
1060
  0
LAYOUT
  5
105B
102
{ACAD_REACTORS
330
1052
102
}
330
1052
100
AcDbPlotSettings
  1

  2
iR C4580
  4

  6

 40
0.0
 41
0.0
 42
0.0
 43
0.0
 44
0.0
 45
0.0
 46
0.0
 47
0.0
 48
0.0
 49
0.0
140
0.0
141
0.0
142
1.0
143
1.0
 70
   688
 72
     0
 73
     0
 74
     5
  7

 75
    16
147
1.0
 76
     0
 77
     2
 78
   300
148
0.0
149
0.0
100
AcDbLayout
  1
レイアウト1
 70
     1
 71
     1
 10
-584.0
 20
0.0
 11
0.0
 21
588.9623999834062
 12
0.0
 22
0.0
 32
0.0
 14
1.000000000000000E+20
 24
1.000000000000000E+20
 34
1.000000000000000E+20
 15
-1.000000000000000E+20
 25
-1.000000000000000E+20
 35
-1.000000000000000E+20
146
0.0
 13
0.0
 23
0.0
 33
0.0
 16
1.0
 26
0.0
 36
0.0
 17
0.0
 27
1.0
 37
0.0
 76
     0
330
1058
  0
MATERIAL
  5
100A
102
{ACAD_XDICTIONARY
360
100B
102
}
102
{ACAD_REACTORS
330
1001
102
}
330
1001
100
AcDbMaterial
  1
ByBlock
 72
     0
 43
0.0208333333333333
 43
0.0
 43
0.0
 43
0.0
 43
0.0
 43
0.0208333333333333
 43
0.0
 43
0.0
 43
0.0
 43
0.0
 43
1.0
 43
0.0
 43
0.0
 43
0.0
 43
0.0
 43
1.0
 77
     0
 47
0.0208333333333333
 47
0.0
 47
0.0
 47
0.0
 47
0.0
 47
0.0208333333333333
 47
0.0
 47
0.0
 47
0.0
 47
0.0
 47
1.0
 47
0.0
 47
0.0
 47
0.0
 47
0.0
 47
1.0
171
     0
 49
0.0208333333333333
 49
0.0
 49
0.0
 49
0.0
 49
0.0
 49
0.0208333333333333
 49
0.0
 49
0.0
 49
0.0
 49
0.0
 49
1.0
 49
0.0
 49
0.0
 49
0.0
 49
0.0
 49
1.0
175
     0
142
0.0208333333333333
142
0.0
142
0.0
142
0.0
142
0.0
142
0.0208333333333333
142
0.0
142
0.0
142
0.0
142
0.0
142
1.0
142
0.0
142
0.0
142
0.0
142
0.0
142
1.0
179
     0
144
0.0208333333333333
144
0.0
144
0.0
144
0.0
144
0.0
144
0.0208333333333333
144
0.0
144
0.0
144
0.0
144
0.0
144
1.0
144
0.0
144
0.0
144
0.0
144
0.0
144
1.0
147
0.0208333333333333
147
0.0
147
0.0
147
0.0
147
0.0
147
0.0208333333333333
147
0.0
147
0.0
147
0.0
147
0.0
147
1.0
147
0.0
147
0.0
147
0.0
147
0.0
147
1.0
  0
MATERIAL
  5
1002
102
{ACAD_XDICTIONARY
360
1003
102
}
102
{ACAD_REACTORS
330
1001
102
}
330
1001
100
AcDbMaterial
  1
ByLayer
 72
     0
 43
0.0208333333333333
 43
0.0
 43
0.0
 43
0.0
 43
0.0
 43
0.0208333333333333
 43
0.0
 43
0.0
 43
0.0
 43
0.0
 43
1.0
 43
0.0
 43
0.0
 43
0.0
 43
0.0
 43
1.0
 77
     0
 47
0.0208333333333333
 47
0.0
 47
0.0
 47
0.0
 47
0.0
 47
0.0208333333333333
 47
0.0
 47
0.0
 47
0.0
 47
0.0
 47
1.0
 47
0.0
 47
0.0
 47
0.0
 47
0.0
 47
1.0
171
     0
 49
0.0208333333333333
 49
0.0
 49
0.0
 49
0.0
 49
0.0
 49
0.0208333333333333
 49
0.0
 49
0.0
 49
0.0
 49
0.0
 49
1.0
 49
0.0
 49
0.0
 49
0.0
 49
0.0
 49
1.0
175
     0
142
0.0208333333333333
142
0.0
142
0.0
142
0.0
142
0.0
142
0.0208333333333333
142
0.0
142
0.0
142
0.0
142
0.0
142
1.0
142
0.0
142
0.0
142
0.0
142
0.0
142
1.0
179
     0
144
0.0208333333333333
144
0.0
144
0.0
144
0.0
144
0.0
144
0.0208333333333333
144
0.0
144
0.0
144
0.0
144
0.0
144
1.0
144
0.0
144
0.0
144
0.0
144
0.0
144
1.0
147
0.0208333333333333
147
0.0
147
0.0
147
0.0
147
0.0
147
0.0208333333333333
147
0.0
147
0.0
147
0.0
147
0.0
147
1.0
147
0.0
147
0.0
147
0.0
147
0.0
147
1.0
  0
MATERIAL
  5
1012
102
{ACAD_XDICTIONARY
360
1013
102
}
102
{ACAD_REACTORS
330
1001
102
}
330
1001
100
AcDbMaterial
  1
Global
 72
     0
 43
0.0208333333333333
 43
0.0
 43
0.0
 43
0.0
 43
0.0
 43
0.0208333333333333
 43
0.0
 43
0.0
 43
0.0
 43
0.0
 43
1.0
 43
0.0
 43
0.0
 43
0.0
 43
0.0
 43
1.0
 77
     0
 47
0.0208333333333333
 47
0.0
 47
0.0
 47
0.0
 47
0.0
 47
0.0208333333333333
 47
0.0
 47
0.0
 47
0.0
 47
0.0
 47
1.0
 47
0.0
 47
0.0
 47
0.0
 47
0.0
 47
1.0
171
     0
 49
0.0208333333333333
 49
0.0
 49
0.0
 49
0.0
 49
0.0
 49
0.0208333333333333
 49
0.0
 49
0.0
 49
0.0
 49
0.0
 49
1.0
 49
0.0
 49
0.0
 49
0.0
 49
0.0
 49
1.0
175
     0
142
0.0208333333333333
142
0.0
142
0.0
142
0.0
142
0.0
142
0.0208333333333333
142
0.0
142
0.0
142
0.0
142
0.0
142
1.0
142
0.0
142
0.0
142
0.0
142
0.0
142
1.0
179
     0
144
0.0208333333333333
144
0.0
144
0.0
144
0.0
144
0.0
144
0.0208333333333333
144
0.0
144
0.0
144
0.0
144
0.0
144
1.0
144
0.0
144
0.0
144
0.0
144
0.0
144
1.0
147
0.0208333333333333
147
0.0
147
0.0
147
0.0
147
0.0
147
0.0208333333333333
147
0.0
147
0.0
147
0.0
147
0.0
147
1.0
147
0.0
147
0.0
147
0.0
147
0.0
147
1.0
  0
MLEADERSTYLE
  5
1057
102
{ACAD_REACTORS
330
1056
102
}
330
1056
100
AcDbMLeaderStyle
170
     2
171
     1
172
     0
 90
        2
 40
0.0
 41
0.0
173
     1
 91
-1056964608
340
104B
 92
       -2
290
     1
 42
0.09
291
     1
 43
0.36
  3
Standard
 44
0.18
300

342
1046
174
     1
178
     6
175
     1
176
     0
 93
-1056964608
 45
0.18
292
     0
297
     0
 46
0.18
 94
-1056964608
 47
1.0
 49
1.0
140
1.0
293
     1
141
0.0
294
     1
177
     0
142
1.0
295
     0
296
     0
143
0.125
1001
ACAD_MLEADERVER
1070
     2
  0
MLINESTYLE
  5
1050
102
{ACAD_REACTORS
330
104F
102
}
330
104F
100
AcDbMlineStyle
  2
STANDARD
 70
     0
  3

 62
   256
 51
90.0
 52
90.0
 71
     2
 49
0.5
 62
   256
  6
BYLAYER
 49
-0.5
 62
   256
  6
BYLAYER
  0
ACDBPLACEHOLDER
  5
1000
102
{ACAD_REACTORS
330
FFF
102
}
330
FFF
  0
SCALE
  5
1034
102
{ACAD_REACTORS
330
1033
102
}
330
1033
100
AcDbScale
 70
     0
300
1:1
140
1.0
141
1.0
290
     1
  0
SCALE
  5
1035
102
{ACAD_REACTORS
330
1033
102
}
330
1033
100
AcDbScale
 70
     0
300
1/128" = 1'-0"
140
0.0078125
141
12.0
290
     0
  0
SCALE
  5
1036
102
{ACAD_REACTORS
330
1033
102
}
330
1033
100
AcDbScale
 70
     0
300
1/64" = 1'-0"
140
0.015625
141
12.0
290
     0
  0
SCALE
  5
1037
102
{ACAD_REACTORS
330
1033
102
}
330
1033
100
AcDbScale
 70
     0
300
1/32" = 1'-0"
140
0.03125
141
12.0
290
     0
  0
SCALE
  5
1038
102
{ACAD_REACTORS
330
1033
102
}
330
1033
100
AcDbScale
 70
     0
300
1/16" = 1'-0"
140
0.0625
141
12.0
290
     0
  0
SCALE
  5
1039
102
{ACAD_REACTORS
330
1033
102
}
330
1033
100
AcDbScale
 70
     0
300
3/32" = 1'-0"
140
0.09375
141
12.0
290
     0
  0
SCALE
  5
103A
102
{ACAD_REACTORS
330
1033
102
}
330
1033
100
AcDbScale
 70
     0
300
1/8" = 1'-0"
140
0.125
141
12.0
290
     0
  0
SCALE
  5
103B
102
{ACAD_REACTORS
330
1033
102
}
330
1033
100
AcDbScale
 70
     0
300
3/16" = 1'-0"
140
0.1875
141
12.0
290
     0
  0
SCALE
  5
103C
102
{ACAD_REACTORS
330
1033
102
}
330
1033
100
AcDbScale
 70
     0
300
1/4" = 1'-0"
140
0.25
141
12.0
290
     0
  0
SCALE
  5
103D
102
{ACAD_REACTORS
330
1033
102
}
330
1033
100
AcDbScale
 70
     0
300
3/8" = 1'-0"
140
0.375
141
12.0
290
     0
  0
SCALE
  5
103E
102
{ACAD_REACTORS
330
1033
102
}
330
1033
100
AcDbScale
 70
     0
300
1/2" = 1'-0"
140
0.5
141
12.0
290
     0
  0
SCALE
  5
103F
102
{ACAD_REACTORS
330
1033
102
}
330
1033
100
AcDbScale
 70
     0
300
3/4" = 1'-0"
140
0.75
141
12.0
290
     0
  0
SCALE
  5
1040
102
{ACAD_REACTORS
330
1033
102
}
330
1033
100
AcDbScale
 70
     0
300
1" = 1'-0"
140
1.0
141
12.0
290
     0
  0
SCALE
  5
1041
102
{ACAD_REACTORS
330
1033
102
}
330
1033
100
AcDbScale
 70
     0
300
1-1/2" = 1'-0"
140
1.5
141
12.0
290
     0
  0
SCALE
  5
1042
102
{ACAD_REACTORS
330
1033
102
}
330
1033
100
AcDbScale
 70
     0
300
3" = 1'-0"
140
3.0
141
12.0
290
     0
  0
SCALE
  5
1043
102
{ACAD_REACTORS
330
1033
102
}
330
1033
100
AcDbScale
 70
     0
300
6" = 1'-0"
140
6.0
141
12.0
290
     0
  0
SCALE
  5
1044
102
{ACAD_REACTORS
330
1033
102
}
330
1033
100
AcDbScale
 70
     0
300
1'-0" = 1'-0"
140
12.0
141
12.0
290
     0
  0
TABLESTYLE
  5
1055
102
{ACAD_XDICTIONARY
360
122A
102
}
102
{ACAD_REACTORS
330
1054
102
}
330
1054
100
AcDbTableStyle
  3
Standard
 70
     0
 71
     0
 40
0.06
 41
0.06
280
     0
281
     0
  7
STANDARD
140
0.18
170
     2
 62
     0
 63
     7
283
     0
274
    -2
284
     1
 64
     0
275
    -2
285
     1
 65
     0
276
    -2
286
     1
 66
     0
277
    -2
287
     1
 67
     0
278
    -2
288
     1
 68
     0
279
    -2
289
     1
 69
     0
  7
STANDARD
140
0.25
170
     5
 62
     0
 63
     7
283
     0
274
    -2
284
     1
 64
     0
275
    -2
285
     1
 65
     0
276
    -2
286
     1
 66
     0
277
    -2
287
     1
 67
     0
278
    -2
288
     1
 68
     0
279
    -2
289
     1
 69
     0
  7
STANDARD
140
0.18
170
     5
 62
     0
 63
     7
283
     0
274
    -2
284
     1
 64
     0
275
    -2
285
     1
 65
     0
276
    -2
286
     1
 66
     0
277
    -2
287
     1
 67
     0
278
    -2
288
     1
 68
     0
279
    -2
289
     1
 69
     0
  0
VISUALSTYLE
  5
1020
102
{ACAD_XDICTIONARY
360
1601
102
}
102
{ACAD_REACTORS
330
101A
102
}
330
101A
100
AcDbVisualStyle
  2
2dWireframe
 70
     4
 71
     0
 72
     2
 73
     0
 90
        0
 40
-0.6
 41
-30.0
 62
     5
 63
     7
 74
     1
 91
        4
 64
     7
 65
   257
 75
     1
175
     1
 42
1.0
 92
        0
 66
   257
 43
1.0
 76
     1
 77
     6
 78
     2
 67
     7
 79
     5
170
     0
171
     0
290
     0
174
     0
 93
        1
 44
0.0
173
     0
291
     0
 45
0.0
1001
ACAD
1000
AcDbSavedByObjectVersion
1070
     0
  0
VISUALSTYLE
  5
1558
102
{ACAD_XDICTIONARY
360
162D
102
}
102
{ACAD_REACTORS
330
101A
102
}
330
101A
100
AcDbVisualStyle
  2
3D Hidden
 70
     6
 71
     1
 72
     2
 73
     2
 90
        0
 40
-0.6
 41
-30.0
 62
     5
 63
     7
 74
     2
 91
        2
 64
     7
 65
   257
 75
     2
175
     1
 42
179.0
 92
        0
 66
   257
 43
1.0
 76
     1
 77
     6
 78
     2
 67
     7
 79
     3
170
     0
171
     0
290
     0
174
     0
 93
        1
 44
0.0
173
     0
291
     0
 45
0.0
1001
ACAD
1000
AcDbSavedByObjectVersion
1070
     0
  0
VISUALSTYLE
  5
1557
102
{ACAD_XDICTIONARY
360
162B
102
}
102
{ACAD_REACTORS
330
101A
102
}
330
101A
100
AcDbVisualStyle
  2
3dWireframe
 70
     5
 71
     0
 72
     2
 73
     0
 90
        0
 40
-0.6
 41
-30.0
 62
     5
 63
     7
 74
     1
 91
        4
 64
     7
 65
   257
 75
     1
175
     1
 42
1.0
 92
        0
 66
   257
 43
1.0
 76
     1
 77
     6
 78
     2
 67
     7
 79
     5
170
     0
171
     0
290
     0
174
     0
 93
        1
 44
0.0
173
     0
291
     0
 45
0.0
1001
ACAD
1000
AcDbSavedByObjectVersion
1070
     0
  0
VISUALSTYLE
  5
101F
102
{ACAD_XDICTIONARY
360
15FF
102
}
102
{ACAD_REACTORS
330
101A
102
}
330
101A
100
AcDbVisualStyle
  2
Basic
 70
     7
 71
     1
 72
     0
 73
     1
 90
        0
 40
-0.6
 41
-30.0
 62
     5
 63
     7
 74
     0
 91
        4
 64
     7
 65
   257
 75
     1
175
     1
 42
1.0
 92
        8
 66
     7
 43
1.0
 76
     1
 77
     6
 78
     2
 67
     7
 79
     5
170
     0
171
     0
290
     0
174
     0
 93
        1
 44
0.0
173
     0
291
     1
 45
0.0
1001
ACAD
1000
AcDbSavedByObjectVersion
1070
     0
  0
VISUALSTYLE
  5
1026
102
{ACAD_XDICTIONARY
360
160D
102
}
102
{ACAD_REACTORS
330
101A
102
}
330
101A
100
AcDbVisualStyle
  2
Brighten
 70
    12
 71
     2
 72
     2
 73
     0
 90
        0
 40
-0.6
 41
-30.0
 62
     5
 63
     7
 74
     1
 91
        4
 64
     7
 65
   257
 75
     1
175
     1
 42
1.0
 92
        8
 66
     7
 43
1.0
 76
     1
 77
     6
 78
     2
 67
     7
 79
     5
170
     0
171
     0
290
     0
174
     0
 93
        1
 44
50.0
173
     0
291
     1
 45
0.0
1001
ACAD
1000
AcDbSavedByObjectVersion
1070
     0
  0
VISUALSTYLE
  5
102A
102
{ACAD_XDICTIONARY
360
1615
102
}
102
{ACAD_REACTORS
330
101A
102
}
330
101A
100
AcDbVisualStyle
  2
ColorChange
 70
    16
 71
     2
 72
     2
 73
     3
 90
        0
 40
-0.6
 41
-30.0
 62
     5
 63
     8
 74
     1
 91
        4
 64
     7
 65
   257
 75
     1
175
     1
 42
1.0
 92
        8
 66
     8
 43
1.0
 76
     1
 77
     6
 78
     2
 67
     7
 79
     5
170
     0
171
     0
290
     0
174
     0
 93
        1
 44
0.0
173
     0
291
     1
 45
0.0
1001
ACAD
1000
AcDbSavedByObjectVersion
1070
     0
  0
VISUALSTYLE
  5
1023
102
{ACAD_XDICTIONARY
360
1607
102
}
102
{ACAD_REACTORS
330
101A
102
}
330
101A
100
AcDbVisualStyle
  2
Conceptual
 70
     9
 71
     3
 72
     2
 73
     0
 90
        0
 40
-0.6
 41
-30.0
 62
     5
 63
     7
 74
     2
 91
        2
 64
     7
 65
   257
 75
     1
175
     1
 42
179.0
 92
        8
 66
     7
 43
1.0
 76
     1
 77
     6
 78
     2
 67
     7
 79
     3
170
     0
171
     0
290
     0
174
     0
 93
        1
 44
0.0
173
     0
291
     0
 45
0.0
1001
ACAD
1000
AcDbSavedByObjectVersion
1070
     0
  0
VISUALSTYLE
  5
1025
102
{ACAD_XDICTIONARY
360
160B
102
}
102
{ACAD_REACTORS
330
101A
102
}
330
101A
100
AcDbVisualStyle
  2
Dim
 70
    11
 71
     2
 72
     2
 73
     0
 90
        0
 40
-0.6
 41
-30.0
 62
     5
 63
     7
 74
     1
 91
        4
 64
     7
 65
   257
 75
     1
175
     1
 42
1.0
 92
        8
 66
     7
 43
1.0
 76
     1
 77
     6
 78
     2
 67
     7
 79
     5
170
     0
171
     0
290
     0
174
     0
 93
        1
 44
-50.0
173
     0
291
     1
 45
0.0
1001
ACAD
1000
AcDbSavedByObjectVersion
1070
     0
  0
VISUALSTYLE
  5
1032
102
{ACAD_XDICTIONARY
360
1625
102
}
102
{ACAD_REACTORS
330
101A
102
}
330
101A
100
AcDbVisualStyle
  2
EdgeColorOff
 70
    22
 71
     2
 72
     2
 73
     0
 90
        0
 40
-0.6
 41
-30.0
 62
     5
 63
     7
 74
     1
 91
        4
 64
     7
 65
   257
 75
     1
175
     1
 42
1.0
 92
        8
 66
     7
 43
1.0
 76
     1
 77
     6
 78
     2
 67
     7
 79
     5
170
     0
171
     0
290
     0
174
     0
 93
        1
 44
0.0
173
     0
291
     1
 45
0.0
1001
ACAD
1000
AcDbSavedByObjectVersion
1070
     0
  0
VISUALSTYLE
  5
1029
102
{ACAD_XDICTIONARY
360
1613
102
}
102
{ACAD_REACTORS
330
101A
102
}
330
101A
100
AcDbVisualStyle
  2
Facepattern
 70
    15
 71
     2
 72
     2
 73
     0
 90
        0
 40
-0.6
 41
-30.0
 62
     5
 63
     7
 74
     1
 91
        4
 64
     7
 65
   257
 75
     1
175
     1
 42
1.0
 92
        8
 66
     7
 43
1.0
 76
     1
 77
     6
 78
     2
 67
     7
 79
     5
170
     0
171
     0
290
     0
174
     0
 93
        1
 44
0.0
173
     0
291
     1
 45
0.0
1001
ACAD
1000
AcDbSavedByObjectVersion
1070
     0
  0
VISUALSTYLE
  5
101B
102
{ACAD_XDICTIONARY
360
15F7
102
}
102
{ACAD_REACTORS
330
101A
102
}
330
101A
100
AcDbVisualStyle
  2
Flat
 70
     0
 71
     2
 72
     1
 73
     1
 90
        2
 40
-0.6
 41
30.0
 62
     5
 63
     7
 74
     0
 91
        0
 64
     7
 65
   257
 75
     1
175
     1
 42
1.0
 92
        8
 66
     7
 43
1.0
 76
     1
 77
     6
 78
     2
 67
     7
 79
     5
170
     0
171
     0
290
     0
174
     0
 93
       13
 44
0.0
173
     0
291
     1
 45
0.0
1001
ACAD
1000
AcDbSavedByObjectVersion
1070
     0
  0
VISUALSTYLE
  5
101C
102
{ACAD_XDICTIONARY
360
15F9
102
}
102
{ACAD_REACTORS
330
101A
102
}
330
101A
100
AcDbVisualStyle
  2
FlatWithEdges
 70
     1
 71
     2
 72
     1
 73
     1
 90
        2
 40
-0.6
 41
30.0
 62
     5
 63
     7
 74
     1
 91
        0
 64
     7
 65
   257
 75
     1
175
     1
 42
1.0
 92
        0
 66
   257
 43
1.0
 76
     1
 77
     6
 78
     2
 67
     7
 79
     5
170
     0
171
     0
290
     0
174
     0
 93
       13
 44
0.0
173
     0
291
     1
 45
0.0
1001
ACAD
1000
AcDbSavedByObjectVersion
1070
     0
  0
VISUALSTYLE
  5
101D
102
{ACAD_XDICTIONARY
360
15FB
102
}
102
{ACAD_REACTORS
330
101A
102
}
330
101A
100
AcDbVisualStyle
  2
Gouraud
 70
     2
 71
     2
 72
     2
 73
     1
 90
        2
 40
-0.6
 41
30.0
 62
     5
 63
     7
 74
     0
 91
        0
 64
     7
 65
   257
 75
     1
175
     1
 42
1.0
 92
        0
 66
     7
 43
1.0
 76
     1
 77
     6
 78
     2
 67
     7
 79
     5
170
     0
171
     0
290
     0
174
     0
 93
       13
 44
0.0
173
     0
291
     1
 45
0.0
1001
ACAD
1000
AcDbSavedByObjectVersion
1070
     0
  0
VISUALSTYLE
  5
101E
102
{ACAD_XDICTIONARY
360
15FD
102
}
102
{ACAD_REACTORS
330
101A
102
}
330
101A
100
AcDbVisualStyle
  2
GouraudWithEdges
 70
     3
 71
     2
 72
     2
 73
     1
 90
        2
 40
-0.6
 41
30.0
 62
     5
 63
     7
 74
     1
 91
        0
 64
     7
 65
   257
 75
     1
175
     1
 42
1.0
 92
        0
 66
   257
 43
1.0
 76
     1
 77
     6
 78
     2
 67
     7
 79
     5
170
     0
171
     0
290
     0
174
     0
 93
       13
 44
0.0
173
     0
291
     1
 45
0.0
1001
ACAD
1000
AcDbSavedByObjectVersion
1070
     0
  0
VISUALSTYLE
  5
1022
102
{ACAD_XDICTIONARY
360
1605
102
}
102
{ACAD_REACTORS
330
101A
102
}
330
101A
100
AcDbVisualStyle
  2
Hidden
 70
     6
 71
     1
 72
     2
 73
     2
 90
        0
 40
-0.6
 41
-30.0
 62
     5
 63
     7
 74
     2
 91
        2
 64
     7
 65
   257
 75
     2
175
     1
 42
40.0
 92
        0
 66
   257
 43
1.0
 76
     1
 77
     6
 78
     2
 67
     7
 79
     3
170
     0
171
     0
290
     0
174
     0
 93
        1
 44
0.0
173
     0
291
     0
 45
0.0
1001
ACAD
1000
AcDbSavedByObjectVersion
1070
     0
  0
VISUALSTYLE
  5
1030
102
{ACAD_XDICTIONARY
360
1621
102
}
102
{ACAD_REACTORS
330
101A
102
}
330
101A
100
AcDbVisualStyle
  2
JitterOff
 70
    20
 71
     2
 72
     2
 73
     0
 90
        0
 40
-0.6
 41
-30.0
 62
     5
 63
     7
 74
     1
 91
        4
 64
     7
 65
   257
 75
     1
175
     1
 42
1.0
 92
       10
 66
     7
 43
1.0
 76
     1
 77
     6
 78
     2
 67
     7
 79
     5
170
     0
171
     0
290
     0
174
     0
 93
        1
 44
0.0
173
     0
291
     1
 45
0.0
1001
ACAD
1000
AcDbSavedByObjectVersion
1070
     0
  0
VISUALSTYLE
  5
1028
102
{ACAD_XDICTIONARY
360
1611
102
}
102
{ACAD_REACTORS
330
101A
102
}
330
101A
100
AcDbVisualStyle
  2
Linepattern
 70
    14
 71
     2
 72
     2
 73
     0
 90
        0
 40
-0.6
 41
-30.0
 62
     5
 63
     7
 74
     1
 91
        4
 64
     7
 65
   257
 75
     7
175
     7
 42
1.0
 92
        8
 66
     7
 43
1.0
 76
     1
 77
     6
 78
     2
 67
     7
 79
     5
170
     0
171
     0
290
     0
174
     0
 93
        1
 44
0.0
173
     0
291
     1
 45
0.0
1001
ACAD
1000
AcDbSavedByObjectVersion
1070
     0
  0
VISUALSTYLE
  5
1031
102
{ACAD_XDICTIONARY
360
1623
102
}
102
{ACAD_REACTORS
330
101A
102
}
330
101A
100
AcDbVisualStyle
  2
OverhangOff
 70
    21
 71
     2
 72
     2
 73
     0
 90
        0
 40
-0.6
 41
-30.0
 62
     5
 63
     7
 74
     1
 91
        4
 64
     7
 65
   257
 75
     1
175
     1
 42
1.0
 92
        9
 66
     7
 43
1.0
 76
     1
 77
     6
 78
     2
 67
     7
 79
     5
170
     0
171
     0
290
     0
174
     0
 93
        1
 44
0.0
173
     0
291
     1
 45
0.0
1001
ACAD
1000
AcDbSavedByObjectVersion
1070
     0
  0
VISUALSTYLE
  5
1024
102
{ACAD_XDICTIONARY
360
1609
102
}
102
{ACAD_REACTORS
330
101A
102
}
330
101A
100
AcDbVisualStyle
  2
Realistic
 70
     8
 71
     2
 72
     2
 73
     0
 90
        2
 40
-0.6
 41
30.0
 62
     5
 63
     7
 74
     0
 91
        0
 64
     7
 65
   257
 75
     1
175
     1
 42
1.0
 92
        8
 66
   257
 43
1.0
 76
     1
 77
     6
 78
     2
 67
     7
 79
     3
170
     0
171
     0
290
     0
174
     0
 93
       13
 44
0.0
173
     0
291
     0
 45
0.0
1001
ACAD
1000
AcDbSavedByObjectVersion
1070
     0
  0
VISUALSTYLE
  5
102F
102
{ACAD_XDICTIONARY
360
161F
102
}
102
{ACAD_REACTORS
330
101A
102
}
330
101A
100
AcDbVisualStyle
  2
Shaded
 70
    27
 71
     2
 72
     2
 73
     1
 90
        2
 40
-0.6
 41
30.0
 62
     5
 63
     7
 74
     0
 91
        4
 64
     7
 65
   257
 75
     1
175
     1
 42
1.0
 92
        8
 66
   257
 43
1.0
 76
     1
 77
     6
 78
     2
 67
     8
 79
     3
170
     0
171
     0
290
     0
174
     0
 93
        5
 44
0.0
173
     0
291
     0
 45
0.0
1001
ACAD
1000
AcDbSavedByObjectVersion
1070
     0
  0
VISUALSTYLE
  5
102E
102
{ACAD_XDICTIONARY
360
161D
102
}
102
{ACAD_REACTORS
330
101A
102
}
330
101A
100
AcDbVisualStyle
  2
Shaded with edges
 70
    26
 71
     2
 72
     2
 73
     1
 90
        2
 40
-0.6
 41
30.0
 62
     5
 63
     7
 74
     1
 91
       10
 64
     7
 65
   257
 75
     2
175
     1
 42
1.0
 92
        8
 66
   257
 43
1.0
 76
     1
 77
     6
 78
     2
 67
     7
 79
     3
170
     0
171
     0
290
     0
174
     0
 93
        5
 44
0.0
173
     0
291
     0
 45
0.0
1001
ACAD
1000
AcDbSavedByObjectVersion
1070
     0
  0
VISUALSTYLE
  5
102B
102
{ACAD_XDICTIONARY
360
1617
102
}
102
{ACAD_REACTORS
330
101A
102
}
330
101A
100
AcDbVisualStyle
  2
Shades of Gray
 70
    23
 71
     2
 72
     2
 73
     3
 90
        0
 40
-0.6
 41
-30.0
 62
     5
 63
     7
 74
     2
 91
        2
 64
     7
 65
     7
 75
     1
175
     1
 42
40.0
 92
        8
 66
     7
 43
1.0
 76
     1
 77
     6
 78
     2
 67
     7
 79
     3
170
     0
171
     0
290
     0
174
     0
 93
        1
 44
0.0
173
     0
291
     0
 45
0.0
1001
ACAD
1000
AcDbSavedByObjectVersion
1070
     0
  0
VISUALSTYLE
  5
102C
102
{ACAD_XDICTIONARY
360
1619
102
}
102
{ACAD_REACTORS
330
101A
102
}
330
101A
100
AcDbVisualStyle
  2
Sketchy
 70
    24
 71
     1
 72
     2
 73
     2
 90
        0
 40
-0.6
 41
-30.0
 62
     5
 63
     7
 74
     2
 91
        2
 64
     7
 65
     7
 75
     1
175
     1
 42
40.0
 92
       11
 66
     7
 43
1.0
 76
     1
 77
     6
 78
     2
 67
     7
 79
     6
170
     0
171
     0
290
     0
174
     0
 93
        1
 44
0.0
173
     0
291
     0
 45
0.0
1001
ACAD
1000
AcDbSavedByObjectVersion
1070
     0
  0
VISUALSTYLE
  5
1027
102
{ACAD_XDICTIONARY
360
160F
102
}
102
{ACAD_REACTORS
330
101A
102
}
330
101A
100
AcDbVisualStyle
  2
Thicken
 70
    13
 71
     2
 72
     2
 73
     0
 90
        0
 40
-0.6
 41
-30.0
 62
     5
 63
     7
 74
     1
 91
        4
 64
     7
 65
   257
 75
     1
175
     1
 42
1.0
 92
       12
 66
     7
 43
1.0
 76
     1
 77
     6
 78
     2
 67
     7
 79
     5
170
     0
171
     0
290
     0
174
     0
 93
        1
 44
0.0
173
     0
291
     1
 45
0.0
1001
ACAD
1000
AcDbSavedByObjectVersion
1070
     0
  0
VISUALSTYLE
  5
1021
102
{ACAD_XDICTIONARY
360
1603
102
}
102
{ACAD_REACTORS
330
101A
102
}
330
101A
100
AcDbVisualStyle
  2
Wireframe
 70
     5
 71
     0
 72
     2
 73
     0
 90
        0
 40
-0.6
 41
-30.0
 62
     5
 63
     7
 74
     1
 91
        4
 64
     7
 65
   257
 75
     1
175
     1
 42
1.0
 92
        0
 66
   257
 43
1.0
 76
     1
 77
     6
 78
     2
 67
     7
 79
     3
170
     0
171
     0
290
     0
174
     0
 93
        1
 44
0.0
173
     0
291
     0
 45
0.0
1001
ACAD
1000
AcDbSavedByObjectVersion
1070
     0
  0
VISUALSTYLE
  5
102D
102
{ACAD_XDICTIONARY
360
161B
102
}
102
{ACAD_REACTORS
330
101A
102
}
330
101A
100
AcDbVisualStyle
  2
X-Ray
 70
    25
 71
     2
 72
     2
 73
     1
 90
        1
 40
0.5
 41
-30.0
 62
     5
 63
     7
 74
     1
 91
        0
 64
     7
 65
   257
 75
     1
175
     1
 42
1.0
 92
        8
 66
     7
 43
1.0
 76
     1
 77
     6
 78
     2
 67
     7
 79
     3
170
     0
171
     0
290
     0
174
     0
 93
       13
 44
0.0
173
     0
291
     0
 45
0.0
1001
ACAD
1000
AcDbSavedByObjectVersion
1070
     0
  0
DICTIONARYVAR
  5
126C
102
{ACAD_REACTORS
330
1269
102
}
330
1269
100
DictionaryVariables
280
     0
  1
1:1
  0
DICTIONARYVAR
  5
126B
102
{ACAD_REACTORS
330
1269
102
}
330
1269
100
DictionaryVariables
280
     0
  1
STANDARD
  0
DICTIONARYVAR
  5
126A
102
{ACAD_REACTORS
330
1269
102
}
330
1269
100
DictionaryVariables
280
     0
  1
STANDARD
  0
DICTIONARYVAR
  5
126F
102
{ACAD_REACTORS
330
1269
102
}
330
1269
100
DictionaryVariables
280
     0
  1
1
  0
DICTIONARYVAR
  5
126E
102
{ACAD_REACTORS
330
1269
102
}
330
1269
100
DictionaryVariables
280
     0
  1
0
  0
DICTIONARYVAR
  5
1569
102
{ACAD_REACTORS
330
1269
102
}
330
1269
100
DictionaryVariables
280
     0
  1
1
  0
DICTIONARYVAR
  5
156A
102
{ACAD_REACTORS
330
1269
102
}
330
1269
100
DictionaryVariables
280
     0
  1
15
  0
DICTIONARYVAR
  5
1568
102
{ACAD_REACTORS
330
1269
102
}
330
1269
100
DictionaryVariables
280
     0
  1
0
  0
DICTIONARYVAR
  5
1567
102
{ACAD_REACTORS
330
1269
102
}
330
1269
100
DictionaryVariables
280
     0
  1
0
  0
DICTIONARYVAR
  5
15E4
102
{ACAD_REACTORS
330
1269
102
}
330
1269
100
DictionaryVariables
280
     0
  1
1
  0
DICTIONARYVAR
  5
126D
102
{ACAD_REACTORS
330
1269
102
}
330
1269
100
DictionaryVariables
280
     0
  1
127
  0
DICTIONARYVAR
  5
164F
102
{ACAD_REACTORS
330
1269
102
}
330
1269
100
DictionaryVariables
280
     0
  1
2
  0
DICTIONARY
  5
11F8
102
{ACAD_REACTORS
330
11EF
102
}
330
11EF
100
AcDbDictionary
281
     1
  0
DICTIONARY
  5
1565
330
105F
100
AcDbDictionary
280
     1
281
     1
  3
ADSK_XREC_LAYOUTTHUMBNAIL
360
1566
  0
DICTIONARY
  5
100B
330
100A
100
AcDbDictionary
280
     1
281
     1
  3
ACAD_XREC_ROUNDTRIP
360
1658
  3
BUMPTILE
360
100D
  3
DIFFUSETILE
360
100C
  3
OPACITYTILE
360
1010
  3
REFLECTIONTILE
360
100F
  3
REFRACTIONTILE
360
1011
  3
SPECULARTILE
360
100E
  0
DICTIONARY
  5
1003
330
1002
100
AcDbDictionary
280
     1
281
     1
  3
ACAD_XREC_ROUNDTRIP
360
1657
  3
BUMPTILE
360
1005
  3
DIFFUSETILE
360
1004
  3
OPACITYTILE
360
1008
  3
REFLECTIONTILE
360
1007
  3
REFRACTIONTILE
360
1009
  3
SPECULARTILE
360
1006
  0
DICTIONARY
  5
1013
330
1012
100
AcDbDictionary
280
     1
281
     1
  3
ACAD_XREC_ROUNDTRIP
360
1659
  3
BUMPTILE
360
1015
  3
DIFFUSETILE
360
1014
  3
OPACITYTILE
360
1018
  3
REFLECTIONTILE
360
1017
  3
REFRACTIONTILE
360
1019
  3
SPECULARTILE
360
1016
  0
DICTIONARY
  5
122A
330
1055
100
AcDbDictionary
280
     1
281
     1
  3
ACAD_ROUNDTRIP_2008_TABLESTYLE_CELLSTYLEMAP
360
1650
  3
ACAD_XREC_ROUNDTRIP
360
165A
  0
DICTIONARY
  5
1601
330
1020
100
AcDbDictionary
280
     1
281
     1
  3
ACAD_XREC_ROUNDTRIP
360
1602
  0
DICTIONARY
  5
162D
330
1558
100
AcDbDictionary
280
     1
281
     1
  3
ACAD_XREC_ROUNDTRIP
360
162E
  0
DICTIONARY
  5
162B
330
1557
100
AcDbDictionary
280
     1
281
     1
  3
ACAD_XREC_ROUNDTRIP
360
162C
  0
DICTIONARY
  5
15FF
330
101F
100
AcDbDictionary
280
     1
281
     1
  3
ACAD_XREC_ROUNDTRIP
360
1600
  0
DICTIONARY
  5
160D
330
1026
100
AcDbDictionary
280
     1
281
     1
  3
ACAD_XREC_ROUNDTRIP
360
160E
  0
DICTIONARY
  5
1615
330
102A
100
AcDbDictionary
280
     1
281
     1
  3
ACAD_XREC_ROUNDTRIP
360
1616
  0
DICTIONARY
  5
1607
330
1023
100
AcDbDictionary
280
     1
281
     1
  3
ACAD_XREC_ROUNDTRIP
360
1608
  0
DICTIONARY
  5
160B
330
1025
100
AcDbDictionary
280
     1
281
     1
  3
ACAD_XREC_ROUNDTRIP
360
160C
  0
DICTIONARY
  5
1625
330
1032
100
AcDbDictionary
280
     1
281
     1
  3
ACAD_XREC_ROUNDTRIP
360
1626
  0
DICTIONARY
  5
1613
330
1029
100
AcDbDictionary
280
     1
281
     1
  3
ACAD_XREC_ROUNDTRIP
360
1614
  0
DICTIONARY
  5
15F7
330
101B
100
AcDbDictionary
280
     1
281
     1
  3
ACAD_XREC_ROUNDTRIP
360
15F8
  0
DICTIONARY
  5
15F9
330
101C
100
AcDbDictionary
280
     1
281
     1
  3
ACAD_XREC_ROUNDTRIP
360
15FA
  0
DICTIONARY
  5
15FB
330
101D
100
AcDbDictionary
280
     1
281
     1
  3
ACAD_XREC_ROUNDTRIP
360
15FC
  0
DICTIONARY
  5
15FD
330
101E
100
AcDbDictionary
280
     1
281
     1
  3
ACAD_XREC_ROUNDTRIP
360
15FE
  0
DICTIONARY
  5
1605
330
1022
100
AcDbDictionary
280
     1
281
     1
  3
ACAD_XREC_ROUNDTRIP
360
1606
  0
DICTIONARY
  5
1621
330
1030
100
AcDbDictionary
280
     1
281
     1
  3
ACAD_XREC_ROUNDTRIP
360
1622
  0
DICTIONARY
  5
1611
330
1028
100
AcDbDictionary
280
     1
281
     1
  3
ACAD_XREC_ROUNDTRIP
360
1612
  0
DICTIONARY
  5
1623
330
1031
100
AcDbDictionary
280
     1
281
     1
  3
ACAD_XREC_ROUNDTRIP
360
1624
  0
DICTIONARY
  5
1609
330
1024
100
AcDbDictionary
280
     1
281
     1
  3
ACAD_XREC_ROUNDTRIP
360
160A
  0
DICTIONARY
  5
161F
330
102F
100
AcDbDictionary
280
     1
281
     1
  3
ACAD_XREC_ROUNDTRIP
360
1620
  0
DICTIONARY
  5
161D
330
102E
100
AcDbDictionary
280
     1
281
     1
  3
ACAD_XREC_ROUNDTRIP
360
161E
  0
DICTIONARY
  5
1617
330
102B
100
AcDbDictionary
280
     1
281
     1
  3
ACAD_XREC_ROUNDTRIP
360
1618
  0
DICTIONARY
  5
1619
330
102C
100
AcDbDictionary
280
     1
281
     1
  3
ACAD_XREC_ROUNDTRIP
360
161A
  0
DICTIONARY
  5
160F
330
1027
100
AcDbDictionary
280
     1
281
     1
  3
ACAD_XREC_ROUNDTRIP
360
1610
  0
DICTIONARY
  5
1603
330
1021
100
AcDbDictionary
280
     1
281
     1
  3
ACAD_XREC_ROUNDTRIP
360
1604
  0
DICTIONARY
  5
161B
330
102D
100
AcDbDictionary
280
     1
281
     1
  3
ACAD_XREC_ROUNDTRIP
360
161C
  0
XRECORD
  5
1566
102
{ACAD_REACTORS
330
1565
102
}
330
1565
100
AcDbXrecord
280
     1
310
28000000000100009B0000000100080000000000009B0000000000000000000000010000000000000000000000000000FFFFFF000000000000000000000000000000000000000000000000000000000000000000330000006600000099000000CC000000FF00000000330000333300006633000099330000CC330000FF3300
310
0000660000336600006666000099660000CC660000FF66000000990000339900006699000099990000CC990000FF99000000CC000033CC000066CC000099CC0000CCCC0000FFCC000000FF000033FF000066FF000099FF0000CCFF0000FFFF000000003300330033006600330099003300CC003300FF003300003333003333
310
33006633330099333300CC333300FF33330000663300336633006666330099663300CC663300FF66330000993300339933006699330099993300CC993300FF99330000CC330033CC330066CC330099CC3300CCCC3300FFCC330000FF330033FF330066FF330099FF3300CCFF3300FFFF330000006600330066006600660099
310
006600CC006600FF00660000336600333366006633660099336600CC336600FF33660000666600336666006666660099666600CC666600FF66660000996600339966006699660099996600CC996600FF99660000CC660033CC660066CC660099CC6600CCCC6600FFCC660000FF660033FF660066FF660099FF6600CCFF6600
310
FFFF660000009900330099006600990099009900CC009900FF00990000339900333399006633990099339900CC339900FF33990000669900336699006666990099669900CC669900FF66990000999900339999006699990099999900CC999900FF99990000CC990033CC990066CC990099CC9900CCCC9900FFCC990000FF99
310
0033FF990066FF990099FF9900CCFF9900FFFF99000000CC003300CC006600CC009900CC00CC00CC00FF00CC000033CC003333CC006633CC009933CC00CC33CC00FF33CC000066CC003366CC006666CC009966CC00CC66CC00FF66CC000099CC003399CC006699CC009999CC00CC99CC00FF99CC0000CCCC0033CCCC0066CC
310
CC0099CCCC00CCCCCC00FFCCCC0000FFCC0033FFCC0066FFCC0099FFCC00CCFFCC00FFFFCC000000FF003300FF006600FF009900FF00CC00FF00FF00FF000033FF003333FF006633FF009933FF00CC33FF00FF33FF000066FF003366FF006666FF009966FF00CC66FF00FF66FF000099FF003399FF006699FF009999FF00CC
310
99FF00FF99FF0000CCFF0033CCFF0066CCFF0099CCFF00CCCCFF00FFCCFF0000FFFF0033FFFF0066FFFF0099FFFF00CCFFFF00FFFFFF00000000000D0D0D001A1A1A00282828003535350043434300505050005D5D5D006B6B6B00787878008686860093939300A1A1A100AEAEAE00BBBBBB00C9C9C900D6D6D600E4E4E400
310
F1F1F100FFFFFF0000000000000000000000000000000000000000000000000000000000000000000000000000000000E2E2E2E2E2E2E2E2E2E2E2E2E2E2E2E2E2E2E2E2E2E2E2E2E2E2E2E2E2E2E2E2E2E2E2E2E2E2E2E2E2E2E2E2E2E2E2E2E2E2E2E2E2E2E2E2E2E2E2E2E2E2E2E2E2E2E2E2E2E2E2E2E2E2E2E2E2E2E2
310
E2E2E2E2E2E2E2E2E2E2E2E2E2E2E2E2E2E2E2E2E2E2E2E2E2E2E2E2E2E2E2E2E2E2E2E2E2E2E2E2E2E2E2E2E2E2E2E2E2E2E2E2E2E2E2E2E2E2E2E2E2E2E2E2E2E2E2E2E2E2E2E2E2E2E2E2E2E2E2E2E2E2E2E2E2E2E2E2E2E2E2E2E2E2E2E2E2E2E2E2E2E2E2E2E2E2E2E2E2E2E2E2E2E2E2E2E2E2E2E2E2E2E2E2E2E2E2
310
E2E2E2E2E2E2E2E2E2E2E2E2E2E2E2E2E2E2E2E2E2E2E2E2E2E2E2E2E2E2E2E2E2E2E2E2E2E2E2E2E2E2E2E2E2E2E2E2E2E2E2E2E2E2E2E2E2E2E2E2E2E2E2E2E2E2E2E2E2E2E2E2E2E2E2E2E2E2E2E2E2E2E2E2E2E2E2E2E2E2E2E2E2E2E2E2E2E2E2E2E2E2E2E2E2E2E2E2E2E2E2E2E2E2E2E2E2E2E2E2E2E2E2E2E2E2E2
310
E2E2E2E2E2E2E2E2E2E2E2E2E2E2E2E2E2E2E2E2E2E2E2E2E2E2E2E2E2E2E2E2E2E2E2E2E2E2E2E2E2E2E2E2E2E2E2E2E2E2E2E2E2E2E2E2E2E2E2E2E2E2E2E2E2E2E2E2E2E2E2E2E2E2E2E2E2E2E2E2E2E2E2E2E2E2E2E2E2E2E2E2E2E2E2E2E2E2E2E2E2E2E2E2E2E2E2E2E2E2E2E2E2E2E2E2E2E2E2E2E2E2E2E2E2E2E2
310
E2E2E2E2E2E2E2E2E2E2E2E2E2E2E2E2E2E2E2E2E2E2E2E2E2E2E2E2E2E2E2E2E2E2E2E2E2E2E2E2E2E2E2E2E2E2E2E2E2E2E2E2E2E2E2E2E2E2E2E2E2E2E2E2E2E2E2E2E2E2E2E2E2E2E2E2E2E2E2E2E2E2E2E2E2E2E2E2E2E2E2E2E2E2E2E2E2E2E2E2E2E2E2E2E2E2E2E2E2E2E2E2E2E2E2E2E2E2E2E2E2E2E2E2E2E2E2
310
E2E2E2E2E2E2E2E2E2E2E2E2E2E2E2E2E2E2E2E2E2E2E2E2E2E2E2E2E2E2E2E2E2E2E2E2E2E2E2E2E2E2E2E2E2E2E2E2E2E2E2E2E2E2E2E2E2E2E2E2E2E2E2E2E2E2E2E2E2E2E2E2E2E2E2E2E2E2E2E2E2E2E2E2E2E2E2E2E2E2E2E2E2E2E2E2E2E2E2E2E2E2E2E2E2E2E2E2E2E2E2E2E2E2E2E2E2E2E2E2E2E2E2E2E2E2E2
310
E2E2E2E2E2E2E2E2E2E2E2E2E2E2E2E2E2E2E2E2E2E2E2E2E2E2E2E2E2E2E2E2E2E2E2E2E2E2E2E2E2E2E2E2E2E2E2E2E2E2E2E2E2E2E2E2E2E2E2E2E2E2E2E2E2E2E2E2E2E2E2E2E2E2E2E2E2E2E2E2E2E2E2E2E2E2E2E2E2E2E2E2E2E2E2E2E2E2E2E2E2E2E2E2E2E2E2E2E2E2E2E2E2E2E2E2E2E2E2E2E2E2E2E2E2E2E2
310
E2E2E2E2E2E2E2E2E2E2E2E2E2E2E2E2E2E2E2E2E2E2E2E2E2E2E2E2E2E2E2E2E2E2E2E2E2E2E2E2E2E2E2E2E2E2E2E2E2E2E2E2E2E2E2E2E2E2E2E2E2E2E2E2E2E2E2E2E2E2E2E2E2E2E2E2E2E2E2E2E2E2E2E2E2E2E2E2E2E2E2E2E2E2E2E2E2E2E2E2E2E2E2E2E2E2E2E2E2E2E2E2E2E2E2E2E2E2E2E2E2E2E2E2E2E2E2
310
E2E2E2E2E2E2E2E2E2E2E2E2E2E2E2E2E2E2E2E2E2E2E2E2E2E2E2E2E2E2E2E2E2E2E2E2E2E2E2E2E2E2E2E2E2E2E2E2E2E2E2E2E2E2E2E2E2E2E2E2E2E2E2E2E2E2E2E2E2E2E2E2E2E2E2E2E2E2E2E2E2E2E2E2E2E2E2E2E2E2E2E2E2E2E2E2E2E2E2E2E2E2E2E2E2E2E2E2E2E2E2E2E2E2E2E2E2E2E2E2E2E2E2E2E2E2E2
310
E2E2E2E2E2E2E2E2E2E2E2E2E2E2E2E2E2E2E2E2E2E2E2E2E2E2E2E2E2E2E2E2E2E2E2E2E2E2E2E2E2E2E2E2E2E2E2E2E2E2E2E2E2E2E2E2E2E2E2E2E2E2E2E2E2E2E2E2E2E2E2E2E2E2E2E2E2E2E2E2E2E2E2E2E2E2E2E2E2E2E2E2E2E2E2E2E2E2E2E2E2E2E2E2E2E2E2E2E2E2E2E2E2E2E2E2E2E2E2E2E2E2E2E2E2E2E2
310
E2E2E2E2E2E2E2E2E2E2E2E2E2E2E2E2E2E2E2E2E2E2E2E2E2E2E2E2E2E2E2E2E2E2E2E2E2E2E2E2E2E2E2E2E2E2E2E2E2E2E2E2E2E2E2E2E2E2E2E2E2E2E2E2E2E2E2E2E2E2E2E2E2E2E2E2E2E2E2E2E2E2E2E2E2E2E2E2E2E2E2E2E2E2E2E2E2E2E2E2E2E2E2E2E2E2E2E2E2E2E2E2E2E2E2E2E2E2E2E2E2E2E2E2E2E2E2
310
E2E2E2E2E2E2E2E2E2E2E2E2E2E2E2E2E2E2E2E2E2E2E2E2E2E2E2E2E2E2E2E2E2E2E2E2E2E2E2E2E2E2E2E2E2E2E2E2E2E2E2E2E2E2E2E2E2E2E2E2E2E2E2E2E2E2E2E2E2E2E2E2E2E2E2E2E2E2E2E2E2E2E2E2E2E2E2E2E2E2E2E2E2E2E2E2E2E2E2E2E2E2E2E2E2E2E2E2E2E2E2E2E2E2E2E2E2E2E2E2E2E2E2E2E2E2E2
310
E2E2E2E2E2E2E2E2E2E2E2E2E2E2E2E2E2E2E2E2E2E2E2E2E2E2E2E2E2E2E2E2E2E2E2E2E2E2E2E2E2E2E2E2E2E2E2E2E2E2E2E2E2E2E2E2E2E2E2E2E2E2E2E2E2E2E2E2E2E2E2E2E2E2E2E2E2E2E2E2E2E2E2E2E2E2E2E2E2E2E2E2E2E2E2E2E2E2E2E2E2E2E2E2E2E2E2E2E2E2E2E2E2E2E2E2E2E2E2E2E2E2E2E2E2E2E2
310
E2E2E2E2E2E2E2E2E2E2E2E2E2E2E2E2E2E2E2E2E2E2E2E2E2E2E2E2E2E2E2E2E2E2E2E2E2E2E2E2E2E2E2E2E2E2E2E2E2E2E2E2E2E2E2E2E2E2E2E2E2E2E2E2E2E2E2E2E2E2E2E2E2E2E2E2E2E2E2E2E2E2E2E2E2E2E2E2E2E2E2E2E2E2E2E2E2E2E2E2E2E2E2E2E2E2E2E2E2E2E2E2E2E2E2E2E2E2E2E2E2E2E2E2E2E2E2
310
E2E2E2E2E2E2E2E2E2E2E2E2E2E2E2E2E2E2E2E2E2E2E2E2E2E2E2E2E2E2E2E2E2E2E2E2E2E2E2E2E2E2E2E2E2E2E2E2E2E2E2E2E2E2E2E2E2E2E2E2E2E2E2E2E2E2E2E2E2E2E2E2E2E2E2E2E2E2E2E2E2E2E2E2E2E2E2E2E2E2E2E2E2E2E2E2E2E2E2E2E2E2E2E2E2E2E2E2E2E2E2E2E2E2E2E2E2E2E2E2E2E2E2E2E2E2E2
310
E2E2E2E2E2E2E2E2E2E2E2E2E2E2E2E2E2E2E2E2E2E2E2E2E2E2E2E2E2E2E2E2E2E2E2E2E2E2E2E2E2E2E2E2E2E2E2E2E2E2E2E2E2E2E2E2E2E2E2E2E2E2E2E2E2E2E2E2E2E2E2E2E2E2E2E2E2E2E2E2E2E2E2E2E2E2E2E2E2E2E2E2E2E2E2E2E2E2E2E2E2E2E2E2E2E2E2E2E2E2E2E2E2E2E2E2E2E2E2E2E2E2E2E2E2E2E2
310
E2E2E2E2E2E2E2E2E2E2E2E2E2E2E2E2E2E2E2E2E2E2E2E2E2E2E2E2E2E2E2E2E2E2E2E2E2E2E2E2E2E2E2E2E2E2E2E2E2E2E2E2E2E2E2E2E2E2E2E2E2E2E2E2E2E2E2E2E2E2E2E2E2E2E2E2E2E2E2E2E2E2E2E2E2E2E2E2E2E2E2E2E2E2E2E2E2E2E2E2E2E2E2E2E2E2E2E2E2E2E2E2E2E2E2E2E2E2E2E2E2E2E2E2E2E2E2
310
E2E2E2E2E2E2E2E2E2E2E2E2E2E2E2E2E2E2E2E2E2E2E2E2E2E2E2E2E2E2E2E2E2E2E2E2E2E2E2E2E2E2E2E2E2E2E2E2E2E2E2E2E2E2E2E2E2E2E2E2E2E2E2E2E2E2E2E2E2E2E2E2E2E2E2E2E2E2E2E2E2E2E2E2E2E2E2E2E2E2E2E2E2E2E2E2E2E2E2E2E2E2E2E2E2E2E2E2E2E2E2E2E2E2E2E2E2E2E2E2E2E2E2E2E2E2E2
310
E2E2E2E2E2E2E2E2E2E2E2E2E2E2E2E2E2E2E2E2E2E2E2E2E2E2E2E2E2E2E2E2E2E2E2E2E2E2E2E2E2E2E2E2E2E2E2E2E2E2E2E2E2E2E2E2E2E2E2E2E2E2E2E2E2E2E2E2E2E2E2E2E2E2E2E2E2E2E2E2E2E2E2E2E2E2E2E2E2E2E2E2E2E2E2E2E2E2E2E2E2E2E2E2E2E2E2E2E2E2E2E2E2E2E2E2E2E2E2E2E2E2E2E2E2E2E2
310
E2E2E2E2E2E2E2E2E2E2E2E2E2E2E2E2E2E2E2E2E2E2E2E2E2E2E2E2E2E2E2E2E2E2E2E2E2E2E2E2E2E2E2E2E2E2E2E2E2E2E2E2E2E2E2E2E2E2E2E2E2E2E2E2E2E2E2E2E2E2E2E2E2E2E2E2E2E2E2E2E2E2E2E2E2E2E2E2E2E2E2E2E2E2E2E2E2E2E2E2E2E2E2E2E2E2E2E2E2E2E2E2E2E2E2E2E2E2E2E2E2E2E2E2E2E2E2
310
E2E2E2E2E2E2E2E2E2E2E2E2E2E2E2E2E2E2E2E2E2E2E2E2E2E2E2E2E2E2E2E2E2E2E2E2E2E2E2E2E2E2E2E2E2E2E2E2E2E2E2E2E2E2E2E2E2E2E2E2E2E2E2E2E2E2E2E2E2E2E2E2E2E2E2E2E2E2E2E2E2E2E2E2E2E2E2E2E2E2E2E2E2E2E2E2E2E2E2E2E2E2E2E2E2E2E2E2E2E2E2E2E2E2E2E2E2E2E2E2E2E2E2E2E2E2E2
310
E2E2E2E2E2E2E2E2E2E2E2E2E2E2E2E2E2E2E2E2E2E2E2E2E2E2E2E2E2E2E2E2E2E2E2E2E2E2E2E2E2E2E2E2E2E2E2E2E2E2E2E2E2E2E2E2E2E2E2E2E2E2E2E2E2E2E2E2E2E2E2E2E2E2E2E2E2E2E2E2E2E2E2E2E2E2E2E2E2E2E2E2E2E2E2E2E2E2E2E2E2E2E2E2E2E2E2E2E2E2E2E2E2E2E2E2E2E2E2E2E2E2E2E2E2E2E2
310
E2E2E2E2E2E2E2E2E2E2E2E2E2E2E2E2E2E2E2E2E2E2E2E2E2E2E2E2E2E2E2E2E2E2E2E2E2E2E2E2E2E2E2E2E2E2E2E2E2E2E2E2E2E2E2E2E2E2E2E2E2E2E2E2E2E2E2E2E2E2E2E2E2E2E2E2E2E2E2E2E2E2E2E2E2E2E2E2E2E2E2E2E2E2E2E2E2E2E2E2E2E2E2E2E2E2E2E2E2E2E2E2E2E2E2E2E2E2E2E2E2E2E2E2E2E2E2
310
E2E2E2E2E2E2E2E2E2E2E2E2E2E2E2E2E2E2E2E2E2E2E2E2E2E2E2E2E2E2E2E2E2E2E2E2E2E2E2E2E2E2E2E2E2E2E2E2E2E2E2E2E2E2E2E2E2E2E2E2E2E2E2E2E2E2E2E2E2E2E2E2E2E2E2E2E2E2E2E2E2E2E2E2E2E2E2E2E2E2E2E2E2E2E2E2E2E2E2E2E2E2E2E2E2E2E2E2E2E2E2E2E2E2E2E2E2E2E2E2E2E2E2E2E2E2E2
310
E2E2E2E2E2E2E2E2E2E2E2E2E2E2E2E2E2E2E2E2E2E2E2E2E2E2E2E2E2E2E2E2E2E2E2E2E2E2E2E2E2E2E2E2E2E2E2E2E2E2E2E2E2E2E2E2E2E2E2E2E2E2E2E2E2E2E2E2E2E2E2E2E2E2E2E2E2E2E2E2E2E2E2E2E2E2E2E2E2E2E2E2E2E2E2E2E2E2E2E2E2E2E2E2E2E2E2E2E2E2E2E2E2E2E2E2E2E2E2E2E2E2E2E2E2E2E2
310
E2E2E2E2E2E2E2E2E2E2E2E2E2E2E2E2E2E2E2E2E2E2E2E2E2E2E2E2E2E2E2E2E2E2E2E2E2E2E2E2E2E2E2E2E2E2E2E2E2E2E2E2E2E2E2E2E2E2E2E2E2E2E2E2E2E2E2E2E2E2E2E2E2E2E2E2E2E2E2E2E2E2E2E2E2E2E2E2E2E2E2E2E2E2E2E2E2E2E2E2E2E2E2E2E2E2E2E2E2E2E2E2E2E2E2E2E2E2E2E2E2E2E2E2E2E2E2
310
E2E2E2E2E2E2E2E2E2E2E2E2E2E2E2E2E2E2E2E2E2E2E2E2E2E2E2E2E2E2E2E2E2E2E2E2E2E2E2E2E2E2E2E2E2E2E2E2E2E2E2E2E2E2E2E2E2E2E2E2E2E2E2E2E2E2E2E2E2E2E2E2E2E2E2E2E2E2E2E2E2E2E2E2E2E2E2E2E2E2E2E2E2E2E2E2E2E2E2E2E2E2E2E2E2E2E2E2E2E2E2E2E2E2E2E2E2E2E2E2E2E2E2E2E2E2E2
310
E2E2E2E2E2E2E2E2E2E2E2E2E2E2E2E2E2E2E2E2E2E2E2E2E2E2E2E2E2E2E2E2E2E2E2E2E2E2E2E2E2E2E2E2E2E2E2E2E2E2E2E2E2E2E2E2E2E2E2E2E2E2E2E2E2E2E2E2E2E2E2E2E2E2E2E2E2E2E2E2E2E2E2E2E2E2E2E2E2E2E2E2E2E2E2E2E2E2E2E2E2E2E2E2E2E2E2E2E2E2E2E2E2E2E2E2E2E2E2E2E2E2E2E2E2E2E2
310
E2E2E2E2E2E2E2E2E2E2E2E2E2E2E2E2E2E2E2E2E2E2E2E2E2E2E2E2E2E2E2E2E2E2E2E2E2E2E2E2E2E2E2E2E2E2E2E2E2E2E2E2E2E2E2E2E2E2E2E2E2E2E2E2E2E2E2E2E2E2E2E2E2E2E2E2E2E2E2E2E2E2E2E2E2E2E2E2E2E2E2E2E2E2E2E2E2E2E2E2E2E2E2E2E2E2E2E2E2E2E2E2E2E2E2E2E2E2E2E2E2E2E2E2E2E2E2
310
E2E2E2E2E2E2E2E2E2E2E2E2E2E2E2E2E2E2E2E2E2E2E2E2E2E2E2E2E2E2E2E2E2E2E2E2E2E2E2E2E2E2E2E2E2E2E2E2E2E2E2E2E2E2E2E2E2E2E2E2E2E2E2E2E2E2E2E2E2E2E2E2E2E2E2E2E2E2E2E2E2E2E2E2E2E2E2E2E2E2E2E2E2E2E2E2E2E2E2E2E2E2E2E2E2E2E2E2E2E2E2E2E2E2E2E2E2E2E2E2E2E2E2E2E2E2E2
310
E2E2E2E2E2E2E2E2E2E2E2E2E2E2E2E2E2E2E2E2E2E2E2E2E2E2E2E2E2E2E2E2E2E2E2E2E2E2E2E2E2E2E2E2E2E2E2E2E2E2E2E2E2E2E2E2E2E2E2E2E2E2E2E2E2E2E2E2E2E2E2E2E2E2E2E2E2E2E2E2E2E2E2E2E2E2E2E2E2E2E2E2E2E2E2E2E2E2E2E2E2E2E2E2E2E2E2E2E2E2E2E2E2E2E2E2E2E2E2E2E2E2E2E2E2E2E2
310
E2E2E2E2E2E2E2E2E2E2E2E2E2E2E2E2E2E2E2E2E2E2E2E2E2E2E2E2E2E2E2E2E2E2E2E2E2E2E2E2E2E2E2E2E2E2E2E2E2E2E2E2E2E2E2E2E2E2E2E2E2E2E2E2E2E2E2E2E2E2E2E2E2E2E2E2E2E2E2E2E2E2E2E2E2E2E2E2E2E2E2E2E2E2E2E2E2E2E2E2E2E2E2E2E2E2E2E2E2E2E2E2E2E2E2E2E2E2E2E2E2E2E2E2E2E2E2
310
E2E2E2E2E2E2E2E2E2E2E2E2E2E2E2E2E2E2E2E2E2E2E2E2E2E2E2E2E2E2E2E2E2E2E2E2E2E2E2E2E2E2E2E2E2E2E2E2E2E2E2E2E2E2E2E2E2E2E2E2E2E2E2E2E2E2E2E2E2E2E2E2E2E2E2E2E2E2E2E2E2E2E2E2E2E2E2E2E2E2E2E2E2E2E2E2E2E2E2E2E2E2E2E2E2E2E2E2E2E2E2E2E2E2E2E2E2E2E2E2E2E2E2E2E2E2E2
310
E2E2E2E2E2E2E2E2E2E2E2E2E2E2E2E2E2E2E2E2E2E2E2E2E2E2E2E2E2E2E2E2E2E2E2E2E2E2E2E2E2E2E2E2E2E2E2E2E2E2E2E2E2E2E2E2E2E2E2E2E2E2E2E2E2E2E2E2E2E2E2E2E2E2E2E2E2E2E2E2E2E2E2E2E2E2E2E2E2E2E2E2E2E2E2E2E2E2E2E2E2E2E2E2E2E2E2E2E2E2E2E2E2E2E2E2E2E2E2E2E2E2E2E2E2E2E2
310
E2E2E2E2E2E2E2E2E2E2E2E2E2E2E2E2E2E2E2E2E2E2E2E2E2E2E2E2E2E2E2E2E2E2E2E2E2E2E2E2E2E2E2E2E2E2E2E2E2E2E2E2E2E2E2E2E2E2E2E2E2E2E2E2E2E2E2E2E2E2E2E2E2E2E2E2E2E2E2E2E2E2E2E2E2E2E2E2E2E2E2E2E2E2E2E2E2E2E2E2E2E2E2E2E2E2E2E2E2E2E2E2E2E2E2E2E2E2E2E2E2E2E2E2E2E2E2
310
E2E2E2E2E2E2E2E2E2E2E2E2E2E2E2E2E2E2E2E2E2E2E2E2E2E2E2E2E2E2E2E2E2E2E2E2E2E2E2E2E2E2E2E2E2E2E2E2E2E2E2E2E2E2E2E2E2E2E2E2E2E2E2E2E2E2E2E2E2E2E2E2E2E2E2E2E2E2E2E2E2E2E2E2E2E2E2E2E2E2E2E2E2E2E2E2E2E2E2E2E2E2E2E2E2E2E2E2E2E2E2E2E2E2E2E2E2E2E2E2E2E2E2E2E2E2E2
310
E2E2E2E2E2E2E2E2E2E2E2E2E2E2E2E2E2E2E2E2E2E2E2E2E2E2E2E2E2E2E2E2E2E2E2E2E2E2E2E2E2E2E2E2E2E2E2E2E2E2E2E2E2E2E2E2E2E2E2E2E2E2E2E2E2E2E2E2E2E2E2E2E2E2E2E2E2E2E2E2E2E2E2E2E2E2E2E2E2E2E2E2E2E2E2E2E2E2E2E2E2E2E2E2E2E2E2E2E2E2E2E2E2E2E2E2E2E2E2E2E2E2E2E2E2E2E2
310
E2E2E2E2E2E2E2E2E2E2E2E2E2E2E2E2E2E2E2E2E2E2E2E2E2E2E2E2E2E2E2E2E2E2E2E2E2E2E2E2E2E2E2E2E2E2E2E2E2E2E2E2E2E2E2E2E2E2E2E2E2E2E2E2E2E2E2E2E2E2E2E2E2E2E2E2E2E2E2E2E2E2E2E2E2E2E2E2E2E2E2E2E2E2E2E2E2E2E2E2E2E2E2E2E2E2E2E2E2E2E2E2E2E2E2E2E2E2E2E2E2E2E2E2E2E2E2
310
E2E2E2E2E2E2E2E2E2E2E2E2E2E2E2E2E2E2E2E2E2E2E2E2E2E2E2E2E2E2E2E2E2E2E2E2E2E2E2E2E2E2E2E2E2E2E2E2E2E2E2E2E2E2E2E2E2E2E2E2E2E2E2E2E2E2E2E2E2E2E2E2E2E2E2E2E2E2E2E2E2E2E2E2E2E2E2E2E2E2E2E2E2E2E2E2E2E2E2E2E2E2E2E2E2E2E2E2E2E2E2E2E2E2E2E2E2E2E2E2E2E2E2E2E2E2E2
310
E2E2E2E2E2E2E2E2E2E2E2E2E2E2E2E2E2E2E2E2E2E2E2E2E2E2E2E2E2E2E2E2E2E2E2E2E2E2E2E2E2E2E2E2E2E2E2E2E2E2E2E2E2E2E2E2E2E2E2E2E2E2E2E2E2E2E2E2E2E2E2E2E2E2E2E2E2E2E2E2E2E2E2E2E2E2E2E2E2E2E2E2E2E2E2E2E2E2E2E2E2E2E2E2E2E2E2E2E2E2E2E2E2E2E2E2E2E2E2E2E2E2E2E2E2E2E2
310
E2E2E2E2E2E2E2E2E2E2E2E2E2E2E2E2E2E2E2E2E2E2E2E2E2E2E2E2E2E2E2E2E2E2E2E2E2E2E2E2E2E2E2E2E2E2E2E2E2E2E2E2E2E2E2E2E2E2E2E2E2E2E2E2E2E2E2E2E2E2E2E2E2E2E2E2E2E2E2E2E2E2E2E2E2E2E2E2E2E2E2E2E2E2E2E2E2E2E2E2E2E2E2E2E2E2E2E2E2E2E2E2E2E2E2E2E2E2E2E2E2E2E2E2E2E2E2
310
E2E2E2E2E2E2E2E2E2E2E2E2E2E2E2E2E2E2E2E2E2E2E2E2E2E2E2E2E2E2E2E2E2E2E2E2E2E2E2E2E2E2E2E2E2E2E2E2E2E2E2E2E2E2E2E2E2E2E2E2E2E2E2E2E2E2E2E2E2E2E2E2E2E2E2E2E2E2E2E2E2E2E2E2E2E2E2E2E2E2E2E2E2E2E2E2E2E2E2E2E2E2E2E2E2E2E2E2E2E2E2E2E2E2E2E2E2E2E2E2E2E2E2E2E2E2E2
310
E2E2E2E2E2E2E2E2E2E2E2E2E2E2E2E2E2E2E2E2E2E2E2E2E2E2E2E2E2E2E2E2E2E2E2E2E2E2E2E2E2E2E2E2E2E2E2E2E2E2E2E2E2E2E2E2E2E2E2E2E2E2E2E2E2E2E2E2E2E2E2E2E2E2E2E2E2E2E2E2E2E2E2E2E2E2E2E2E2E2E2E2E2E2E2E2E2E2E2E2E2E2E2E2E2E2E2E2E2E2E2E2E2E2E2E2E2E2E2E2E2E2E2E2E2E2E2
310
E2E2E2E2E2E2E2E2E2E2E2E2E2E2E2E2E2E2E2E2E2E2E2E2E2E2E2E2E2E2E2E2E2E2E2E2E2E2E2E2E2E2E2E2E2E2E2E2E2E2E2E2E2E2E2E2E2E2E2E2E2E2E2E2E2E2E2E2E2E2E2E2E2E2E2E2E2E2E2E2E2E2E2E2E2E2E2E2E2E2E2E2E2E2E2E2E2E2E2E2E2E2E2E2E2E2E2E2E2E2E2E2E2E2E2E2E2E2E2E2E2E2E2E2E2E2E2
310
E2E2E2E2E2E2E2E2E2E2E2E2E2E2E2E2E2E2E2E2E2E2E2E2E2E2E2E2E2E2E2E2E2E2E2E2E2E2E2E2E2E2E2E2E2E2E2E2E2E2E2E2E2E2E2E2E2E2E2E2E2E2E2E2E2E2E2E2E2E2E2E2E2E2E2E2E2E2E2E2E2E2E2E2E2E2E2E2E2E2E2E2E2E2E2E2E2E2E2E2E2E2E2E2E2E2E2E2E2E2E2E2E2E2E2E2E2E2E2E2E2E2E2E2E2E2E2
310
E2E2E2E2E2E2E2E2E2E2E2E2E2E2E2E2E2E2E2E2E2E2E2E2E2E2E2E2E2E2E2E2E2E2E2E2E2E2E2E2E2E2E2E2E2E2E2E2E2E2E2E2E2E2E2E2E2E2E2E2E2E2E2E2E2E2E2E2E2E2E2E2E2E2E2E2E2E2E2E2E2E2E2E2E2E2E2E2E2E2E2E2E2E2E2E2E2E2E2E2E2E2E2E2E2E2E2E2E2E2E2E2E2E2E2E2E2E2E2E2E2E2E2E2E2E2E2
310
E2E2E2E2E2E2E2E2E2E2E2E2E2E2E2E2E2E2E2E2E2E2E2E2E2E2E2E2E2E2E2E2E2E2E2E2E2E2E2E2E2E2E2E2E2E2E2E2E2E2E2E2E2E2E2E2E2E2E2E2E2E2E2E2E2E2E2E2E2E2E2E2E2E2E2E2E2E2E2E2E2E2E2E2E2E2E2E2E2E2E2E2E2E2E2E2E2E2E2E2E2E2E2E2E2E2E2E2E2E2E2E2E2E2E2E2E2E2E2E2E2E2E2E2E2E2E2
310
E2E2E2E2E2E2E2E2E2E2E2E2E2E2E2E2E2E2E2E2E2E2E2E2E2E2E2E2E2E2E2E2E2E2E2E2E2E2E2E2E2E2E2E2E2E2E2E2E2E2E2E2E2E2E2E2E2E2E2E2E2E2E2E2E2E2E2E2E2E2E2E2E2E2E2E2E2E2E2E2E2E2E2E2E2E2E2E2E2E2E2E2E2E2E2E2E2E2E2E2E2E2E2E2E2E2E2E2E2E2E2E2E2E2E2E2E2E2E2E2E2E2E2E2E2E2E2
310
E2E2E2E2E2E2E2E2E2E2E2E2E2E2E2E2E2E2E2E2E2E2E2E2E2E2E2E2E2E2E2E2E2E2E2E2E2E2E2E2E2E2E2E2E2E2E2E2E2E2E2E2E2E2E2E2E2E2E2E2E2E2E2E2E2E2E2E2E2E2E2E2E2E2E2E2E2E2E2E2E2E2E2E2E2E2E2E2E2E2E2E2E2E2E2E2E2E2E2E2E2E2E2E2E2E2E2E2E2E2E2E2E2E2E2E2E2E2E2E2E2E2E2E2E2E2E2
310
E2E2E2E2E2E2E2E2E2E2E2E2E2E2E2E2E2E2E2E2E2E2E2E2E2E2E2E2E2E2E2E2E2E2E2E2E2E2E2E2E2E2E2E2E2E2E2E2E2E2E2E2E2E2E2E2E2E2E2E2E2E2E2E2E2E2E2E2E2E2E2E2E2E2E2E2E2E2E2E2E2E2E2E2E2E2E2E2E2E2E2E2E2E2E2E2E2E2E2E2E2E2E2E2E2E2E2E2E2E2E2E2E2E2E2E2E2E2E2E2E2E2E2E2E2E2E2
310
E2E2E2E2E2E2E2E2E2E2E2E2E2E2E2E2E2E2E2E2E2E2E2E2E2E2E2E2E2E2E2E2E2E2E2E2E2E2E2E2E2E2E2E2E2E2E2E2E2E2E2E2E2E2E2E2E2E2E2E2E2E2E2E2E2E2E2E2E2E2E2E2E2E2E2E2E2E2E2E2E2E2E2E2E2E2E2E2E2E2E2E2E2E2E2E2E2E2E2E2E2E2E2E2E2E2E2E2E2E2E2E2E2E2E2E2E2E2E2E2E2E2E2E2E2E2E2
310
E2E2E2E2E2E2E2E2E2E2E2E2E2E2E2E2E2E2E2E2E2E2E2E2E2E2E2E2E2E2E2E2E2E2E2E2E2E2E2E2E2E2E2E2E2E2E2E2E2E2E2E2E2E2E2E2E2E2E2E2E2E2E2E2E2E2E2E2E2E2E2E2E2E2E2E2E2E2E2E2E2E2E2E2E2E2E2E2E2E2E2E2E2E2E2E2E2E2E2E2E2E2E2E2E2E2E2E2E2E2E2E2E2E2E2E2E2E2E2E2E2E2E2E2E2E2E2
310
E2E2E2E2E2E2E2E2E2E2E2E2E2E2E2E2E2E2E2E2E2E2E2E2E2E2E2E2E2E2E2E2E2E2E2E2E2E2E2E2E2E2E2E2E2E2E2E2E2E2E2E2E2E2E2E2E2E2E2E2E2E2E2E2E2E2E2E2E2E2E2E2E2E2E2E2E2E2E2E2E2E2E2E2E2E2E2E2E2E2E2E2E2E2E2E2E2E2E2E2E2E2E2E2E2E2E2E2E2E2E2E2E2E2E2E2E2E2E2E2E2E2E2E2E2E2E2
310
E2E2E2E2E2E2E2E2E2E2E2E2E2E2E2E2E2E2E2E2E2E2E2E2E2E2E2E2E2E2E2E2E2E2E2E2E2E2E2E2E2E2E2E2E2E2E2E2E2E2E2E2E2E2E2E2E2E2E2E2E2E2E2E2E2E2E2E2E2E2E2E2E2E2E2E2E2E2E2E2E2E2E2E2E2E2E2E2E2E2E2E2E2E2E2E2E2E2E2E2E2E2E2E2E2E2E2E2E2E2E2E2E2E2E2E2E2E2E2E2E2E2E2E2E2E2E2
310
E2E2E2E2E2E2E2E2E2E2E2E2E2E2E2E2E2E2E2E2E2E2E2E2E2E2E2E2E2E2E2E2E2E2E2E2E2E2E2E2E2E2E2E2E2E2E2E2E2E2E2E2E2E2E2E2E2E2E2E2E2E2E2E2E2E2E2E2E2E2E2E2E2E2E2E2E2E2E2E2E2E2E2E2E2E2E2E2E2E2E2E2E2E2E2E2E2E2E2E2E2E2E2E2E2E2E2E2E2E2E2E2E2E2E2E2E2E2E2E2E2E2E2E2E2E2E2
310
E2E2E2E2E2E2E2E2E2E2E2E2E2E2E2E2E2E2E2E2E2E2E2E2E2E2E2E2E2E2E2E2E2E2E2E2E2E2E2E2E2E2E2E2E2E2E2E2E2E2E2E2E2E2E2E2E2E2E2E2E2E2E2E2E2E2E2E2E2E2E2E2E2E2E2E2E2E2E2E2E2E2E2E2E2E2E2E2E2E2E2E2E2E2E2E2E2E2E2E2E2E2E2E2E2E2E2E2E2E2E2E2E2E2E2E2E2E2E2E2E2E2E2E2E2E2E2
310
E2E2E2E2E2E2E2E2E2E2E2E2E2E2E2E2E2E2E2E2E2E2E2E2E2E2E2E2E2E2E2E2E2E2E2E2E2E2E2E2E2E2E2E2E2E2E2E2E2E2E2E2E2E2E2E2E2E2E2E2E2E2E2E2E2E2E2E2E2E2E2E2E2E2E2E2E2E2E2E2E2E2E2E2E2E2E2E2E2E2E2E2E2E2E2E2E2E2E2E2E2E2E2E2E2E2E2E2E2E2E2E2E2E2E2E2E2E2E2E2E2E2E2E2E2E2E2
310
E2E2E2E2E2E2E2E2E2E2E2E2E2E2E2E2E2E2E2E2E2E2E2E2E2E2E2E2E2E2E2E2E2E2E2E2E2E2E2E2E2E2E2E2E2E2E2E2E2E2E2E2E2E2E2E2E2E2E2E2E2E2E2E2E2E2E2E2E2E2E2E2E2E2E2E2E2E2E2E2E2E2E2E2E2E2E2E2E2E2E2E2E2E2E2E2E2E2E2E2E2E2E2E2E2E2E2E2E2E2E2E2E2E2E2E2E2E2E2E2E2E2E2E2E2E2E2
310
E2E2E2E2E2E2E2E2E2E2E2E2E2E2E2E2E2E2E2E2E2E2E2E2E2E2E2E2E2E2E2E2E2E2E2E2E2E2E2E2E2E2E2E2E2E2E2E2E2E2E2E2E2E2E2E2E2E2E2E2E2E2E2E2E2E2E2E2E2E2E2E2E2E2E2E2E2E2E2E2E2E2E2E2E2E2E2E2E2E2E2E2E2E2E2E2E2E2E2E2E2E2E2E2E2E2E2E2E2E2E2E2E2E2E2E2E2E2E2E2E2E2E2E2E2E2E2
310
E2E2E2E2E2E2E2E2E2E2E2E2E2E2E2E2E2E2E2E2E2E2E2E2E2E2E2E2E2E2E2E2E2E2E2E2E2E2E2E2E2E2E2E2E2E2E2E2E2E2E2E2E2E2E2E2E2E2E2E2E2E2E2E2E2E2E2E2E2E2E2E2E2E2E2E2E2E2E2E2E2E2E2E2E2E2E2E2E2E2E2E2E2E2E2E2E2E2E2E2E2E2E2E2E2E2E2E2E2E2E2E2E2E2E2E2E2E2E2E2E2E2E2E2E2E2E2
310
E2E2E2E2E2E2E2E2E2E2E2E2E2E2E2E2E2E2E2E2E2E2E2E2E2E2E2E2E2E2E2E2E2E2E2E2E2E2E2E2E2E2E2E2E2E2E2E2E2E2E2E2E2E2E2E2E2E2E2E2E2E2E2E2E2E2E2E2E2E2E2E2E2E2E2E2E2E2E2E2E2E2E2E2E2E2E2E2E2E2E2E2E2E2E2E2E2E2E2E2E2E2E2E2E2E2E2E2E2E2E2E2E2E2E2E2E2E2E2E2E2E2E2E2E2E2E2
310
E2E2E2E2E2E2E2E2E2E2E2E2E2E2E2E2E2E2E2E2E2E2E2E2E2E2E2E2E2E2E2E2E2E2E2E2E2E2E2E2E2E2E2E2E2E2E2E2E2E2E2E2E2E2E2E2E2E2E2E2E2E2E2E2E2E2E2E2E2E2E2E2E2E2E2E2E2E2E2E2E2E2E2E2E2E2E2E2E2E2E2E2E2E2E2E2E2E2E2E2E2E2E2E2E2E2E2E2E2E2E2E2E2E2E2E2E2E2E2E2E2E2E2E2E2E2E2
310
E2E2E2E2E2E2E2E2E2E2E2E2E2E2E2E2E2E2E2E2E2E2E2E2E2E2E2E2E2E2E2E2E2E2E2E2E2E2E2E2E2E2E2E2E2E2E2E2E2E2E2E2E2E2E2E2E2E2E2E2E2E2E2E2E2E2E2E2E2E2E2E2E2E2E2E2E2E2E2E2E2E2E2E2E2E2E2E2E2E2E2E2E2E2E2E2E2E2E2E2E2E2E2E2E2E2E2E2E2E2E2E2E2E2E2E2E2E2E2E2E2E2E2E2E2E2E2
310
E2E2E2E2E2E2E2E2E2E2E2E2E2E2E2E2E2E2E2E2E2E2E2E2E2E2E2E2E2E2E2E2E2E2E2E2E2E2E2E2E2E2E2E2E2E2E2E2E2E2E2E2E2E2E2E2E2E2E2E2E2E2E2E2E2E2E2E2E2E2E2E2E2E2E2E2E2E2E2E2E2E2E2E2E2E2E2E2E2E2E2E2E2E2E2E2E2E2E2E2E2E2E2E2E2E2E2E2E2E2E2E2E2E2E2E2E2E2E2E2E2E2E2E2E2E2E2
310
E2E2E2E2E2E2E2E2E2E2E2E2E2E2E2E2E2E2E2E2E2E2E2E2E2E2E2E2E2E2E2E2E2E2E2E2E2E2E2E2E2E2E2E2E2E2E2E2E2E2E2E2E2E2E2E2E2E2E2E2E2E2E2E2E2E2E2E2E2E2E2E2E2E2E2E2E2E2E2E2E2E2E2E2E2E2E2E2E2E2E2E2E2E2E2E2E2E2E2E2E2E2E2E2E2E2E2E2E2E2E2E2E2E2E2E2E2E2E2E2E2E2E2E2E2E2E2
310
E2E2E2E2E2E2E2E2E2E2E2E2E2E2E2E2E2E2E2E2E2E2E2E2E2E2E2E2E2E2E2E2E2E2E2E2E2E2E2E2E2E2E2E2E2E2E2E2E2E2E2E2E2E2E2E2E2E2E2E2E2E2E2E2E2E2E2E2E2E2E2E2E2E2E2E2E2E2E2E2E2E2E2E2E2E2E2E2E2E2E2E2E2E2E2E2E2E2E2E2E2E2E2E2E2E2E2E2E2E2E2E2E2E2E2E2E2E2E2E2E2E2E2E2E2E2E2
310
E2E2E2E2E2E2E2E2E2E2E2E2E2E2E2E2E2E2E2E2E2E2E2E2E2E2E2E2E2E2E2E2E2E2E2E2E2E2E2E2E2E2E2E2E2E2E2E2E2E2E2E2E2E2E2E2E2E2E2E2E2E2E2E2E2E2E2E2E2E2E2E2E2E2E2E2E2E2E2E2E2E2E2E2E2E2E2E2E2E2E2E2E2E2E2E2E2E2E2E2E2E2E2E2E2E2E2E2E2E2E2E2E2E2E2E2E2E2E2E2E2E2E2E2E2E2E2
310
E2E2E2E2E2E2E2E2E2E2E2E2E2E2E2E2E2E2E2E2E2E2E2E2E2E2E2E2E2E2E2E2E2E2E2E2E2E2E2E2E2E2E2E2E2E2E2E2E2E2E2E2E2E2E2E2E2E2E2E2E2E2E2E2E2E2E2E2E2E2E2E2E2E2E2E2E2E2E2E2E2E2E2E2E2E2E2E2E2E2E2E2E2E2E2E2E2E2E2E2E2E2E2E2E2E2E2E2E2E2E2E2E2E2E2E2E2E2E2E2E2E2E2E2E2E2E2
310
E2E2E2E2E2E2E2E2E2E2E2E2E2E2E2E2E2E2E2E2E2E2E2E2E2E2E2E2E2E2E2E2E2E2E2E2E2E2E2E2E2E2E2E2E2E2E2E2E2E2E2E2E2E2E2E2E2E2E2E2E2E2E2E2E2E2E2E2E2E2E2E2E2E2E2E2E2E2E2E2E2E2E2E2E2E2E2E2E2E2E2E2E2E2E2E2E2E2E2E2E2E2E2E2E2E2E2E2E2E2E2E2E2E2E2E2E2E2E2E2E2E2E2E2E2E2E2
310
E2E2E2E2E2E2E2E2E2E2E2E2E2E2E2E2E2E2E2E2E2E2E2E2E2E2E2E2E2E2E2E2E2E2E2E2E2E2E2E2E2E2E2E2E2E2E2E2E2E2E2E2E2E2E2E2E2E2E2E2E2E2E2E2E2E2E2E2E2E2E2E2E2E2E2E2E2E2E2E2E2E2E2E2E2E2E2E2E2E2E2E2E2E2E2E2E2E2E2E2E2E2E2E2E2E2E2E2E2E2E2E2E2E2E2E2E2E2E2E2E2E2E2E2E2E2E2
310
E2E2E2E2E2E2E2E2E2E2E2E2E2E2E2E2E2E2E2E2E2E2E2E2E2E2E2E2E2E2E2E2E2E2E2E2E2E2E2E2E2E2E2E2E2E2E2E2E2E2E2E2E2E2E2E2E2E2E2E2E2E2E2E2E2E2E2E2E2E2E2E2E2E2E2E2E2E2E2E2E2E2E2E2E2E2E2E2E2E2E2E2E2E2E2E2E2E2E2E2E2E2E2E2E2E2E2E2E2E2E2E2E2E2E2E2E2E2E2E2E2E2E2E2E2E2E2
310
E2E2E2E2E2E2E2E2E2E2E2E2E2E2E2E2E2E2E2E2E2E2E2E2E2E2E2E2E2E2E2E2E2E2E2E2E2E2E2E2E2E2E2E2E2E2E2E2E2E2E2E2E2E2E2E2E2E2E2E2E2E2E2E2E2E2E2E2E2E2E2E2E2E2E2E2E2E2E2E2E2E2E2E2E2E2E2E2E2E2E2E2E2E2E2E2E2E2E2E2E2E2E2E2E2E2E2E2E2E2E2E2E2E2E2E2E2E2E2E2E2E2E2E2E2E2E2
310
E2E2E2E2E2E2E2E2E2E2E2E2E2E2E2E2E2E2E2E2E2E2E2E2E2E2E2E2E2E2E2E2E2E2E2E2E2E2E2E2E2E2E2E2E2E2E2E2E2E2E2E2E2E2E2E2E2E2E2E2E2E2E2E2E2E2E2E2E2E2E2E2E2E2E2E2E2E2E2E2E2E2E2E2E2E2E2E2E2E2E2E2E2E2E2E2E2E2E2E2E2E2E2E2E2E2E2E2E2E2E2E2E2E2E2E2E2E2E2E2E2E2E2E2E2E2E2
310
E2E2E2E2E2E2E2E2E2E2E2E2E2E2E2E2E2E2E2E2E2E2E2E2E2E2E2E2E2E2E2E2E2E2E2E2E2E2E2E2E2E2E2E2E2E2E2E2E2E2E2E2E2E2E2E2E2E2E2E2E2E2E2E2E2E2E2E2E2E2E2E2E2E2E2E2E2E2E2E2E2E2E2E2E2E2E2E2E2E2E2E2E2E2E2E2E2E2E2E2E2E2E2E2E2E2E2E2E2E2E2E2E2E2E2E2E2E2E2E2E2E2E2E2E2E2E2
310
E2E2E2E2E2E2E2E2E2E2E2E2E2E2E2E2E2E2E2E2E2E2E2E2E2E2E2E2E2E2E2E2E2E2E2E2E2E2E2E2E2E2E2E2E2E2E2E2E2E2E2E2E2E2E2E2E2E2E2E2E2E2E2E2E2E2E2E2E2E2E2E2E2E2E2E2E2E2E2E2E2E2E2E2E2E2E2E2E2E2E2E2E2E2E2E2E2E2E2E2E2E2E2E2E2E2E2E2E2E2E2E2E2E2E2E2E2E2E2E2E2E2E2E2E2E2E2
310
E2E2E2E2E2E2E2E2E2E2E2E2E2E2E2E2E2E2E2E2E2E2E2E2E2E2E2E2E2E2E2E2E2E2E2E2E2E2E2E2E2E2E2E2E2E2E2E2E2E2E2E2E2E2E2E2E2E2E2E2E2E2E2E2E2E2E2E2E2E2E2E2E2E2E2E2E2E2E2E2E2E2E2E2E2E2E2E2E2E2E2E2E2E2E2E2E2E2E2E2E2E2E2E2E2E2E2E2E2E2E2E2E2E2E2E2E2E2E2E2E2E2E2E2E2E2E2
310
E2E2E2E2E2E2E2E2E2E2E2E2E2E2E2E2E2E2E2E2E2E2E2E2E2E2E2E2E2E2E2E2E2E2E2E2E2E2E2E2E2E2E2E2E2E2E2E2E2E2E2E2E2E2E2E2E2E2E2E2E2E2E2E2E2E2E2E2E2E2E2E2E2E2E2E2E2E2E2E2E2E2E2E2E2E2E2E2E2E2E2E2E2E2E2E2E2E2E2E2E2E2E2E2E2E2E2E2E2E2E2E2E2E2E2E2E2E2E2E2E2E2E2E2E2E2E2
310
E2E2E2E2E2E2E2E2E2E2E2E2E2E2E2E2E2E2E2E2E2E2E2E2E2E2E2E2E2E2E2E2E2E2E2E2E2E2E2E2E2E2E2E2E2E2E2E2E2E2E2E2E2E2E2E2E2E2E2E2E2E2E2E2E2E2E2E2E2E2E2E2E2E2E2E2E2E2E2E2E2E2E2E2E2E2E2E2E2E2E2E2E2E2E2E2E2E2E2E2E2E2E2E2E2E2E2E2E2E2E2E2E2E2E2E2E2E2E2E2E2E2E2E2E2E2E2
310
E2E2E2E2E2E2E2E2E2E2E2E2E2E2E2E2E2E2E2E2E2E2E2E2E2E2E2E2E2E2E2E2E2E2E2E2E2E2E2E2E2E2E2E2E2E2E2E2E2E2E2E2E2E2E2E2E2E2E2E2E2E2E2E2E2E2E2E2E2E2E2E2E2E2E2E2E2E2E2E2E2E2E2E2E2E2E2E2E2E2E2E2E2E2E2E2E2E2E2E2E2E2E2E2E2E2E2E2E2E2E2E2E2E2E2E2E2E2E2E2E2E2E2E2E2E2E2
310
E2E2E2E2E2E2E2E2E2E2E2E2E2E2E2E2E2E2E2E2E2E2E2E2E2E2E2E2E2E2E2E2E2E2E2E2E2E2E2E2E2E2E2E2E2E2E2E2E2E2E2E2E2E2E2E2E2E2E2E2E2E2E2E2E2E2E2E2E2E2E2E2E2E2E2E2E2E2E2E2E2E2E2E2E2E2E2E2E2F5F5F5E2E2E2E2E2E2E2E2E2E2E2E2E2E2E2E2E2E2E2E2E2E2F5F5F5F5E2E2E2E2E2E2E2E2E2
310
E2E2E2E2E2E2E2E2E2E2E2E2E2E2E2E2E2E2E2E2E2E2E2E2E2E2E2E2E2E2E2E2E2E2E2E2E2E2E2E2E2E2E2E2E2E2E2E2E2E2E2E2E2E2E2E2E2E2E2E2E2E2E2E2E2E2E2E2E2E2E2E2E2E2E2E2E2E2E2E2E2E2E2E2E2E2E2E2E2E2E2E2E2E2E2E2E2E2E2E2E2E2E2E2E2E2E2E2E2E2E2E2E2E2E2E2E2E2E2E2E2E2E2E2E2E2E2
310
E2E2E2E2E2E2E2E2E2E2E2E2E2E2E2E2E2E2E2E2E2E2E2E2E2E2E2E2E2E2E2E2E2E2E2E2E2E2E2E2E2E2E2E2E2E2E2E2E2E2E2E2E2E2E2E2E2E2E2E2E2E2E2E2E2E2E2E2E2E2E2E2E2E2E2E2E2E2E2E2E2E2E2E2E2E2E2E2E2F5F5E2F5E2F5F5E2E2E2E2E2E2E2E2E2E2E2E2E2E2E2E2E2E2E2F5F5E2F5F5F5E2E2E2E2E2E2
310
E2E2E2E2E2E2E2E2E2E2E2E2E2E2E2E2E2E2E2E2E2E2E2E2E2E2E2E2E2E2E2E2E2E2E2E2E2E2E2E2E2E2E2E2E2E2E2E2E2E2E2E2E2E2E2E2E2E2E2E2E2E2E2E2E2E2E2E2E2E2E2E2E2E2E2E2E2E2E2E2E2E2E2E2E2E2E2E2E2E2E2E2E2E2E2E2E2E2E2E2E2E2E2E2E2E2E2E2E2E2E2E2E2E2E2E2E2E2E2E2E2E2E2E2E2E2E2
310
E2E2E2E2E2E2E2E2E2E2E2E2E2E2E2E2E2E2E2E2E2E2E2E2E2E2E2E2E2E2E2E2E2E2E2E2E2E2E2E2E2E2E2E2E2E2E2E2E2E2E2E2E2E2E2E2E2E2E2E2E2E2E2E2E2E2E2E2E2E2E2E2E2E2E2E2E2E2E2E2E2E2E2E2E2E2E2E2E2E2F5F5F5F5F5F5F5F5F5E2E2E2E2E2E2E2E2E2E2E2E2E2E2E2E2F5E2F5F5E2F5F5F5E2F5E2E2
310
E2E2E2E2E2E2E2E2E2E2E2E2E2E2E2E2E2E2E2E2E2E2E2E2E2E2E2E2E2E2E2E2E2E2E2E2E2E2E2E2E2E2E2E2E2E2E2E2E2E2E2E2E2E2E2E2E2E2E2E2E2E2E2E2E2E2E2E2E2E2E2E2E2E2E2E2E2E2E2E2E2E2E2E2E2E2E2E2E2E2E2E2E2E2E2E2E2E2E2E2E2E2E2E2E2E2E2E2E2E2E2E2E2E2E2E2E2E2E2E2E2E2E2E2E2E2E2
310
E2E2E2E2E2E2E2E2E2E2E2E2E2E2E2E2E2E2E2E2E2E2E2E2E2E2E2E2E2E2E2E2E2E2E2E2E2E2E2E2E2E2E2E2E2E2E2E2E2E2E2E2E2E2E2E2E2E2E2E2E2E2E2E2E2E2E2E2E2E2E2E2E2E2E2E2E2E2E2E2E2E2E2E2E2E2E2E2E2E2E2F5E2F5F5F5F5F5F5F5E2F5E2E2E2E2E2E2E2E2E2E2E2E2E2E2E2F5F5F5F5E2F5F5F5F5F5
310
E2E2E2E2E2E2E2E2E2E2E2E2E2E2E2E2E2E2E2E2E2E2E2E2E2E2E2E2E2E2E2E2E2E2E2E2E2E2E2E2E2E2E2E2E2E2E2E2E2E2E2E2E2E2E2E2E2E2E2E2E2E2E2E2E2E2E2E2E2E2E2E2E2E2E2E2E2E2E2E2E2E2E2E2E2E2E2E2E2E2E2E2E2E2E2E2E2E2E2E2E2E2E2E2E2E2E2E2E2E2E2E2E2E2E2E2E2E2E2E2E2E2E2E2E2E2E2
310
E2E2E2E2E2E2E2E2E2E2E2E2E2E2E2E2E2E2E2E2E2E2E2E2E2E2E2E2E2E2E2E2E2E2E2E2E2E2E2E2E2E2E2E2E2E2E2E2E2E2E2E2E2E2E2E2E2E2E2E2E2E2E2E2E2E2E2E2E2E2E2E2E2E2E2E2E2E2E2E2E2E2E2E2E2E2E2E2E2E2E2E2F5E2F5F5E2E2F5E2F5F5F5E2F5E2E2E2E2E2E2E2E2E2E2E2E2E2E2F5E2F5F5E2F5F5F5
310
E2F5E2E2E2E2E2E2E2E2E2E2E2E2E2E2E2E2E2E2E2E2E2E2E2E2E2E2E2E2E2E2E2E2E2E2E2E2E2E2E2E2E2E2E2E2E2E2E2E2E2E2E2E2E2E2E2E2E2E2E2E2E2E2E2E2E2E2E2E2E2E2E2E2E2E2E2E2E2E2E2E2E2E2E2E2E2E2E2E2E2E2E2E2E2E2E2E2E2E2E2E2E2E2E2E2E2E2E2E2E2E2E2E2E2E2E2E2E2E2E2E2E2E2E2E2E2
310
E2E2E2E2E2E2E2E2E2E2E2E2E2E2E2E2E2E2E2E2E2E2E2E2E2E2E2E2E2E2E2E2E2E2E2E2E2E2E2E2E2E2E2E2E2E2E2E2E2E2E2E2E2E2E2E2E2E2E2E2E2E2E2E2E2E2E2E2E2E2E2E2E2E2E2E2E2E2E2E2E2E2E2E2E2E2E2E2E2E2E2E2E2E2F5F5F5E2E2E2F5E2E2F5E2F5F5E2E2E2E2E2E2E2E2E2E2E2E2E2E2F5E2F5F5E2F5
310
F5F5E2F5E2E2E2E2E2E2E2E2E2E2E2E2E2E2E2E2E2E2E2E2E2E2E2E2E2E2E2E2E2E2E2E2E2E2E2E2E2E2E2E2E2E2E2E2E2E2E2E2E2E2E2E2E2E2E2E2E2E2E2E2E2E2E2E2E2E2E2E2E2E2E2E2E2E2E2E2E2E2E2E2E2E2E2E2E2E2E2E2E2E2E2E2E2E2E2E2E2E2E2E2E2E2E2E2E2E2E2E2E2E2E2E2E2E2E2E2E2E2E2E2E2E2E2
310
E2E2E2E2E2E2E2E2E2E2E2E2E2E2E2E2E2E2E2E2E2E2E2E2E2E2E2E2E2E2E2E2E2E2E2E2E2E2E2E2E2E2E2E2E2E2E2E2E2E2E2E2E2E2E2E2E2E2E2E2E2E2E2E2E2E2E2E2E2E2E2E2E2E2E2E2E2E2E2E2E2E2E2E2E2E2E2E2E2E2E2E2E2E2E2E2F5F5F5E2E2E2F5E2E2E2F5F5F5E2E2E2E2E2E2E2E2E2E2E2E2E2E2F5E2F5F5
310
E2F5F5F5E2F5E2E2E2E2E2E2E2E2E2E2E2E2E2E2E2E2E2E2E2E2E2E2E2E2E2E2E2E2E2E2E2E2E2E2E2E2E2E2E2E2E2E2E2E2E2E2E2E2E2E2E2E2E2E2E2E2E2E2E2E2E2E2E2E2E2E2E2E2E2E2E2E2E2E2E2E2E2E2E2E2E2E2E2E2E2E2E2E2E2E2E2E2E2E2E2E2E2E2E2E2E2E2E2E2E2E2E2E2E2E2E2E2E2E2E2E2E2E2E2E2E2
310
E2E2E2E2E2E2E2E2E2E2E2E2E2E2E2E2E2E2E2E2E2E2E2E2E2E2E2E2E2E2E2E2E2E2E2E2E2E2E2E2E2E2E2E2E2E2E2E2E2E2E2E2E2E2E2E2E2E2E2E2E2E2E2E2E2E2E2E2E2E2E2E2E2E2E2E2E2E2E2E2E2E2E2E2E2E2E2E2E2E2E2E2E2E2E2E2E2F5F5F5F5F5F5F5F5F5F5F5F5F5F5F5E2E2E2E2E2E2E2E2E2E2E2E2F5F5F5
310
F5F5F5F5F5F5F5F5F5E2E2E2E2E2E2E2E2E2E2E2E2E2E2E2E2E2E2E2E2E2E2E2E2E2E2E2E2E2E2E2E2E2E2E2E2E2E2E2E2E2E2E2E2E2E2E2E2E2E2E2E2E2E2E2E2E2E2E2E2E2E2E2E2E2E2E2E2E2E2E2E2E2E2E2E2E2E2E2E2E2E2E2E2E2E2E2E2E2E2E2E2E2E2E2E2E2E2E2E2E2E2E2E2E2E2E2E2E2E2E2E2E2E2E2E2E2E2
310
E2E2E2E2E2E2E2E2E2E2E2E2E2E2E2E2E2E2E2E2E2E2E2E2E2E2E2E2E2E2E2E2E2E2E2E2E2E2E2E2E2E2E2E2E2E2E2E2E2E2E2E2E2E2E2E2E2E2E2E2E2E2E2E2E2E2E2E2E2E2E2E2E2E2E2E2E2E2E2E2E2E2E2E2E2E2E2E2E2E2E2E2E2E2E2E2E2E2E2E2F5F5F5E2E2E2F5E2E2F5E2F5F5E2E2E2E2E2E2E2E2E2E2E2E2E2E2
310
F5E2F5F5E2F5F5F5E2F5E2E2E2E2E2E2E2E2E2E2E2E2E2E2E2E2E2E2E2E2E2E2E2E2E2E2E2E2E2E2E2E2E2E2E2E2E2E2E2E2E2E2E2E2E2E2E2E2E2E2E2E2E2E2E2E2E2E2E2E2E2E2E2E2E2E2E2E2E2E2E2E2E2E2E2E2E2E2E2E2E2E2E2E2E2E2E2E2E2E2E2E2E2E2E2E2E2E2E2E2E2E2E2E2E2E2E2E2E2E2E2E2E2E2E2E2E2
310
E2E2E2E2E2E2E2E2E2E2E2E2E2E2E2E2E2E2E2E2E2E2E2E2E2E2E2E2E2E2E2E2E2E2E2E2E2E2E2E2E2E2E2E2E2E2E2E2E2E2E2E2E2E2E2E2E2E2E2E2E2E2E2E2E2E2E2E2E2E2E2E2E2E2E2E2E2E2E2E2E2E2E2E2E2E2E2E2E2E2E2E2E2E2E2E2E2E2E2E2E2E2F5E2F5F5E2E2F5E2E2F5E2F5F5E2E2E2E2E2E2E2E2E2E2E2E2
310
E2E2F5E2F5F5E2F5F5F5E2F5E2E2E2E2E2E2E2E2E2E2E2E2E2E2E2E2E2E2E2E2E2E2E2E2E2E2E2E2E2E2E2E2E2E2E2E2E2E2E2E2E2E2E2E2E2E2E2E2E2E2E2E2E2E2E2E2E2E2E2E2E2E2E2E2E2E2E2E2E2E2E2E2E2E2E2E2E2E2E2E2E2E2E2E2E2E2E2E2E2E2E2E2E2E2E2E2E2E2E2E2E2E2E2E2E2E2E2E2E2E2E2E2E2E2E2
310
E2E2E2E2E2E2E2E2E2E2E2E2E2E2E2E2E2E2E2E2E2E2E2E2E2E2E2E2E2E2E2E2E2E2E2E2E2E2E2E2E2E2E2E2E2E2E2E2E2E2E2E2E2E2E2E2E2E2E2E2E2E2E2E2E2E2E2E2E2E2E2E2E2E2E2E2E2E2E2E2E2E2E2E2E2E2E2E2E2E2E2E2E2E2E2E2E2E2E2E2E2E2E2E2E2F5F5E2F5F5F5F5F5E2F5F5E2E2E2E2E2E2E2E2E2E2E2
310
E2E2E2E2F5E2F5F5E2F5F5F5E2F5E2E2E2E2E2E2E2E2E2E2E2E2E2E2E2E2E2E2E2E2E2E2E2E2E2E2E2E2E2E2E2E2E2E2E2E2E2E2E2E2E2E2E2E2E2E2E2E2E2E2E2E2E2E2E2E2E2E2E2E2E2E2E2E2E2E2E2E2E2E2E2E2E2E2E2E2E2E2E2E2E2E2E2E2E2E2E2E2E2E2E2E2E2E2E2E2E2E2E2E2E2E2E2E2E2E2E2E2E2E2E2E2E2
310
E2E2E2E2E2E2E2E2E2E2E2E2E2E2E2E2E2E2E2E2E2E2E2E2E2E2E2E2E2E2E2E2E2E2E2E2E2E2E2E2E2E2E2E2E2E2E2E2E2E2E2E2E2E2E2E2E2E2E2E2E2E2E2E2E2E2E2E2E2E2E2E2E2E2E2E2E2E2E2E2E2E2E2E2E2E2E2E2E2E2E2E2E2E2E2E2E2E2E2E2E2E2E2E2E2E2E2E2F5F5F5E2F5F5F5F5F5F5E2E2E2E2E2E2E2E2E2
310
E2E2E2E2E2E2F5F5F5F5E2F5F5F5F5F5E2E2E2E2E2E2E2E2E2E2E2E2E2E2E2E2E2E2E2E2E2E2E2E2E2E2E2E2E2E2E2E2E2E2E2E2E2E2E2E2E2E2E2E2E2E2E2E2E2E2E2E2E2E2E2E2E2E2E2E2E2E2E2E2E2E2E2E2E2E2E2E2E2E2E2E2E2E2E2E2E2E2E2E2E2E2E2E2E2E2E2E2E2E2E2E2E2E2E2E2E2E2E2E2E2E2E2E2E2E2E2
310
E2E2E2E2E2E2E2E2E2E2E2E2E2E2E2E2E2E2E2E2E2E2E2E2E2E2E2E2E2E2E2E2E2E2E2E2E2E2E2E2E2E2E2E2E2E2E2E2E2E2E2E2E2E2E2E2E2E2E2E2E2E2E2E2E2E2E2E2E2E2E2E2E2E2E2E2E2E2E2E2E2E2E2E2E2E2E2E2E2E2E2E2E2E2E2E2E2E2E2E2E2E2E2E2E2E2E2E2E2E2F5F5F5F5F5E2F5F5F5E2E2E2E2E2E2E2E2
310
E2E2E2E2E2E2E2E2F5E2F5F5E2F5F5F5E2F5E2E2E2E2E2E2E2E2E2E2E2E2E2E2E2E2E2E2E2E2E2E2E2E2E2E2E2E2E2E2E2E2E2E2E2E2E2E2E2E2E2E2E2E2E2E2E2E2E2E2E2E2E2E2E2E2E2E2E2E2E2E2E2E2E2E2E2E2E2E2E2E2E2E2E2E2E2E2E2E2E2E2E2E2E2E2E2E2E2E2E2E2E2E2E2E2E2E2E2E2E2E2E2E2E2E2E2E2E2
310
E2E2E2E2E2E2E2E2E2E2E2E2E2E2E2E2E2E2E2E2E2E2E2E2E2E2E2E2E2E2E2E2E2E2E2E2E2E2E2E2E2E2E2E2E2E2E2E2E2E2E2E2E2E2E2E2E2E2E2E2E2E2E2E2E2E2E2E2E2E2E2E2E2E2E2E2E2E2E2E2E2E2E2E2E2E2E2E2E2E2E2E2E2E2E2E2E2E2E2E2E2E2E2E2E2E2E2E2E2E2E2E2F5F5F5F5F5F5F5F5F5E2E2E2E2E2E2
310
E2E2E2E2E2E2E2E2E2E2E2E2F5F5F5F5F5F5E2E2E2E2E2E2E2E2E2E2E2E2E2E2E2E2E2E2E2E2E2E2E2E2E2E2E2E2E2E2E2E2E2E2E2E2E2E2E2E2E2E2E2E2E2E2E2E2E2E2E2E2E2E2E2E2E2E2E2E2E2E2E2E2E2E2E2E2E2E2E2E2E2E2E2E2E2E2E2E2E2E2E2E2E2E2E2E2E2E2E2E2E2E2E2E2E2E2E2E2E2E2E2E2E2E2E2E2E2
310
E2E2E2E2E2E2E2E2E2E2E2E2E2E2E2E2E2E2E2E2E2E2E2E2E2E2E2E2E2E2E2E2E2E2E2E2E2E2E2E2E2E2E2E2E2E2E2E2E2E2E2E2E2E2E2E2E2E2E2E2E2E2E2E2E2E2E2E2E2E2E2E2E2E2E2E2E2E2E2E2E2E2E2E2E2E2E2E2E2E2E2E2E2E2E2E2E2E2E2E2E2E2E2E2E2E2E2E2E2E2E2E2E2E2F5F5F5F5F5F5F5F5F5E2E2E2E2
310
E2E2E2E2E2E2E2E2E2E2E2E2F5F5F5F5F5F5F5F5F5F5E2E2E2E2E2E2E2E2E2E2E2E2E2E2E2E2E2E2E2E2E2E2E2E2E2E2E2E2E2E2E2E2E2E2E2E2E2E2E2E2E2E2E2E2E2E2E2E2E2E2E2E2E2E2E2E2E2E2E2E2E2E2E2E2E2E2E2E2E2E2E2E2E2E2E2E2E2E2E2E2E2E2E2E2E2E2E2E2E2E2E2E2E2E2E2E2E2E2E2E2E2E2E2E2E2
310
E2E2E2E2E2E2E2E2E2E2E2E2E2E2E2E2E2E2E2E2E2E2E2E2E2E2E2E2E2E2E2E2E2E2E2E2E2E2E2E2E2E2E2E2E2E2E2E2E2E2E2E2E2E2E2E2E2E2E2E2E2E2E2E2E2E2E2E2E2E2E2E2E2E2E2E2E2E2E2E2E2E2E2E2E2E2E2E2E2E2E2E2E2E2E2E2E2E2E2E2E2E2E2E2E2E2E2E2E2E2E2E2E2E2E2E2F5E2E2E2F5E2E2E2F5E2E2
310
E2E2E2E2E2E2E2E2E2E2E2E2E2E2F5E2F5F5E2F5F5F5E2F5E2E2E2E2E2E2E2E2E2E2E2E2E2E2E2E2E2E2E2E2E2E2E2E2E2E2E2E2E2E2E2E2E2E2E2E2E2E2E2E2E2E2E2E2E2E2E2E2E2E2E2E2E2E2E2E2E2E2E2E2E2E2E2E2E2E2E2E2E2E2E2E2E2E2E2E2E2E2E2E2E2E2E2E2E2E2E2E2E2E2E2E2E2E2E2E2E2E2E2E2E2E2E2
310
E2E2E2E2E2E2E2E2E2E2E2E2E2E2E2E2E2E2E2E2E2E2E2E2E2E2E2E2E2E2E2E2E2E2E2E2E2E2E2E2E2E2E2E2E2E2E2E2E2E2E2E2E2E2E2E2E2E2E2E2E2E2E2E2E2E2E2E2E2E2E2E2E2E2E2E2E2E2E2E2E2E2E2E2E2E2E2E2E2E2E2E2E2E2E2E2E2E2E2E2E2E2E2E2E2E2E2E2E2E2E2E2E2E2E2E2E2E2F5E2E2E2F5E2E2E2F5
310
E2E2E2E2E2E2E2E2E2E2E2E2E2E2E2E2F5E2E2F5E2F5F5E2E2F5E2E2E2E2E2E2E2E2E2E2E2E2E2E2E2E2E2E2E2E2E2E2E2E2E2E2E2E2E2E2E2E2E2E2E2E2E2E2E2E2E2E2E2E2E2E2E2E2E2E2E2E2E2E2E2E2E2E2E2E2E2E2E2E2E2E2E2E2E2E2E2E2E2E2E2E2E2E2E2E2E2E2E2E2E2E2E2E2E2E2E2E2E2E2E2E2E2E2E2E2E2
310
E2E2E2E2E2E2E2E2E2E2E2E2E2E2E2E2E2E2E2E2E2E2E2E2E2E2E2E2E2E2E2E2E2E2E2E2E2E2E2E2E2E2E2E2E2E2E2E2E2E2E2E2E2E2E2E2E2E2E2E2E2E2E2E2E2E2E2E2E2E2E2E2E2E2E2E2E2E2E2E2E2E2E2E2E2E2E2E2E2E2E2E2E2E2E2E2E2E2E2E2E2E2E2E2E2E2E2E2E2E2E2E2E2E2E2E2E2E2E2E2F5E2E2E2F5E2E2
310
E2F5E2E2E2E2E2E2E2E2E2E2E2E2E2E2E2E2F5F5F5F5E2F5F5F5F5F5E2E2E2E2E2E2E2E2E2E2E2E2E2E2E2E2E2E2E2E2E2E2E2E2E2E2E2E2E2E2E2E2E2E2E2E2E2E2E2E2E2E2E2E2E2E2E2E2E2E2E2E2E2E2E2E2E2E2E2E2E2E2E2E2E2E2E2E2E2E2E2E2E2E2E2E2E2E2E2E2E2E2E2E2E2E2E2E2E2E2E2E2E2E2E2E2E2E2E2
310
E2E2E2E2E2E2E2E2E2E2E2E2E2E2E2E2E2E2E2E2E2E2E2E2E2E2E2E2E2E2E2E2E2E2E2E2E2E2E2E2E2E2E2E2E2E2E2E2E2E2E2E2E2E2E2E2E2E2E2E2E2E2E2E2E2E2E2E2E2E2E2E2E2E2E2E2E2E2E2E2E2E2E2E2E2E2E2E2E2E2E2E2E2E2E2E2E2E2E2E2E2E2E2E2E2E2E2E2E2E2E2E2E2E2E2E2E2E2E2E2E2E2F5F5F5F5F5
310
F5F5F5F5E2E2E2E2E2E2E2E2E2E2E2E2E2F5F5F5F5F5F5F5F5F5F5F5F5F5F5F5F5F5F5E2E2E2E2E2E2E2E2E2E2E2E2E2E2E2E2E2E2E2E2E2E2E2E2E2E2E2E2E2E2E2E2E2E2E2E2E2E2E2E2E2E2E2E2E2E2E2E2E2E2E2E2E2E2E2E2E2E2E2E2E2E2E2E2E2E2E2E2E2E2E2E2E2E2E2E2E2E2E2E2E2E2E2E2E2E2E2E2E2E2E2E2
310
E2E2E2E2E2E2E2E2E2E2E2E2E2E2E2E2E2E2E2E2E2E2E2E2E2E2E2E2E2E2E2E2E2E2E2E2E2E2E2E2E2E2E2E2E2E2E2E2E2E2E2E2E2E2E2E2E2E2E2E2E2E2E2E2E2E2E2E2E2E2E2E2E2E2E2E2E2E2E2E2E2E2E2E2E2E2E2E2E2E2E2E2E2E2E2E2E2E2E2E2E2E2E2E2E2E2E2E2E2E2E2E2E2E2E2E2E2E2E2E2E2E2E2E2F5F5F5
310
F5F5F5F5F5F5E2E2E2E2E2E2E2E2E2E2E2E2F5F5F5E2E2E2E2E2E2F5E2E2E2E2E2E2E2E2F5F5E2E2E2E2E2E2E2E2E2E2E2E2E2E2E2E2E2E2E2E2E2E2E2E2E2E2E2E2E2E2E2E2E2E2E2E2E2E2E2E2E2E2E2E2E2E2E2E2E2E2E2E2E2E2E2E2E2E2E2E2E2E2E2E2E2E2E2E2E2E2E2E2E2E2E2E2E2E2E2E2E2E2E2E2E2E2E2E2E2
310
E2E2E2E2E2E2E2E2E2E2E2E2E2E2E2E2E2E2E2E2E2E2E2E2E2E2E2E2E2E2E2E2E2E2E2E2E2E2E2E2E2E2E2E2E2E2E2E2E2E2E2E2E2E2E2E2E2E2E2E2E2E2E2E2E2E2E2E2E2E2E2E2E2E2E2E2E2E2E2E2E2E2E2E2E2E2E2E2E2E2E2E2E2E2E2E2E2E2E2E2E2E2E2E2E2E2E2E2E2E2E2E2E2E2E2E2E2E2E2E2E2E2E2E2E2E2F5
310
F5E2E2F5E2F5F5F5E2E2E2E2E2E2E2E2E2E2E2E2F5F5F5E2E2E2E2E2E2F5E2E2E2E2E2E2E2E2F5F5E2E2E2E2E2E2E2E2E2E2E2E2E2E2E2E2E2E2E2E2E2E2E2E2E2E2E2E2E2E2E2E2E2E2E2E2E2E2E2E2E2E2E2E2E2E2E2E2E2E2E2E2E2E2E2E2E2E2E2E2E2E2E2E2E2E2E2E2E2E2E2E2E2E2E2E2E2E2E2E2E2E2E2E2E2E2E2
310
E2E2E2E2E2E2E2E2E2E2E2E2E2E2E2E2E2E2E2E2E2E2E2E2E2E2E2E2E2E2E2E2E2E2E2E2E2E2E2E2E2E2E2E2E2E2E2E2E2E2E2E2E2E2E2E2E2E2E2E2E2E2E2E2E2E2E2E2E2E2E2E2E2E2E2E2E2E2E2E2E2E2E2E2E2E2E2E2E2E2E2E2E2E2E2E2E2E2E2E2E2E2E2E2E2E2E2E2E2E2E2E2E2E2E2E2E2E2E2E2E2E2E2E2E2E2E2
310
E2F5E2E2E2F5E2E2E2F5E2E2E2E2E2E2E2E2E2E2E2E2E2F5F5F5F5F5F5F5F5F5F5F5F5F5F5F5F5F5F5E2E2E2E2E2E2E2E2E2E2E2E2E2E2E2E2E2E2E2E2E2E2E2E2E2E2E2E2E2E2E2E2E2E2E2E2E2E2E2E2E2E2E2E2E2E2E2E2E2E2E2E2E2E2E2E2E2E2E2E2E2E2E2E2E2E2E2E2E2E2E2E2E2E2E2E2E2E2E2E2E2E2E2E2E2E2
310
E2E2E2E2E2E2E2E2E2E2E2E2E2E2E2E2E2E2E2E2E2E2E2E2E2E2E2E2E2E2E2E2E2E2E2E2E2E2E2E2E2E2E2E2E2E2E2E2E2E2E2E2E2E2E2E2E2E2E2E2E2E2E2E2E2E2E2E2E2E2E2E2E2E2E2E2E2E2E2E2E2E2E2E2E2E2E2E2E2E2E2E2E2E2E2E2E2E2E2E2E2E2E2E2E2E2E2E2E2E2E2E2E2E2E2E2E2E2E2E2E2E2E2E2E2E2E2
310
E2E2E2F5E2E2E2F5E2F5E2F5E2E2E2E2E2E2E2E2E2E2E2F5F5F5F5E2E2E2E2E2E2F5E2E2E2E2E2E2E2E2F5F5F5E2E2E2E2E2E2E2E2E2E2E2E2E2E2E2E2E2E2E2E2E2E2E2E2E2E2E2E2E2E2E2E2E2E2E2E2E2E2E2E2E2E2E2E2E2E2E2E2E2E2E2E2E2E2E2E2E2E2E2E2E2E2E2E2E2E2E2E2E2E2E2E2E2E2E2E2E2E2E2E2E2E2
310
E2E2E2E2E2E2E2E2E2E2E2E2E2E2E2E2E2E2E2E2E2E2E2E2E2E2E2E2E2E2E2E2E2E2E2E2E2E2E2E2E2E2E2E2E2E2E2E2E2E2E2E2E2E2E2E2E2E2E2E2E2E2E2E2E2E2E2E2E2E2E2E2E2E2E2E2E2E2E2E2E2E2E2E2E2E2E2E2E2E2E2E2E2E2E2E2E2E2E2E2E2E2E2E2E2E2E2E2E2E2E2E2E2E2E2E2E2E2E2E2E2E2E2E2E2E2E2
310
E2E2E2E2E2F5F5F5E2F5F5F5F5F5E2E2E2E2E2E2E2E2E2E2E2F5F5F5F5E2E2E2E2E2E2F5E2E2E2E2E2E2E2E2F5F5F5E2E2E2E2E2E2E2E2E2E2E2E2E2E2E2E2E2E2E2E2E2E2E2E2E2E2E2E2E2E2E2E2E2E2E2E2E2E2E2E2E2E2E2E2E2E2E2E2E2E2E2E2E2E2E2E2E2E2E2E2E2E2E2E2E2E2E2E2E2E2E2E2E2E2E2E2E2E2E2E2
310
E2E2E2E2E2E2E2E2E2E2E2E2E2E2E2E2E2E2E2E2E2E2E2E2E2E2E2E2E2E2E2E2E2E2E2E2E2E2E2E2E2E2E2E2E2E2E2E2E2E2E2E2E2E2E2E2E2E2E2E2E2E2E2E2E2E2E2E2E2E2E2E2E2E2E2E2E2E2E2E2E2E2E2E2E2E2E2E2E2E2E2E2E2E2E2E2E2E2E2E2E2E2E2E2E2E2E2E2E2E2E2E2E2E2E2E2E2E2E2E2E2E2E2E2E2E2E2
310
E2E2E2E2E2E2E2F5F5F5E2F5F5F5F5F5E2E2E2E2E2E2E2E2E2E2E2F5F5F5F5E2E2E2E2E2E2F5E2E2E2E2E2E2E2E2F5F5F5E2E2E2E2E2E2E2E2E2E2E2E2E2E2E2E2E2E2E2E2E2E2E2E2E2E2E2E2E2E2E2E2E2E2E2E2E2E2E2E2E2E2E2E2E2E2E2E2E2E2E2E2E2E2E2E2E2E2E2E2E2E2E2E2E2E2E2E2E2E2E2E2E2E2E2E2E2E2
310
E2E2E2E2E2E2E2E2E2E2E2E2E2E2E2E2E2E2E2E2E2E2E2E2E2E2E2E2E2E2E2E2E2E2E2E2E2E2E2E2E2E2E2E2E2E2E2E2E2E2E2E2E2E2E2E2E2E2E2E2E2E2E2E2E2E2E2E2E2E2E2E2E2E2E2E2E2E2E2E2E2E2E2E2E2E2E2E2E2E2E2E2E2E2E2E2E2E2E2E2E2E2E2E2E2E2E2E2E2E2E2E2E2E2E2E2E2E2E2E2E2E2E2E2E2E2E2
310
E2E2E2E2E2E2E2E2E2F5E2E2E2F5E2E2E2F5E2E2E2E2E2E2E2E2E2E2E2E2E2F5F5E2E2E2E2E2E2F5E2E2E2E2E2E2E2E2F5E2E2E2E2E2E2E2E2E2E2E2E2E2E2E2E2E2E2E2E2E2E2E2E2E2E2E2E2E2E2E2E2E2E2E2E2E2E2E2E2E2E2E2E2E2E2E2E2E2E2E2E2E2E2E2E2E2E2E2E2E2E2E2E2E2E2E2E2E2E2E2E2E2E2E2E2E2E2
310
E2E2E2E2E2E2E2E2E2E2E2E2E2E2E2E2E2E2E2E2E2E2E2E2E2E2E2E2E2E2E2E2E2E2E2E2E2E2E2E2E2E2E2E2E2E2E2E2E2E2E2E2E2E2E2E2E2E2E2E2E2E2E2E2E2E2E2E2E2E2E2E2E2E2E2E2E2E2E2E2E2E2E2E2E2E2E2E2E2E2E2E2E2E2E2E2E2E2E2E2E2E2E2E2E2E2E2E2E2E2E2E2E2E2E2E2E2E2E2E2E2E2E2E2E2E2E2
310
E2E2E2E2E2E2E2E2E2E2E2F5E2E2E2F5E2E2E2F5E2E2E2E2E2E2E2E2E2E2E2E2E2F5F5F5F5F5F5F5F5F5F5F5F5F5F5F5F5F5F5E2E2E2E2E2E2E2E2E2E2E2E2E2E2E2E2E2E2E2E2E2E2E2E2E2E2E2E2E2E2E2E2E2E2E2E2E2E2E2E2E2E2E2E2E2E2E2E2E2E2E2E2E2E2E2E2E2E2E2E2E2E2E2E2E2E2E2E2E2E2E2E2E2E2E2E2
310
E2E2E2E2E2E2E2E2E2E2E2E2E2E2E2E2E2E2E2E2E2E2E2E2E2E2E2E2E2E2E2E2E2E2E2E2E2E2E2E2E2E2E2E2E2E2E2E2E2E2E2E2E2E2E2E2E2E2E2E2E2E2E2E2E2E2E2E2E2E2E2E2E2E2E2E2E2E2E2E2E2E2E2E2E2E2E2E2E2E2E2E2E2E2E2E2E2E2E2E2E2E2E2E2E2E2E2E2E2E2E2E2E2E2E2E2E2E2E2E2E2E2E2E2E2E2E2
310
E2E2E2E2E2E2E2E2E2E2E2E2E2F5F5F5E2F5E2F5F5F5E2E2E2E2E2E2E2E2E2E2E2E2F5F5F5E2E2E2E2E2E2F5E2E2E2E2E2E2E2E2F5F5E2E2E2E2E2E2E2E2E2E2E2E2E2E2E2E2E2E2E2E2E2E2E2E2E2E2E2E2E2E2E2E2E2E2E2E2E2E2E2E2E2E2E2E2E2E2E2E2E2E2E2E2E2E2E2E2E2E2E2E2E2E2E2E2E2E2E2E2E2E2E2E2E2
310
E2E2E2E2E2E2E2E2E2E2E2E2E2E2E2E2E2E2E2E2E2E2E2E2E2E2E2E2E2E2E2E2E2E2E2E2E2E2E2E2E2E2E2E2E2E2E2E2E2E2E2E2E2E2E2E2E2E2E2E2E2E2E2E2E2E2E2E2E2E2E2E2E2E2E2E2E2E2E2E2E2E2E2E2E2E2E2E2E2E2E2E2E2E2E2E2E2E2E2E2E2E2E2E2E2E2E2E2E2E2E2E2E2E2E2E2E2E2E2E2E2E2E2E2E2E2E2
310
E2E2E2E2E2E2E2E2E2E2E2E2E2E2E2F5F5F5F5F5F5F5F5F5E2E2E2E2E2E2E2E2E2E2E2E2F5F5F5F5F5F5F5F5F5F5F5F5F5F5F5F5F5F5F5F5E2E2E2E2E2E2E2E2E2E2E2E2E2E2E2E2E2E2E2E2E2E2E2E2E2E2E2E2E2E2E2E2E2E2E2E2E2E2E2E2E2E2E2E2E2E2E2E2E2E2E2E2E2E2E2E2E2E2E2E2E2E2E2E2E2E2E2E2E2E2E2
310
E2E2E2E2E2E2E2E2E2E2E2E2E2E2E2E2E2E2E2E2E2E2E2E2E2E2E2E2E2E2E2E2E2E2E2E2E2E2E2E2E2E2E2E2E2E2E2E2E2E2E2E2E2E2E2E2E2E2E2E2E2E2E2E2E2E2E2E2E2E2E2E2E2E2E2E2E2E2E2E2E2E2E2E2E2E2E2E2E2E2E2E2E2E2E2E2E2E2E2E2E2E2E2E2E2E2E2E2E2E2E2E2E2E2E2E2E2E2E2E2E2E2E2E2E2E2E2
310
E2E2E2E2E2E2E2E2E2E2E2E2E2E2E2E2E2E2E2F5F5F5F5F5E2E2E2E2E2E2E2E2E2E2E2E2E2E2E2E2E2F5F5F5F5F5F5F5F5F5F5F5F5E2E2E2E2E2E2E2E2E2E2E2E2E2E2E2E2E2E2E2E2E2E2E2E2E2E2E2E2E2E2E2E2E2E2E2E2E2E2E2E2E2E2E2E2E2E2E2E2E2E2E2E2E2E2E2E2E2E2E2E2E2E2E2E2E2E2E2E2E2E2E2E2E2E2
310
E2E2E2E2E2E2E2E2E2E2E2E2E2E2E2E2E2E2E2E2E2E2E2E2E2E2E2E2E2E2E2E2E2E2E2E2E2E2E2E2E2E2E2E2E2E2E2E2E2E2E2E2E2E2E2E2E2E2E2E2E2E2E2E2E2E2E2E2E2E2E2E2E2E2E2E2E2E2E2E2E2E2E2E2E2E2E2E2E2E2E2E2E2E2E2E2E2E2E2E2E2E2E2E2E2E2E2E2E2E2E2E2E2E2E2E2E2E2E2E2E2E2E2E2E2E2E2
310
E2E2E2E2E2E2E2E2E2E2E2E2E2E2E2E2E2E2E2E2E2F5E2F5E2F5E2E2E2E2E2E2E2E2E2E2E2E2E2E2E2E2E2F5E2E2E2E2E2F5E2E2E2E2F5E2E2E2E2E2E2E2E2E2E2E2E2E2E2E2E2E2E2E2E2E2E2E2E2E2E2E2E2E2E2E2E2E2E2E2E2E2E2E2E2E2E2E2E2E2E2E2E2E2E2E2E2E2E2E2E2E2E2E2E2E2E2E2E2E2E2E2E2E2E2E2E2
310
E2E2E2E2E2E2E2E2E2E2E2E2E2E2E2E2E2E2E2E2E2E2E2E2E2E2E2E2E2E2E2E2E2E2E2E2E2E2E2E2E2E2E2E2E2E2E2E2E2E2E2E2E2E2E2E2E2E2E2E2E2E2E2E2E2E2E2E2E2E2E2E2E2E2E2E2E2E2E2E2E2E2E2E2E2E2E2E2E2E2E2E2E2E2E2E2E2E2E2E2E2E2E2E2E2E2E2E2E2E2E2E2E2E2E2E2E2E2E2E2E2E2E2E2E2E2E2
310
E2E2E2E2E2E2E2E2E2E2E2E2E2E2E2E2E2E2E2E2E2E2E2F5E2F5E2F5E2E2E2E2E2E2E2E2E2E2E2E2E2E2E2E2E2F5E2E2E2E2E2F5E2E2E2E2F5E2E2E2E2E2E2E2E2E2E2E2E2E2E2E2E2E2E2E2E2E2E2E2E2E2E2E2E2E2E2E2E2E2E2E2E2E2E2E2E2E2E2E2E2E2E2E2E2E2E2E2E2E2E2E2E2E2E2E2E2E2E2E2E2E2E2E2E2E2E2
310
E2E2E2E2E2E2E2E2E2E2E2E2E2E2E2E2E2E2E2E2E2E2E2E2E2E2E2E2E2E2E2E2E2E2E2E2E2E2E2E2E2E2E2E2E2E2E2E2E2E2E2E2E2E2E2E2E2E2E2E2E2E2E2E2E2E2E2E2E2E2E2E2E2E2E2E2E2E2E2E2E2E2E2E2E2E2E2E2E2E2E2E2E2E2E2E2E2E2E2E2E2E2E2E2E2E2E2E2E2E2E2E2E2E2E2E2E2E2E2E2E2E2E2E2E2E2E2
310
E2E2E2E2E2E2E2E2E2E2E2E2E2E2E2E2E2E2E2E2E2E2E2E2E2F5F5F5F5F5E2E2E2E2E2E2E2E2E2E2E2E2E2E2E2E2E2F5F5F5F5F5F5F5F5F5F5F5F5E2E2E2E2E2E2E2E2E2E2E2E2E2E2E2E2E2E2E2E2E2E2E2E2E2E2E2E2E2E2E2E2E2E2E2E2E2E2E2E2E2E2E2E2E2E2E2E2E2E2E2E2E2E2E2E2E2E2E2E2E2E2E2E2E2E2E2E2
310
E2E2E2E2E2E2E2E2E2E2E2E2E2E2E2E2E2E2E2E2E2E2E2E2E2E2E2E2E2E2E2E2E2E2E2E2E2E2E2E2E2E2E2E2E2E2E2E2E2E2E2E2E2E2E2E2E2E2E2E2E2E2E2E2E2E2E2E2E2E2E2E2E2E2E2E2E2E2E2E2E2E2E2E2E2E2E2E2E2E2E2E2E2E2E2E2E2E2E2E2E2E2E2E2E2E2E2E2E2E2E2E2E2E2E2E2E2E2E2E2E2E2E2E2E2E2E2
310
E2E2E2E2E2E2E2E2E2E2E2E2E2E2E2E2E2E2E2E2E2E2E2E2E2E2E2E2E2F5E2E2E2E2E2E2E2E2E2E2E2E2E2E2E2E2E2E2E2E2E2E2E2E2E2F5E2E2E2E2E2E2E2E2E2E2E2E2E2E2E2E2E2E2E2E2E2E2E2E2E2E2E2E2E2E2E2E2E2E2E2E2E2E2E2E2E2E2E2E2E2E2E2E2E2E2E2E2E2E2E2E2E2E2E2E2E2E2E2E2E2E2E2E2E2E2E2
310
E2E2E2E2E2E2E2E2E2E2E2E2E2E2E2E2E2E2E2E2E2E2E2E2E2E2E2E2E2E2E2E2E2E2E2E2E2E2E2E2E2E2E2E2E2E2E2E2E2E2E2E2E2E2E2E2E2E2E2E2E2E2E2E2E2E2E2E2E2E2E2E2E2E2E2E2E2E2E2E2E2E2E2E2E2E2E2E2E2E2E2E2E2E2E2E2E2E2E2E2E2E2E2E2E2E2E2E2E2E2E2E2E2E2E2E2E2E2E2E2E2E2E2E2E2E2E2
310
E2E2E2E2E2E2E2E2E2E2E2E2E2E2E2E2E2E2E2E2E2E2E2E2E2E2E2E2E2E2E2E2E2E2E2E2E2E2E2E2E2E2E2E2E2E2E2E2E2E2E2E2E2E2E2E2E2E2E2E2E2E2E2E2E2E2E2E2E2E2E2E2E2E2E2E2E2E2E2E2E2E2E2E2E2E2E2E2E2E2E2E2E2E2E2E2E2E2E2E2E2E2E2E2E2E2E2E2E2E2E2E2E2E2E2E2E2E2E2E2E2E2E2E2E2E2E2
310
E2E2E2E2E2E2E2E2E2E2E2E2E2E2E2E2E2E2E2E2E2E2E2E2E2E2E2E2E2E2E2E2E2E2E2E2E2E2E2E2E2E2E2E2E2E2E2E2E2E2E2E2E2E2E2E2E2E2E2E2E2E2E2E2E2E2E2E2E2E2E2E2E2E2E2E2E2E2E2E2E2E2E2E2E2E2E2E2E2E2E2E2E2E2E2E2E2E2E2E2E2E2E2E2E2E2E2E2E2E2E2E2E2E2E2E2E2E2E2E2E2E2E2E2E2E2E2
310
E2E2E2E2E2E2E2E2E2E2E2E2E2E2E2E2E2E2E2E2E2E2E2E2E2E2E2E2E2E2E2E2E2E2E2E2E2E2E2E2E2E2E2E2E2E2E2E2E2E2E2E2E2E2E2E2E2E2E2E2E2E2E2E2E2E2E2E2E2E2E2E2E2E2E2E2E2E2E2E2E2E2E2E2E2E2E2E2E2E2E2E2E2E2E2E2E2E2E2E2E2E2E2E2E2E2E2E2E2E2E2E2E2E2E2E2E2E2E2E2E2E2E2E2E2E2E2
310
E2E2E2E2E2E2E2E2E2E2E2E2E2E2E2E2E2E2E2E2E2E2E2E2E2E2E2E2E2E2E2E2E2E2E2E2E2E2E2E2E2E2E2E2E2E2E2E2E2E2E2E2E2E2E2E2E2E2E2E2E2E2E2E2E2E2E2E2E2E2E2E2E2E2E2E2E2E2E2E2E2E2E2E2E2E2E2E2E2E2E2E2E2E2E2E2E2E2E2E2E2E2E2E2E2E2E2E2E2E2E2E2E2E2E2E2E2E2E2E2E2E2E2E2E2E2E2
310
E2E2E2E2E2E2E2E2E2E2E2E2E2E2E2E2E2E2E2E2E2E2E2E2E2E2E2E2E2E2E2E2E2E2E2E2E2E2E2E2E2E2E2E2E2E2E2E2E2E2E2E2E2E2E2E2E2E2E2E2E2E2E2E2E2E2E2E2E2E2E2E2E2E2E2E2E2E2E2E2E2E2E2E2E2E2E2E2E2E2E2E2E2E2E2E2E2E2E2E2E2E2E2E2E2E2E2E2E2E2E2E2E2E2E2E2E2E2E2E2E2E2E2E2E2E2E2
310
E2E2E2E2E2E2E2E2E2E2E2E2E2E2E2E2E2E2E2E2E2E2E2E2E2E2E2E2E2E2E2E2E2E2E2E2E2E2E2E2E2E2E2E2E2E2E2E2E2E2E2E2E2E2E2E2E2E2E2E2E2E2E2E2E2E2E2E2E2E2E2E2E2E2E2E2E2E2E2E2E2E2E2E2E2E2E2E2E2E2E2E2E2E2E2E2E2E2E2E2E2E2E2E2E2E2E2E2E2E2E2E2E2E2E2E2E2E2E2E2E2E2E2E2E2E2E2
310
E2E2E2E2E2E2E2E2E2E2E2E2E2E2E2E2E2E2E2E2E2E2E2E2E2E2E2E2E2E2E2E2E2E2E2E2E2E2E2E2E2E2E2E2E2E2E2E2E2E2E2E2E2E2E2E2E2E2E2E2E2E2E2F5E2E2E2E2E2E2E2E2E2E2E2E2E2E2E2E2E2E2E2E2E2E2E2E2E2E2E2E2E2E2E2E2E2E2E2E2E2E2E2E2E2E2E2E2E2E2E2E2E2E2E2E2E2E2E2E2E2E2E2E2E2E2E2
310
E2E2E2E2E2E2E2E2E2E2E2E2E2E2E2E2E2E2E2E2E2E2E2E2E2E2E2E2E2E2E2E2E2E2E2E2E2E2E2E2E2E2E2E2E2E2E2E2E2E2E2E2E2E2E2E2E2E2E2E2E2E2E2E2E2E2E2E2E2E2E2E2E2E2E2E2E2E2E2E2E2E2E2E2E2E2E2E2E2E2E2E2E2E2E2E2E2E2E2E2E2E2E2E2E2E2E2E2E2E2E2E2E2E2E2E2E2E2E2E2E2E2E2E2E2E2E2
310
E2E2E2E2E2E2E2E2E2E2E2E2E2E2E2E2E2E2E2E2E2E2E2E2E2E2E2E2E2E2E2E2E2E2E2E2E2E2E2E2E2E2E2E2E2E2E2E2E2E2E2E2E2E2E2E2E2E2E2E2E2E2E2F5F5F5F5E2E2E2E2E2E2E2E2E2E2E2E2E2E2E2E2E2E2E2E2E2E2E2E2E2E2E2E2E2E2E2E2E2E2E2E2E2E2E2E2E2E2E2E2E2E2E2E2E2E2E2E2E2E2E2E2E2E2E2E2
310
E2E2E2E2E2E2E2E2E2E2E2E2E2E2E2E2E2E2E2E2E2E2E2E2E2E2E2E2E2E2E2E2E2E2E2E2E2E2E2E2E2E2E2E2E2E2E2E2E2E2E2E2E2E2E2E2E2E2E2E2E2E2E2E2E2E2E2E2E2E2E2E2E2E2E2E2E2E2E2E2E2E2E2E2E2E2E2E2E2E2E2E2E2E2E2E2E2E2E2E2E2E2E2E2E2E2E2E2E2E2E2E2E2E2E2E2E2E2E2E2E2E2E2E2E2E2E2
310
E2E2E2E2E2E2E2E2E2E2E2E2E2E2E2E2E2E2E2E2E2E2E2E2E2E2E2E2E2E2E2E2E2E2E2E2E2E2E2E2E2E2E2E2E2E2E2E2E2E2E2E2E2E2E2E2E2E2E2E2E2E2E2E2F5F5E2F5F5F5E2E2E2E2E2E2E2E2E2E2E2E2E2E2E2E2E2E2E2E2E2E2E2E2E2E2E2E2E2E2E2E2E2E2E2E2E2E2E2E2E2E2E2E2E2E2E2E2E2E2E2E2E2E2E2E2E2
310
E2E2E2E2E2E2E2E2E2E2E2E2E2E2E2E2E2E2E2E2E2E2E2E2E2E2E2E2E2E2E2E2E2E2E2E2E2E2E2E2E2E2E2E2E2E2E2E2E2E2E2E2E2E2E2E2E2E2E2E2E2E2E2E2E2E2E2E2E2E2E2E2E2E2E2E2E2E2E2E2E2E2E2E2E2E2E2E2E2E2E2E2E2E2E2E2E2E2E2E2E2E2E2E2E2E2E2E2E2E2E2E2E2E2E2E2E2E2E2E2E2E2E2E2E2E2E2
310
E2E2E2E2E2E2E2E2E2E2E2E2E2E2E2E2E2E2E2E2E2E2E2E2E2E2E2E2E2E2E2E2E2E2E2E2E2E2E2E2E2E2E2E2E2E2E2E2E2E2E2E2E2E2E2E2E2E2E2E2E2F5F5F5F5F5F5F5F5F5F5F5F5F5F5F5F5F5F5E2E2E2E2E2E2E2E2E2E2E2E2E2E2E2E2E2E2E2E2E2E2E2E2E2E2E2E2E2E2E2E2E2E2E2E2E2E2E2E2E2E2E2E2E2E2E2E2
310
E2E2E2E2E2E2E2E2E2E2E2E2E2E2E2E2E2E2E2E2E2E2E2E2E2E2E2E2E2E2E2E2E2E2E2E2E2E2E2E2E2E2E2E2E2E2E2E2E2E2E2E2E2E2E2E2E2E2E2E2E2E2E2E2E2E2E2E2E2E2E2E2E2E2E2E2E2E2E2E2E2E2E2E2E2E2E2E2E2E2E2E2E2E2E2E2E2E2E2E2E2E2E2E2E2E2E2E2E2E2E2E2E2E2E2E2E2E2E2E2E2E2E2E2E2E2E2
310
E2E2E2E2E2E2E2E2E2E2E2E2E2E2E2E2E2E2E2E2E2E2E2E2E2E2E2E2E2E2E2E2E2E2E2E2E2E2E2E2E2E2E2E2E2E2E2E2E2E2E2E2E2E2E2E2E2E2E2E2E2E2F5F5F5F5F5F5F5F5F5F5F5F5F5F5F5F5F5F5F5F5E2E2E2E2E2E2E2E2E2E2E2E2E2E2E2E2E2E2E2E2E2E2E2E2E2E2E2E2E2E2E2E2E2E2E2E2E2E2E2E2E2E2E2E2E2
310
E2E2E2E2E2E2E2E2E2E2E2E2E2E2E2E2E2E2E2E2E2E2E2E2E2E2E2E2E2E2E2E2E2E2E2E2E2E2E2E2E2E2E2E2E2E2E2E2E2E2E2E2E2E2E2E2E2E2E2E2E2E2E2E2E2E2E2E2E2E2E2E2E2E2E2E2E2E2E2E2E2E2E2E2E2E2E2E2E2E2E2E2E2E2E2E2E2E2E2E2E2E2E2E2E2E2E2E2E2E2E2E2E2E2E2E2E2E2E2E2E2E2E2E2E2E2E2
310
E2E2E2E2E2E2E2E2E2E2E2E2E2E2E2E2E2E2E2E2E2E2E2E2E2E2E2E2E2E2E2E2E2E2E2E2E2E2E2E2E2E2E2E2E2E2E2E2E2E2E2E2E2E2E2E2E2E2E2E2E2E2E2F5F5F5F5E2E2F5F5E2E2F5E2F5F5E2E2E2E2E2F5F5F5E2E2E2E2E2E2E2E2E2E2E2E2E2E2E2E2E2E2E2E2E2E2E2E2E2E2E2E2E2E2E2E2E2E2E2E2E2E2E2E2E2E2
310
E2E2E2E2E2E2E2E2E2E2E2E2E2E2E2E2E2E2E2E2E2E2E2E2E2E2E2E2E2E2E2E2E2E2E2E2E2E2E2E2E2E2E2E2E2E2E2E2E2E2E2E2E2E2E2E2E2E2E2E2E2E2E2E2E2E2E2E2E2E2E2E2E2E2E2E2E2E2E2E2E2E2E2E2E2E2E2E2E2E2E2E2E2E2E2E2E2E2E2E2E2E2E2E2E2E2E2E2E2E2E2E2E2E2E2E2E2E2E2E2E2E2E2E2E2E2E2
310
E2E2E2E2E2E2E2E2E2E2E2E2E2E2E2E2E2E2E2E2E2E2E2E2E2E2E2E2E2E2E2E2E2E2E2E2E2E2E2E2E2E2E2E2E2E2E2E2E2E2E2E2E2E2E2E2E2E2E2E2E2E2E2E2E2F5F5F5F5F5F5F5F5F5F5F5F5F5F5F5F5F5F5F5F5F5F5E2E2E2E2E2E2E2E2E2E2E2E2E2E2E2E2E2E2E2E2E2E2E2E2E2E2E2E2E2E2E2E2E2E2E2E2E2E2E2E2
310
E2E2E2E2E2E2E2E2E2E2E2E2E2E2E2E2E2E2E2E2E2E2E2E2E2E2E2E2E2E2E2E2E2E2E2E2E2E2E2E2E2E2E2E2E2E2E2E2E2E2E2E2E2E2E2E2E2E2E2E2E2E2E2E2E2E2E2E2E2E2E2E2E2E2E2E2E2E2E2E2E2E2E2E2E2E2E2E2E2E2E2E2E2E2E2E2E2E2E2E2E2E2E2E2E2E2E2E2E2E2E2E2E2E2E2E2E2E2E2E2E2E2E2E2E2E2E2
310
E2E2E2E2E2E2E2E2E2E2E2E2E2E2E2E2E2E2E2E2E2E2E2E2E2E2E2E2E2E2E2E2E2E2E2E2E2E2E2E2E2E2E2E2E2E2E2E2E2E2E2E2E2E2E2E2E2E2E2E2E2E2E2E2E2E2E2E2E2F5F5E2E2F5F5F5F5F5E2F5F5E2E2E2E2E2F5E2E2E2E2E2E2E2E2E2E2E2E2E2E2E2E2E2E2E2E2E2E2E2E2E2E2E2E2E2E2E2E2E2E2E2E2E2E2E2E2
310
E2E2E2E2E2E2E2E2E2E2E2E2E2E2E2E2E2E2E2E2E2E2E2E2E2E2E2E2E2E2E2E2E2E2E2E2E2E2E2E2E2E2E2E2E2E2E2E2E2E2E2E2E2E2E2E2E2E2E2E2E2E2E2E2E2E2E2E2E2E2E2E2E2E2E2E2E2E2E2E2E2E2E2E2E2E2E2E2E2E2E2E2E2E2E2E2E2E2E2E2E2E2E2E2E2E2E2E2E2E2E2E2E2E2E2E2E2E2E2E2E2E2E2E2E2E2E2
310
E2E2E2E2E2E2E2E2E2E2E2E2E2E2E2E2E2E2E2E2E2E2E2E2E2E2E2E2E2E2E2E2E2E2E2E2E2E2E2E2E2E2E2E2E2E2E2E2E2E2E2E2E2E2E2E2E2E2E2E2E2E2E2E2E2E2E2E2E2E2E2F5F5F5F5F5F5F5F5F5F5F5F5F5F5F5F5F5F5F5E2E2E2E2E2E2E2E2E2E2E2E2E2E2E2E2E2E2E2E2E2E2E2E2E2E2E2E2E2E2E2E2E2E2E2E2E2
310
E2E2E2E2E2E2E2E2E2E2E2E2E2E2E2E2E2E2E2E2E2E2E2E2E2E2E2E2E2E2E2E2E2E2E2E2E2E2E2E2E2E2E2E2E2E2E2E2E2E2E2E2E2E2E2E2E2E2E2E2E2E2E2E2E2E2E2E2E2E2E2E2E2E2E2E2E2E2E2E2E2E2E2E2E2E2E2E2E2E2E2E2E2E2E2E2E2E2E2E2E2E2E2E2E2E2E2E2E2E2E2E2E2E2E2E2E2E2E2E2E2E2E2E2E2E2E2
310
E2E2E2E2E2E2E2E2E2E2E2E2E2E2E2E2E2E2E2E2E2E2E2E2E2E2E2E2E2E2E2E2E2E2E2E2E2E2E2E2E2E2E2E2E2E2E2E2E2E2E2E2E2E2E2E2E2E2E2E2E2E2E2E2E2E2E2E2E2E2E2E2E2F5F5E2E2F5F5F5E2F5E2F5F5E2E2E2E2E2F5E2E2E2E2E2E2E2E2E2E2E2E2E2E2E2E2E2E2E2E2E2E2E2E2E2E2E2E2E2E2E2E2E2E2E2E2
310
E2E2E2E2E2E2E2E2E2E2E2E2E2E2E2E2E2E2E2E2E2E2E2E2E2E2E2E2E2E2E2E2E2E2E2E2E2E2E2E2E2E2E2E2E2E2E2E2E2E2E2E2E2E2E2E2E2E2E2E2E2E2E2E2E2E2E2E2E2E2E2E2E2E2E2E2E2E2E2E2E2E2E2E2E2E2E2E2E2E2E2E2E2E2E2E2E2E2E2E2E2E2E2E2E2E2E2E2E2E2E2E2E2E2E2E2E2E2E2E2E2E2E2E2E2E2E2
310
E2E2E2E2E2E2E2E2E2E2E2E2E2E2E2E2E2E2E2E2E2E2E2E2E2E2E2E2E2E2E2E2E2E2E2E2E2E2E2E2E2E2E2E2E2E2E2E2E2E2E2E2E2E2E2E2E2E2E2E2E2E2E2E2E2E2E2E2E2E2E2E2E2E2F5F5F5F5F5F5F5F5F5F5F5F5F5F5F5F5F5F5F5F5E2E2E2E2E2E2E2E2E2E2E2E2E2E2E2E2E2E2E2E2E2E2E2E2E2E2E2E2E2E2E2E2E2
310
E2E2E2E2E2E2E2E2E2E2E2E2E2E2E2E2E2E2E2E2E2E2E2E2E2E2E2E2E2E2E2E2E2E2E2E2E2E2E2E2E2E2E2E2E2E2E2E2E2E2E2E2E2E2E2E2E2E2E2E2E2E2E2E2E2E2E2E2E2E2E2E2E2E2E2E2E2E2E2E2E2E2E2E2E2E2E2E2E2E2E2E2E2E2E2E2E2E2E2E2E2E2E2E2E2E2E2E2E2E2E2E2E2E2E2E2E2E2E2E2E2E2E2E2E2E2E2
310
E2E2E2E2E2E2E2E2E2E2E2E2E2E2E2E2E2E2E2E2E2E2E2E2E2E2E2E2E2E2E2E2E2E2E2E2E2E2E2E2E2E2E2E2E2E2E2E2E2E2E2E2E2E2E2E2E2E2E2E2E2E2E2E2E2E2E2E2E2E2E2E2E2E2E2E2F5F5F5E2E2F5F5E2E2F5E2F5F5E2E2E2E2E2F5F5E2E2E2E2E2E2E2E2E2E2E2E2E2E2E2E2E2E2E2E2E2E2E2E2E2E2E2E2E2E2E2
310
E2E2E2E2E2E2E2E2E2E2E2E2E2E2E2E2E2E2E2E2E2E2E2E2E2E2E2E2E2E2E2E2E2E2E2E2E2E2E2E2E2E2E2E2E2E2E2E2E2E2E2E2E2E2E2E2E2E2E2E2E2E2E2E2E2E2E2E2E2E2E2E2E2E2E2E2E2E2E2E2E2E2E2E2E2E2E2E2E2E2E2E2E2E2E2E2E2E2E2E2E2E2E2E2E2E2E2E2E2E2E2E2E2E2E2E2E2E2E2E2E2E2E2E2E2E2E2
310
E2E2E2E2E2E2E2E2E2E2E2E2E2E2E2E2E2E2E2E2E2E2E2E2E2E2E2E2E2E2E2E2E2E2E2E2E2E2E2E2E2E2E2E2E2E2E2E2E2E2E2E2E2E2E2E2E2E2E2E2E2E2E2E2E2E2E2E2E2E2E2E2E2E2E2E2E2E2F5F5F5F5F5F5F5F5F5F5F5F5F5F5F5F5F5F5F5F5E2E2E2E2E2E2E2E2E2E2E2E2E2E2E2E2E2E2E2E2E2E2E2E2E2E2E2E2E2
310
E2E2E2E2E2E2E2E2E2E2E2E2E2E2E2E2E2E2E2E2E2E2E2E2E2E2E2E2E2E2E2E2E2E2E2E2E2E2E2E2E2E2E2E2E2E2E2E2E2E2E2E2E2E2E2E2E2E2E2E2E2E2E2E2E2E2E2E2E2E2E2E2E2E2E2E2E2E2E2E2E2E2E2E2E2E2E2E2E2E2E2E2E2E2E2E2E2E2E2E2E2E2E2E2E2E2E2E2E2E2E2E2E2E2E2E2E2E2E2E2E2E2E2E2E2E2E2
310
E2E2E2E2E2E2E2E2E2E2E2E2E2E2E2E2E2E2E2E2E2E2E2E2E2E2E2E2E2E2E2E2E2E2E2E2E2E2E2E2E2E2E2E2E2E2E2E2E2E2E2E2E2E2E2E2E2E2E2E2E2E2E2E2E2E2E2E2E2E2E2E2E2E2E2E2E2E2E2E2E2E2E2E2F5E2F5F5E2F5F5F5E2F5E2E2E2E2E2E2E2E2E2E2E2E2E2E2E2E2E2E2E2E2E2E2E2E2E2E2E2E2E2E2E2E2E2
310
E2E2E2E2E2E2E2E2E2E2E2E2E2E2E2E2E2E2E2E2E2E2E2E2E2E2E2E2E2E2E2E2E2E2E2E2E2E2E2E2E2E2E2E2E2E2E2E2E2E2E2E2E2E2E2E2E2E2E2E2E2E2E2E2E2E2E2E2E2E2E2E2E2E2E2E2E2E2E2E2E2E2E2E2E2E2E2E2E2E2E2E2E2E2E2E2E2E2E2E2E2E2E2E2E2E2E2E2E2E2E2E2E2E2E2E2E2E2E2E2E2E2E2E2E2E2E2
310
E2E2E2E2E2E2E2E2E2E2E2E2E2E2E2E2E2E2E2E2E2E2E2E2E2E2E2E2E2E2E2E2E2E2E2E2E2E2E2E2E2E2E2E2E2E2E2E2E2E2E2E2E2E2E2E2E2E2E2E2E2E2E2E2E2E2E2E2E2E2E2E2E2E2E2E2E2E2E2E2E2E2E2E2E2E2E2E2F5F5F5F5F5F5E2E2E2E2E2E2E2E2E2E2E2E2E2E2E2E2E2E2E2E2E2E2E2E2E2E2E2E2E2E2E2E2E2
310
E2E2E2E2E2E2E2E2E2E2E2E2E2E2E2E2E2E2E2E2E2E2E2E2E2E2E2E2E2E2E2E2E2E2E2E2E2E2E2E2E2E2E2E2E2E2E2E2E2E2E2E2E2E2E2E2E2E2E2E2E2E2E2E2E2E2E2E2E2E2E2E2E2E2E2E2E2E2E2E2E2E2E2E2E2E2E2E2E2E2E2E2E2E2E2E2E2E2E2E2E2E2E2E2E2E2E2E2E2E2E2E2E2E2E2E2E2E2E2E2E2E2E2E2E2E2E2
310
E2E2E2E2E2E2E2E2E2E2E2E2E2E2E2E2E2E2E2E2E2E2E2E2E2E2E2E2E2E2E2E2E2E2E2E2E2E2E2E2E2E2E2E2E2E2E2E2E2E2E2E2E2E2E2E2E2E2E2E2E2E2E2E2E2E2E2E2E2E2E2E2E2E2E2E2E2E2E2E2E2E2E2E2E2E2E2E2E2E2E2E2E2F5E2E2E2E2E2E2E2E2E2E2E2E2E2E2E2E2E2E2E2E2E2E2E2E2E2E2E2E2E2E2E2E2E2
310
E2E2E2E2E2E2E2E2E2E2E2E2E2E2E2E2E2E2E2E2E2E2E2E2E2E2E2E2E2E2E2E2E2E2E2E2E2E2E2E2E2E2E2E2E2E2E2E2E2E2E2E2E2E2E2E2E2E2E2E2E2E2E2E2E2E2E2E2E2E2E2E2E2E2E2E2E2E2E2E2E2E2E2E2E2E2E2E2E2E2E2E2E2E2E2E2E2E2E2E2E2E2E2E2E2E2E2E2E2E2E2E2E2E2E2E2E2E2E2E2E2E2E2E2E2E2E2
310
E2E2E2E2E2E2E2E2E2E2E2E2E2E2E2E2E2E2E2E2E2E2E2E2E2E2E2E2E2E2E2E2E2E2E2E2E2E2E2E2E2E2E2E2E2E2E2E2E2E2E2E2E2E2E2E2E2E2E2E2E2E2E2E2E2E2E2E2E2E2E2E2E2E2E2E2E2E2E2E2E2E2E2E2E2E2E2E2E2E2E2E2E2E2E2E2E2E2E2E2E2E2E2E2E2E2E2E2E2E2E2E2E2E2E2E2E2E2E2E2E2E2E2E2E2E2E2
310
E2E2E2E2E2E2E2E2E2E2E2E2E2E2E2E2E2E2E2E2E2E2E2E2E2E2E2E2E2E2E2E2E2E2E2E2E2E2E2E2E2E2E2E2E2E2E2E2E2E2E2E2E2E2E2E2E2E2E2E2E2E2E2E2E2E2E2E2E2E2E2E2E2E2E2E2E2E2E2E2E2E2E2E2E2E2E2E2E2E2E2E2E2E2E2E2E2E2E2E2E2E2E2E2E2E2E2E2E2E2E2E2E2E2E2E2E2E2E2E2E2E2E2E2E2E2E2
310
E2E2E2E2E2E2E2E2E2E2E2E2E2E2E2E2E2E2E2E2E2E2E2E2E2E2E2E2E2E2E2E2E2E2E2E2E2E2E2E2E2E2E2E2E2E2E2E2E2E2E2E2E2E2E2E2E2E2E2E2E2E2E2E2E2E2E2E2E2E2E2F5F5F5F5F5E2F5F5F5F5F5F5E2E2E2E2E2E2E2E2E2E2E2E2E2E2E2E2E2E2E2E2E2E2E2E2E2E2E2E2E2E2E2E2E2E2E2E2E2E2E2E2E2E2E2E2
310
E2E2E2E2E2E2E2E2E2E2E2E2E2E2E2E2E2E2E2E2E2E2E2E2E2E2E2E2E2E2E2E2E2E2E2E2E2E2E2E2E2E2E2E2E2E2E2E2E2E2E2E2E2E2E2E2E2E2E2E2E2E2E2E2E2E2E2E2E2E2E2E2E2E2E2E2E2E2E2E2E2E2E2E2E2E2E2E2E2E2E2E2E2E2E2E2E2E2E2E2E2E2E2E2E2E2E2E2E2E2E2E2E2E2E2E2E2E2E2E2E2E2E2E2E2E2E2
310
E2E2E2E2E2E2E2E2E2E2E2E2E2E2E2E2E2E2E2E2E2E2E2E2E2E2E2E2E2E2E2E2E2E2E2E2E2E2E2E2E2E2E2E2E2E2E2E2E2E2E2E2F5F5F5F5F5E2E2E2E2F5E2E2E2E2E2F5F5F5F5E2E2E2E2E2E2E2E2E2E2E2E2E2E2E2E2E2F5E2E2E2F5F5F5F5F5E2E2E2F5F5E2E2E2F5F5E2E2E2F5F5E2E2E2E2F5F5E2E2E2E2E2E2E2E2F5
310
F5F5F5F5F5E2F5E2E2F5F5F5E2E2E2F5F5F5E2E2E2E2E2E2E2E2E2E2E2E2E2E2E2E2E2E2E2E2E2E2E2E2E2E2E2E2E2E2E2E2E2E2E2E2E2E2E2E2E2E2E2E2E2E2E2E2E2E2E2E2E2E2E2E2E2E2E2E2E2E2E2E2E2E2E2E2E2E2E2E2E2E2E2E2E2E2E2E2E2E2E2E2E2E2E2E2E2E2E2E2E2E2E2E2E2E2E2E2E2E2E2E2E2E2E2E2E2
310
E2E2E2E2E2E2E2E2E2E2E2E2E2E2E2E2E2E2E2E2E2E2E2E2E2E2E2E2E2E2E2E2E2E2E2E2E2E2E2E2E2E2E2E2E2E2E2E2E2E2E2E2E2E2F5E2E2E2E2E2E2E2E2F5F5E2E2E2E2E2F5E2E2F5E2E2E2E2E2E2E2E2E2E2E2E2E2E2E2E2F5E2E2E2F5E2E2E2E2E2E2F5E2E2F5E2F5E2E2F5E2F5E2E2F5E2E2F5E2E2F5E2E2E2E2E2E2
310
E2F5E2E2E2E2E2E2F5E2F5E2E2E2F5E2F5E2E2E2F5F5E2E2E2E2E2E2E2E2E2E2E2E2E2E2E2E2E2E2E2E2E2E2E2E2E2E2E2E2E2E2E2E2E2E2E2E2E2E2E2E2E2E2E2E2E2E2E2E2E2E2E2E2E2E2E2E2E2E2E2E2E2E2E2E2E2E2E2E2E2E2E2E2E2E2E2E2E2E2E2E2E2E2E2E2E2E2E2E2E2E2E2E2E2E2E2E2E2E2E2E2E2E2E2E2E2
310
E2E2E2E2E2E2E2E2E2E2E2E2E2E2E2E2E2E2E2E2E2E2E2E2E2E2E2E2E2E2E2E2E2E2E2E2E2E2E2E2E2E2E2E2E2E2E2E2E2E2E2E2E2E2E2E2F5E2E2E2E2E2E2E2F5E2F5E2E2E2E2E2F5E2E2F5E2E2E2E2E2E2E2E2E2E2E2E2E2E2E2E2F5E2E2E2F5E2E2E2E2E2E2F5E2E2F5E2F5E2E2F5E2F5E2E2F5E2E2F5E2E2F5E2E2E2E2
310
E2E2E2F5E2E2E2E2E2E2E2E2E2E2E2E2F5E2E2E2E2E2F5E2E2E2E2E2E2E2E2E2E2E2E2E2E2E2E2E2E2E2E2E2E2E2E2E2E2E2E2E2E2E2E2E2E2E2E2E2E2E2E2E2E2E2E2E2E2E2E2E2E2E2E2E2E2E2E2E2E2E2E2E2E2E2E2E2E2E2E2E2E2E2E2E2E2E2E2E2E2E2E2E2E2E2E2E2E2E2E2E2E2E2E2E2E2E2E2E2E2E2E2E2E2E2E2
310
E2E2E2E2E2E2E2E2E2E2E2E2E2E2E2E2E2E2E2E2E2E2E2E2E2E2E2E2E2E2E2E2E2E2E2E2E2E2E2E2E2E2E2E2E2E2E2E2E2E2E2E2E2E2E2E2E2E2F5E2E2E2E2E2E2E2F5E2E2F5E2E2E2E2F5F5F5E2E2E2E2E2E2E2E2E2E2E2E2E2E2E2E2E2F5E2E2E2E2F5F5F5E2E2E2F5E2E2F5E2F5E2E2F5E2F5E2E2F5E2E2F5E2E2F5E2E2
310
E2E2E2E2E2E2F5F5F5E2E2E2E2E2E2E2E2E2F5E2E2E2F5F5E2E2E2E2E2E2E2E2E2E2E2E2E2E2E2E2E2E2E2E2E2E2E2E2E2E2E2E2E2E2E2E2E2E2E2E2E2E2E2E2E2E2E2E2E2E2E2E2E2E2E2E2E2E2E2E2E2E2E2E2E2E2E2E2E2E2E2E2E2E2E2E2E2E2E2E2E2E2E2E2E2E2E2E2E2E2E2E2E2E2E2E2E2E2E2E2E2E2E2E2E2E2E2
310
E2E2E2E2E2E2E2E2E2E2E2E2E2E2E2E2E2E2E2E2E2E2E2E2E2E2E2E2E2E2E2E2E2E2E2E2E2E2E2E2E2E2E2E2E2E2E2E2E2E2E2E2E2E2E2E2E2E2E2E2F5E2E2E2E2E2E2F5E2E2E2F5E2E2E2E2F5E2E2F5E2E2E2E2E2E2E2E2E2E2E2E2E2E2E2E2F5E2E2E2E2E2E2E2F5E2E2F5E2E2F5E2F5E2E2F5E2F5E2E2F5E2E2F5E2E2F5
310
E2E2E2E2E2E2E2E2E2E2E2F5F5E2E2E2F5F5F5F5E2E2E2F5E2E2E2E2E2E2E2E2E2E2E2E2E2E2E2E2E2E2E2E2E2E2E2E2E2E2E2E2E2E2E2E2E2E2E2E2E2E2E2E2E2E2E2E2E2E2E2E2E2E2E2E2E2E2E2E2E2E2E2E2E2E2E2E2E2E2E2E2E2E2E2E2E2E2E2E2E2E2E2E2E2E2E2E2E2E2E2E2E2E2E2E2E2E2E2E2E2E2E2E2E2E2E2
310
E2E2E2E2E2E2E2E2E2E2E2E2E2E2E2E2E2E2E2E2E2E2E2E2E2E2E2E2E2E2E2E2E2E2E2E2E2E2E2E2E2E2E2E2E2E2E2E2E2E2E2E2E2E2E2E2E2E2E2E2E2E2F5E2E2E2E2E2E2F5E2E2E2E2F5E2E2E2F5E2E2F5E2E2E2E2E2E2E2E2E2E2E2E2E2E2E2E2F5E2E2E2F5E2E2E2F5E2E2F5E2E2F5E2F5E2E2F5E2F5E2E2F5E2E2F5E2
310
E2F5E2E2E2E2E2E2E2F5E2E2E2E2F5E2E2E2F5E2E2E2E2E2F5E2E2E2E2F5E2E2E2E2E2E2E2E2E2E2E2E2E2E2E2E2E2E2E2E2E2E2E2E2E2E2E2E2E2E2E2E2E2E2E2E2E2E2E2E2E2E2E2E2E2E2E2E2E2E2E2E2E2E2E2E2E2E2E2E2E2E2E2E2E2E2E2E2E2E2E2E2E2E2E2E2E2E2E2E2E2E2E2E2E2E2E2E2E2E2E2E2E2E2E2E2E2
310
E2E2E2E2E2E2E2E2E2E2E2E2E2E2E2E2E2E2E2E2E2E2E2E2E2E2E2E2E2E2E2E2E2E2E2E2E2E2E2E2E2E2E2E2E2E2E2E2E2E2E2E2E2E2E2E2E2E2E2E2E2E2E2E2F5E2E2E2E2E2F5E2E2E2E2E2F5E2E2F5F5F5F5E2E2E2E2E2E2E2E2E2E2E2E2E2E2E2F5F5F5F5F5E2E2F5F5F5E2E2E2E2F5F5E2E2E2F5F5E2E2E2F5F5E2E2E2
310
E2F5F5E2E2E2E2E2E2E2E2E2F5F5F5F5E2E2E2E2F5F5F5F5F5E2E2F5F5F5F5E2E2E2E2E2E2E2E2E2E2E2E2E2E2E2E2E2E2E2E2E2E2E2E2E2E2E2E2E2E2E2E2E2E2E2E2E2E2E2E2E2E2E2E2E2E2E2E2E2E2E2E2E2E2E2E2E2E2E2E2E2E2E2E2E2E2E2E2E2E2E2E2E2E2E2E2E2E2E2E2E2E2E2E2E2E2E2E2E2E2E2E2E2E2E2E2
310
E2E2E2E2E2E2E2E2E2E2E2E2E2E2E2E2E2E2E2E2E2E2E2E2E2E2E2E2E2E2E2E2E2E2E2E2E2E2E2E2E2E2E2E2E2E2E2E2E2E2E2E2E2E2E2E2E2E2E2E2E2E2E2E2E2E2E2E2E2E2E2E2E2E2E2E2E2E2E2E2E2E2E2E2E2E2E2E2E2E2E2E2E2E2E2E2E2E2E2E2E2E2E2E2E2E2E2E2E2E2E2E2E2E2E2E2E2E2E2E2E2E2E2E2E2E2E2
310
E2E2E2E2E2E2E2E2E2E2E2E2E2E2E2E2E2E2E2E2E2E2E2E2E2E2E2E2E2E2E2E2E2E2E2E2E2E2E2E2E2E2E2E2E2E2E2E2E2E2E2E2E2E2E2E2E2E2E2E2E2E2E2E2E2E2E2E2E2E2E2E2E2E2E2E2E2E2E2E2E2E2E2E2E2E2E2E2E2E2E2E2E2E2E2E2E2E2E2E2E2E2E2E2E2E2E2E2E2E2E2E2E2E2E2E2E2E2E2E2E2E2E2E2E2E2E2
310
E2E2E2E2E2E2E2E2E2E2E2E2E2E2E2E2E2E2E2E2E2E2E2E2E2E2E2E2E2E2E2E2E2E2E2E2E2E2E2E2E2E2E2E2E2E2E2E2E2E2E2E2E2E2E2E2E2E2E2E2E2E2E2E2E2E2E2E2E2E2E2E2E2E2E2E2E2E2E2E2E2E2E2E2E2E2E2E2E2E2E2E2E2E2E2E2E2E2E2E2E2E2E2E2E2E2E2E2E2E2E2E2E2E2E2E2E2E2E2E2E2E2E2E2E2E2E2
310
E2E2E2E2E2E2E2E2E2E2E2E2E2E2E2E2E2E2E2E2E2E2E2E2E2E2E2E2E2E2E2E2E2E2E2E2E2E2E2E2E2E2E2E2E2E2E2E2E2E2E2E2E2E2E2E2E2E2E2E2E2E2E2E2E2E2E2E2E2E2E2E2E2E2E2E2E2E2E2E2E2E2E2E2E2E2E2E2E2E2E2E2E2E2E2E2E2E2E2E2E2E2E2E2E2E2E2E2E2E2E2E2E2E2E2E2E2E2E2E2E2E2E2E2E2E2E2
310
E2E2E2E2E2E2E2E2E2E2E2E2E2E2E2E2E2E2E2E2E2E2E2E2E2E2E2E2E2E2E2E2E2E2E2E2E2E2E2E2E2E2E2E2E2E2E2E2E2E2E2E2E2E2E2E2E2E2E2E2E2E2E2E2E2E2E2E2E2E2E2E2E2E2E2E2E2E2E2E2E2E2E2E2E2E2E2E2E2E2E2E2E2E2E2E2E2E2E2E2E2E2E2E2E2E2E2E2E2E2E2E2E2E2E2E2E2E2E2E2E2E2E2E2E2E2E2
310
E2E2E2E2E2E2E2E2E2E2E2E2E2E2E2E2E2E2E2E2E2E2E2E2E2E2E2E2E2E2E2E2E2E2E2E2E2E2E2E2E2E2E2E2E2E2E2E2E2E2E2E2E2E2E2E2E2E2E2E2E2E2E2E2E2E2E2E2E2E2E2E2E2E2E2E2E2E2E2E2E2E2E2E2E2E2E2E2E2E2E2E2E2E2E2E2E2E2E2E2E2E2E2E2E2E2E2E2E2E2E2E2E2E2E2E2E2E2E2E2E2E2E2E2E2E2E2
310
E2E2E2E2E2E2E2E2E2E2E2E2E2E2E2E2E2E2E2E2E2E2E2E2E2E2E2E2E2E2E2E2E2E2E2E2E2E2E2E2E2E2E2E2E2E2E2E2E2E2E2E2E2E2E2E2E2E2E2E2E2E2E2E2E2E2E2E2E2E2E2E2E2E2E2E2E2E2E2E2E2E2E2E2E2E2E2E2E2E2E2E2E2E2E2E2E2E2E2E2E2E2E2E2E2E2E2E2E2E2E2E2E2E2E2E2E2E2E2E2E2E2E2E2E2E2E2
310
E2E2E2E2E2E2E2E2E2E2E2E2E2E2E2E2E2E2E2E2E2E2E2E2E2E2E2E2E2E2E2E2E2E2E2E2E2E2E2E2E2E2E2E2E2E2E2E2E2E2E2E2E2E2E2E2E2E2E2E2E2E2E2E2E2E2E2E2E2E2E2E2E2E2E2E2E2E2E2E2E2E2E2E2E2E2E2E2E2E2E2E2E2E2E2E2E2E2E2E2E2E2E2E2E2E2E2E2E2E2E2E2E2E2E2E2E2E2E2E2E2E2E2E2E2E2E2
310
E2E2E2E2E2E2E2E2E2E2E2E2E2E2E2E2E2E2E2E2E2E2E2E2E2E2E2E2E2E2E2E2E2E2E2E2E2E2E2E2E2E2E2E2E2E2E2E2E2E2E2E2E2E2E2E2E2E2E2E2E2E2E2E2E2E2E2E2E2E2E2E2E2E2E2E2E2E2E2E2E2E2E2E2E2E2E2E2E2E2E2E2E2E2E2E2E2E2E2E2E2E2E2E2E2E2E2E2E2E2E2E2E2E2E2E2E2E2E2E2E2E2E2E2E2E2E2
310
E2E2E2E2E2E2E2E2E2E2E2E2E2E2E2E2E2E2E2E2E2E2E2E2E2E2E2E2E2E2E2E2E2E2E2E2E2E2E2E2E2E2E2E2E2E2E2E2E2E2E2E2E2E2E2E2E2E2E2E2E2E2E2E2E2E2E2E2E2E2E2E2E2E2E2E2E2E2E2E2E2E2E2E2E2E2E2E2E2E2E2E2E2E2E2E2E2E2E2E2E2E2E2E2E2E2E2E2E2E2E2E2E2E2E2E2E2E2E2E2E2E2E2E2E2E2E2
310
E2E2E2E2E2E2E2E2E2E2E2E2E2E2E2E2E2E2E2E2E2E2E2E2E2E2E2E2E2E2E2E2E2E2E2E2E2E2E2E2E2E2E2E2E2E2E2E2E2E2E2E2E2E2E2E2E2E2E2E2E2E2E2E2E2E2E2E2E2E2E2E2E2E2E2E2E2E2E2E2E2E2E2E2E2E2E2E2E2E2E2E2E2E2E2E2E2E2E2E2E2E2E2E2E2E2E2E2E2E2E2E2E2E2E2E2E2E2E2E2E2E2E2E2E2E2E2
310
E2E2E2E2E2E2E2E2E2E2E2E2E2E2E2E2E2E2E2E2E2E2E2E2E2E2E2E2E2E2E2E2E2E2E2E2E2E2E2E2E2E2E2E2E2E2E2E2E2E2E2E2E2E2E2E2E2E2E2E2E2E2E2E2E2E2E2E2E2E2E2E2E2E2E2E2E2E2E2E2E2E2E2E2E2E2E2E2E2E2E2E2E2E2E2E2E2E2E2E2E2E2E2E2E2E2E2E2E2E2E2E2E2E2E2E2E2E2E2E2E2E2E2E2E2E2E2
310
E2E2E2E2E2E2E2E2E2E2E2E2E2E2E2E2E2E2E2E2E2E2E2E2E2E2E2E2E2E2E2E2E2E2E2E2E2E2E2E2E2E2E2E2E2E2E2E2E2E2E2E2E2E2E2E2E2E2E2E2E2E2E2E2E2E2E2E2E2E2E2E2E2E2E2E2E2E2E2E2E2E2E2E2E2E2E2E2E2E2E2E2E2E2E2E2E2E2E2E2E2E2E2E2E2E2E2E2E2E2E2E2E2E2E2E2E2E2E2E2E2E2E2E2E2E2E2
310
E2E2E2E2E2E2E2E2E2E2E2E2E2E2E2E2E2E2E2E2E2E2E2E2E2E2E2E2E2E2E2E2E2E2E2E2E2E2E2E2E2E2E2E2E2E2E2E2E2E2E2E2E2E2E2E2E2E2E2E2E2E2E2E2E2E2E2E2E2E2E2E2E2E2E2E2E2E2E2E2E2E2E2E2E2E2E2E2E2E2E2E2E2E2E2E2E2E2E2E2E2E2E2E2E2E2E2E2E2E2E2E2E2E2E2E2E2E2E2E2E2E2E2E2E2E2E2
310
E2E2E2E2E2E2E2E2E2E2E2E2E2E2E2E2E2E2E2E2E2E2E2E2E2E2E2E2E2E2E2E2E2E2E2E2E2E2E2E2E2E2E2E2E2E2E2E2E2E2E2E2E2E2E2E2E2E2E2E2E2E2E2E2E2E2E2E2E2E2E2E2E2E2E2E2E2E2E2E2E2E2E2E2E2E2E2E2E2E2E2E2E2E2E2E2E2E2E2E2E2E2E2E2E2E2E2E2E2E2E2E2E2E2E2E2E2E2E2E2E2E2E2E2E2E2E2
310
E2E2E2E2E2E2E2E2E2E2E2E2E2E2E2E2E2E2E2E2E2E2E2E2E2E2E2E2E2E2E2E2E2E2E2E2E2E2E2E2E2E2E2E2E2E2E2E2E2E2E2E2E2E2E2E2E2E2E2E2E2E2E2E2E2E2E2E2E2E2E2E2E2E2E2E2E2E2E2E2E2E2E2E2E2E2E2E2E2E2E2E2E2E2E2E2E2E2E2E2E2E2E2E2E2E2E2E2E2E2E2E2E2E2E2E2E2E2E2E2E2E2E2E2E2E2E2
310
E2E2E2E2E2E2E2E2E2E2E2E2E2E2E2E2E2E2E2E2E2E2E2E2E2E2E2E2E2E2E2E2E2E2E2E2E2E2E2E2E2E2E2E2E2E2E2E2E2E2E2E2E2E2E2E2E2E2E2E2E2E2E2E2E2E2E2E2E2E2E2E2E2E2E2E2E2E2E2E2E2E2E2E2E2E2E2E2E2E2E2E2E2E2E2E2E2E2E2E2E2E2E2E2E2E2E2E2E2E2E2E2E2E2E2E2E2E2E2E2E2E2E2E2E2E2E2
310
E2E2E2E2E2E2E2E2E2E2E2E2E2E2E2E2E2E2E2E2E2E2E2E2E2E2E2E2E2E2E2E2E2E2E2E2E2E2E2E2E2E2E2E2E2E2E2E2E2E2E2E2E2E2E2E2E2E2E2E2E2E2E2E2E2E2E2E2E2E2E2E2E2E2E2E2E2E2E2E2E2E2E2E2E2E2E2E2E2E2E2E2E2E2E2E2E2E2E2E2E2E2E2E2E2E2E2E2E2E2E2E2E2E2E2E2E2E2E2E2E2E2E2E2E2E2E2
310
E2E2E2E2E2E2E2E2E2E2E2E2E2E2E2E2E2E2E2E2E2E2E2E2E2E2E2E2E2E2E2E2E2E2E2E2E2E2E2E2E2E2E2E2E2E2E2E2E2E2E2E2E2E2E2E2E2E2E2E2E2E2E2E2E2E2E2E2E2E2E2E2E2E2E2E2E2E2E2E2E2E2E2E2E2E2E2E2E2E2E2E2E2E2E2E2E2E2E2E2E2E2E2E2E2E2E2E2E2E2E2E2E2E2E2E2E2E2E2E2E2E2E2E2E2E2E2
310
E2E2E2E2E2E2E2E2E2E2E2E2E2E2E2E2E2E2E2E2E2E2E2E2E2E2E2E2E2E2E2E2E2E2E2E2E2E2E2E2E2E2E2E2E2E2E2E2E2E2E2E2E2E2E2E2E2E2E2E2E2E2E2E2E2E2E2E2E2E2E2E2E2E2E2E2E2E2E2E2E2E2E2E2E2E2E2E2E2E2E2E2E2E2E2E2E2E2E2E2E2E2E2E2E2E2E2E2E2E2E2E2E2E2E2E2E2E2E2E2E2E2E2E2E2E2E2
310
E2E2E2E2E2E2E2E2E2E2E2E2E2E2E2E2E2E2E2E2E2E2E2E2E2E2E2E2E2E2E2E2E2E2E2E2E2E2E2E2E2E2E2E2E2E2E2E2E2E2E2E2E2E2E2E2E2E2E2E2E2E2E2E2E2E2E2E2E2E2E2E2E2E2E2E2E2E2E2E2E2E2E2E2E2E2E2E2E2E2E2E2E2E2E2E2E2E2E2E2E2E2E2E2E2E2E2E2E2E2E2E2E2E2E2E2E2E2E2E2E2E2E2E2E2E2E2
310
E2E2E2E2E2E2E2E2E2E2E2E2E2E2E2E2E2E2E2E2E2E2E2E2E2E2E2E2E2E2E2E2E2E2E2E2E2E2E2E2E2E2E2E2E2E2E2E2E2E2E2E2E2E2E2E2E2E2E2E2E2E2E2E2E2E2E2E2E2E2E2E2E2E2E2E2E2E2E2E2E2E2E2E2E2E2E2E2E2E2E2E2E2E2E2E2E2E2E2E2E2E2E2E2E2E2E2E2E2E2E2E2E2E2E2E2E2E2E2E2E2E2E2E2E2E2E2
310
E2E2E2E2E2E2E2E2E2E2E2E2E2E2E2E2E2E2E2E2E2E2E2E2E2E2E2E2E2E2E2E2E2E2E2E2E2E2E2E2E2E2E2E2E2E2E2E2E2E2E2E2E2E2E2E2E2E2E2E2E2E2E2E2E2E2E2E2E2E2E2E2E2E2E2E2E2E2E2E2E2E2E2E2E2E2E2E2E2E2E2E2E2E2E2E2E2E2E2E2E2E2E2E2E2E2E2E2E2E2E2E2E2E2E2E2E2E2E2E2E2E2E2E2E2E2E2
310
E2E2E2E2E2E2E2E2E2E2E2E2E2E2E2E2E2E2E2E2E2E2E2E2E2E2E2E2E2E2E2E2E2E2E2E2E2E2E2E2E2E2E2E2E2E2E2E2E2E2E2E2E2E2E2E2E2E2E2E2E2E2E2E2E2E2E2E2E2E2E2E2E2E2E2E2E2E2E2E2E2E2E2E2E2E2E2E2E2E2E2E2E2E2E2E2E2E2E2E2E2E2E2E2E2E2E2E2E2E2E2E2E2E2E2E2E2E2E2E2E2E2E2E2E2E2E2
310
E2E2E2E2E2E2E2E2E2E2E2E2E2E2E2E2E2E2E2E2E2E2E2E2E2E2E2E2E2E2E2E2E2E2E2E2E2E2E2E2E2E2E2E2E2E2E2E2E2E2E2E2E2E2E2E2E2E2E2E2E2E2E2E2E2E2E2E2E2E2E2E2E2E2E2E2E2E2E2E2E2E2E2E2E2E2E2E2E2E2E2E2E2E2E2E2E2E2E2E2E2E2E2E2E2E2E2E2E2E2E2E2E2E2E2E2E2E2E2E2E2E2E2E2E2E2E2
310
E2E2E2E2E2E2E2E2E2E2E2E2E2E2E2E2E2E2E2E2E2E2E2E2E2E2E2E2E2E2E2E2E2E2E2E2E2E2E2E2E2E2E2E2E2E2E2E2E2E2E2E2E2E2E2E2E2E2E2E2E2E2E2E2E2E2E2E2E2E2E2E2E2E2E2E2E2E2E2E2E2E2E2E2E2E2E2E2E2E2E2E2E2E2E2E2E2E2E2E2E2E2E2E2E2E2E2E2E2E2E2E2E2E2E2E2E2E2E2E2E2E2E2E2E2E2E2
310
E2E2E2E2E2E2E2E2E2E2E2E2E2E2E2E2E2E2E2E2E2E2E2E2E2E2E2E2E2E2E2E2E2E2E2E2E2E2E2E2E2E2E2E2E2E2E2E2E2E2E2E2E2E2E2E2E2E2E2E2E2E2E2E2E2E2E2E2E2E2E2E2E2E2E2E2E2E2E2E2E2E2E2E2E2E2E2E2E2E2E2E2E2E2E2E2E2E2E2E2E2E2E2E2E2E2E2E2E2E2E2E2E2E2E2E2E2E2E2E2E2E2E2E2E2E2E2
310
E2E2E2E2E2E2E2E2E2E2E2E2E2E2E2E2E2E2E2E2E2E2E2E2E2E2E2E2E2E2E2E2E2E2E2E2E2E2E2E2E2E2E2E2E2E2E2E2E2E2E2E2E2E2E2E2E2E2E2E2E2E2E2E2E2E2E2E2E2E2E2E2E2E2E2E2E2E2E2E2E2E2E2E2E2E2E2E2E2E2E2E2E2E2E2E2E2E2E2E2E2E2E2E2E2E2E2E2E2E2E2E2E2E2E2E2E2E2E2E2E2E2E2E2E2E2E2
310
E2E2E2E2E2E2E2E2E2E2E2E2E2E2E2E2E2E2E2E2E2E2E2E2E2E2E2E2E2E2E2E2E2E2E2E2E2E2E2E2E2E2E2E2E2E2E2E2E2E2E2E2E2E2E2E2E2E2E2E2E2E2E2E2E2E2E2E2E2E2E2E2E2E2E2E2E2E2E2E2E2E2E2E2E2E2E2E2E2E2E2E2E2E2E2E2E2E2E2E2E2E2E2E2E2E2E2E2E2E2E2E2E2E2E2E2E2E2E2E2E2E2E2E2E2E2E2
310
E2E2E2E2E2E2E2E2E2E2E2E2E2E2E2E2E2E2E2E2E2E2E2E2E2E2E2E2E2E2E2E2E2E2E2E2E2E2E2E2E2E2E2E2E2E2E2E2E2E2E2E2E2E2E2E2E2E2E2E2E2E2E2E2E2E2E2E2E2E2E2E2E2E2E2E2E2E2E2E2E2E2E2E2E2E2E2E2E2E2E2E2E2E2E2E2E2E2E2E2E2E2E2E2E2E2E2E2E2E2E2E2E2E2E2E2E2E2E2E2E2E2E2E2E2E2E2
310
E2E2E2E2E2E2E2E2E2E2E2E2E2E2E2E2E2E2E2E2E2E2E2E2E2E2E2E2E2E2E2E2E2E2E2E2E2E2E2E2E2E2E2E2E2E2E2E2E2E2E2E2E2E2E2E2E2E2E2E2E2E2E2E2E2E2E2E2E2E2E2E2E2E2E2E2E2E2E2E2E2E2E2E2E2E2E2E2E2E2E2E2E2E2E2E2E2E2E2E2E2E2E2E2E2E2E2E2E2E2E2E2E2E2E2E2E2E2E2E2E2E2E2E2E2E2E2
310
E2E2E2E2E2E2E2E2E2E2E2E2E2E2E2E2E2E2E2E2E2E2E2E2E2E2E2E2E2E2E2E2E2E2E2E2E2E2E2E2E2E2E2E2E2E2E2E2E2E2E2E2E2E2E2E2E2E2E2E2E2E2E2E2E2E2E2E2E2E2E2E2E2E2E2E2E2E2E2E2E2E2E2E2E2E2E2E2E2E2E2E2E2E2E2E2E2E2E2E2E2E2E2E2E2E2E2E2E2E2E2E2E2E2E2E2E2E2E2E2E2E2E2E2E2E2E2
310
E2E2E2E2E2E2E2E2E2E2E2E2E2E2E2E2E2E2E2E2E2E2E2E2E2E2E2E2E2E2E2E2E2E2E2E2E2E2E2E2E2E2E2E2E2E2E2E2E2E2E2E2E2E2E2E2E2E2E2E2E2E2E2E2E2E2E2E2E2E2E2E2E2E2E2E2E2E2E2E2E2E2E2E2E2E2E2E2E2E2E2E2E2E2E2E2E2E2E2E2E2E2E2E2E2E2E2E2E2E2E2E2E2E2E2E2E2E2E2E2E2E2E2E2E2E2E2
310
E2E2E2E2E2E2E2E2E2E2E2E2E2E2E2E2E2E2E2E2E2E2E2E2E2E2E2E2E2E2E2E2E2E2E2E2E2E2E2E2E2E2E2E2E2E2E2E2E2E2E2E2E2E2E2E2E2E2E2E2E2E2E2E2E2E2E2E2E2E2E2E2E2E2E2E2E2E2E2E2E2E2E2E2E2E2E2E2E2E2E2E2E2E2E2E2E2E2E2E2E2E2E2E2E2E2E2E2E2E2E2E2E2E2E2E2E2E2E2E2E2E2E2E2E2E2E2
310
E2E2E2E2E2E2E2E2E2E2E2E2E2E2E2E2E2E2E2E2E2E2E2E2E2E2E2E2E2E2E2E2E2E2E2E2E2E2E2E2E2E2E2E2E2E2E2E2E2E2E2E2E2E2E2E2E2E2E2E2E2E2E2E2E2E2E2E2E2E2E2E2E2E2E2E2E2E2E2E2E2E2E2E2E2E2E2E2E2E2E2E2E2E2E2E2E2E2E2E2E2E2E2E2E2E2E2E2E2E2E2E2E2E2E2E2E2E2E2E2E2E2E2E2E2E2E2
310
E2E2E2E2E2E2E2E2E2E2E2E2E2E2E2E2E2E2E2E2E2E2E2E2E2E2E2E2E2E2E2E2E2E2E2E2E2E2E2E2E2E2E2E2E2E2E2E2E2E2E2E2E2E2E2E2E2E2E2E2E2E2E2E2E2E2E2E2E2E2E2E2E2E2E2E2E2E2E2E2E2E2E2E2E2E2E2E2E2E2E2E2E2E2E2E2E2E2E2E2E2E2E2E2E2E2E2E2E2E2E2E2E2E2E2E2E2E2E2E2E2E2E2E2E2E2E2
310
E2E2E2E2E2E2E2E2E2E2E2E2E2E2E2E2E2E2E2E2E2E2E2E2E2E2E2E2E2E2E2E2E2E2E2E2E2E2E2E2E2E2E2E2E2E2E2E2E2E2E2E2E2E2E2E2E2E2E2E2E2E2E2E2E2E2E2E2E2E2E2E2E2E2E2E2E2E2E2E2E2E2E2E2E2E2E2E2E2E2E2E2E2E2E2E2E2E2E2E2E2E2E2E2E2E2E2E2E2E2E2E2E2E2E2E2E2E2E2E2E2E2E2E2E2E2E2
310
E2E2E2E2E2E2E2E2E2E2E2E2E2E2E2E2E2E2E2E2E2E2E2E2E2E2E2E2E2E2E2E2E2E2E2E2E2E2E2E2E2E2E2E2E2E2E2E2E2E2E2E2E2E2E2E2E2E2E2E2E2E2E2E2E2E2E2E2E2E2E2E2E2E2E2E2E2E2E2E2E2E2E2E2E2E2E2E2E2E2E2E2E2E2E2E2E2E2E2E2E2E2E2E2E2E2E2E2E2E2E2E2E2E2E2E2E2E2E2E2E2E2E2E2E2E2E2
310
E2E2E2E2E2E2E2E2E2E2E2E2E2E2E2E2E2E2E2E2E2E2E2E2E2E2E2E2E2E2E2E2E2E2E2E2E2E2E2E2E2E2E2E2E2E2E2E2E2E2E2E2E2E2E2E2E2E2E2E2E2E2E2E2E2E2E2E2E2E2E2E2E2E2E2E2E2E2E2E2E2E2E2E2E2E2E2E2E2E2E2E2E2E2E2E2E2E2E2E2E2E2E2E2E2E2E2E2E2E2E2E2E2E2E2E2E2E2E2E2E2E2E2E2E2E2E2
310
E2E2E2E2E2E2E2E2E2E2E2E2E2E2E2E2E2E2E2E2E2E2E2E2E2E2E2E2E2E2E2E2E2E2E2E2E2E2E2E2E2E2E2E2E2E2E2E2E2E2E2E2E2E2E2E2E2E2E2E2E2E2E2E2E2E2E2E2E2E2E2E2E2E2E2E2E2E2E2E2E2E2E2E2E2E2E2E2E2E2E2E2E2E2E2E2E2E2E2E2E2E2E2E2E2E2E2E2E2E2E2E2E2E2E2E2E2E2E2E2E2E2E2E2E2E2E2
310
E2E2E2E2E2E2E2E2E2E2E2E2E2E2E2E2E2E2E2E2E2E2E2E2E2E2E2E2E2E2E2E2E2E2E2E2E2E2E2E2E2E2E2E2E2E2E2E2E2E2E2E2E2E2E2E2E2E2E2E2E2E2E2E2E2E2E2E2E2E2E2E2E2E2E2E2E2E2E2E2E2E2E2E2E2E2E2E2E2E2E2E2E2E2E2E2E2E2E2E2E2E2E2E2E2E2E2E2E2E2E2E2E2E2E2E2E2E2E2E2E2E2E2E2E2E2E2
310
E2E2E2E2E2E2E2E2E2E2E2E2E2E2E2E2E2E2E2E2E2E2E2E2E2E2E2E2E2E2E2E2E2E2E2E2E2E2E2E2E2E2E2E2E2E2E2E2E2E2E2E2E2E2E2E2E2E2E2E2E2E2E2E2E2E2E2E2E2E2E2E2E2E2E2E2E2E2E2E2E2E2E2E2E2E2E2E2E2E2E2E2E2E2E2E2E2E2E2E2E2E2E2E2E2E2E2E2E2E2E2E2E2E2E2E2E2E2E2E2E2E2E2E2E2E2E2
310
E2E2E2E2E2E2E2E2E2E2E2E2E2E2E2E2E2E2E2E2E2E2E2E2E2E2E2E2E2E2E2E2E2E2E2E2E2E2E2E2E2E2E2E2E2E2E2E2E2E2E2E2E2E2E2E2E2E2E2E2E2E2E2E2E2E2E2E2E2E2E2E2E2E2E2E2E2E2E2E2E2E2E2E2E2E2E2E2E2E2E2E2E2E2E2E2E2E2E2E2E2E2E2E2E2E2E2E2E2E2E2E2E2E2E2E2E2E2E2E2E2E2E2E2E2E2E2
310
E2E2E2E2E2E2E2E2E2E2E2E2E2E2E2E2E2E2E2E2E2E2E2E2E2E2E2E2E2E2E2E2E2E2E2E2E2E2E2E2E2E2E2E2E2E2E2E2E2E2E2E2E2E2E2E2E2E2E2E2E2E2E2E2E2E2E2E2E2E2E2E2E2E2E2E2E2E2E2E2E2E2E2E2E2E2E2E2E2E2E2E2E2E2E2E2E2E2E2E2E2E2E2E2E2E2E2E2E2E2E2E2E2E2E2E2E2E2E2E2E2E2E2E2E2E2E2
310
E2E2E2E2E2E2E2E2E2E2E2E2E2E2E2E2E2E2E2E2E2E2E2E2E2E2E2E2E2E2E2E2E2E2E2E2E2E2E2E2E2E2E2E2E2E2E2E2E2E2E2E2E2E2E2E2E2E2E2E2E2E2E2E2E2E2E2E2E2E2E2E2E2E2E2E2E2E2E2E2E2E2E2E2E2E2E2E2E2E2E2E2E2E2E2E2E2E2E2E2E2E2E2E2E2E2E2E2E2E2E2E2E2E2E2E2E2E2E2E2E2E2E2E2E2E2E2
310
E2E2E2E2E2E2E2E2E2E2E2E2E2E2E2E2E2E2E2E2E2E2E2E2E2E2E2E2E2E2E2E2E2E2E2E2E2E2E2E2E2E2E2E2E2E2E2E2E2E2E2E2E2E2E2E2E2E2E2E2E2E2E2E2E2E2E2E2E2E2E2E2E2E2E2E2E2E2E2E2E2E2E2E2E2E2E2E2E2E2E2E2E2E2E2E2E2E2E2E2E2E2E2E2E2E2E2E2E2E2E2E2E2E2E2E2E2E2E2E2E2E2E2E2E2E2E2
310
E2E2E2E2E2E2E2E2E2E2E2E2E2E2E2E2E2E2E2E2E2E2E2E2E2E2E2E2E2E2E2E2E2E2E2E2E2E2E2E2E2E2E2E2E2E2E2E2E2E2E2E2E2E2E2E2E2E2E2E2E2E2E2E2E2E2E2E2E2E2E2E2E2E2E2E2E2E2E2E2E2E2E2E2E2E2E2E2E2E2E2E2E2E2E2E2E2E2E2E2E2E2E2E2E2E2E2E2E2E2E2E2E2E2E2E2E2E2E2E2E2E2E2E2E2E2E2
310
E2E2E2E2E2E2E2E2E2E2E2E2E2E2E2E2E2E2E2E2E2E2E2E2E2E2E2E2E2E2E2E2E2E2E2E2E2E2E2E2E2E2E2E2E2E2E2E2E2E2E2E2E2E2E2E2E2E2E2E2E2E2E2E2E2E2E2E2E2E2E2E2E2E2E2E2E2E2E2E2E2E2E2E2E2E2E2E2E2E2E2E2E2E2E2E2E2E2E2E2E2E2E2E2E2E2E2E2E2E2E2E2E2E2E2E2E2E2E2E2E2E2E2E2E2E2E2
310
E2E2E2E2E2E2E2E2E2E2E2E2E2E2E2E2E2E2E2E2E2E2E2E2E2E2E2E2E2E2E2E2E2E2E2E2E2E2E2E2E2E2E2E2E2E2E2E2E2E2E2E2E2E2E2E2E2E2E2E2E2E2E2E2E2E2E2E2E2E2E2E2E2E2E2E2E2E2E2E2E2E2E2E2E2E2E2E2E2E2E2E2E2E2E2E2E2E2E2E2E2E2E2E2E2E2E2E2E2E2E2E2E2E2E2E2E2E2E2E2E2E2E2E2E2E2E2
310
E2E2E2E2E2E2E2E2E2E2E2E2E2E2E2E2E2E2E2E2E2E2E2E2E2E2E2E2E2E2E2E2E2E2E2E2E2E2E2E2E2E2E2E2E2E2E2E2E2E2E2E2E2E2E2E2E2E2E2E2E2E2E2E2E2E2E2E2E2E2E2E2E2E2E2E2E2E2E2E2E2E2E2E2E2E2E2E2E2E2E2E2E2E2E2E2E2E2E2E2E2E2E2E2E2E2E2E2E2E2E2E2E2E2E2E2E2E2E2E2E2E2E2E2E2E2E2
310
E2E2E2E2E2E2E2E2E2E2E2E2E2E2E2E2E2E2E2E2E2E2E2E2E2E2E2E2E2E2E2E2E2E2E2E2E2E2E2E2E2E2E2E2E2E2E2E2E2E2E2E2E2E2E2E2E2E2E2E2E2E2E2E2E2E2E2E2E2E2E2E2E2E2E2E2E2E2E2E2E2E2E2E2E2E2E2E2E2E2E2E2E2E2E2E2E2E2E2E2E2E2E2E2E2E2E2E2E2E2E2E2E2E2E2E2E2E2E2E2E2E2E2E2E2E2E2
310
E2E2E2E2E2E2E2E2E2E2E2E2E2E2E2E2E2E2E2E2E2E2E2E2E2E2E2E2E2E2E2E2E2E2E2E2E2E2E2E2E2E2E2E2E2E2E2E2E2E2E2E2E2E2E2E2E2E2E2E2E2E2E2E2E2E2E2E2E2E2E2E2E2E2E2E2E2E2E2E2E2E2E2E2E2E2E2E2E2E2E2E2E2E2E2E2E2E2E2E2E2E2E2E2E2E2E2E2E2E2E2E2E2E2E2E2E2E2E2E2E2E2E2E2E2E2E2
310
E2E2E2E2E2E2E2E2E2E2E2E2E2E2E2E2E2E2E2E2E2E2E2E2E2E2E2E2E2E2E2E2E2E2E2E2E2E2E2E2E2E2E2E2E2E2E2E2E2E2E2E2E2E2E2E2E2E2E2E2E2E2E2E2E2E2E2E2E2E2E2E2E2E2E2E2E2E2E2E2E2E2E2E2E2E2E2E2E2E2E2E2E2E2E2E2E2E2E2E2E2E2E2E2E2E2E2E2E2E2E2E2E2E2E2E2E2E2E2E2E2E2E2E2E2E2E2
310
E2E2E2E2E2E2E2E2E2E2E2E2E2E2E2E2E2E2E2E2E2E2E2E2E2E2E2E2E2E2E2E2E2E2E2E2E2E2E2E2E2E2E2E2E2E2E2E2E2E2E2E2E2E2E2E2E2E2E2E2E2E2E2E2E2E2E2E2E2E2E2E2E2E2E2E2E2E2E2E2E2E2E2E2E2E2E2E2E2E2E2E2E2E2E2E2E2E2E2E2E2E2E2E2E2E2E2E2E2E2E2E2E2E2E2E2E2E2E2E2E2E2E2E2E2E2E2
310
E2E2E2E2E2E2E2E2E2E2E2E2E2E2E2E2E2E2E2E2E2E2E2E2E2E2E2E2E2E2E2E2E2E2E2E2E2E2E2E2E2E2E2E2E2E2E2E2E2E2E2E2E2E2E2E2E2E2E2E2E2E2E2E2E2E2E2E2E2E2E2E2E2E2E2E2E2E2E2E2E2E2E2E2E2E2E2E2E2E2E2E2E2E2E2E2E2E2E2E2E2E2E2E2E2E2E2E2E2E2E2E2E2E2E2E2E2E2E2E2E2E2E2E2E2E2E2
310
E2E2E2E2E2E2E2E2E2E2E2E2E2E2E2E2E2E2E2E2E2E2E2E2E2E2E2E2E2E2E2E2E2E2E2E2E2E2E2E2E2E2E2E2E2E2E2E2E2E2E2E2E2E2E2E2E2E2E2E2E2E2E2E2E2E2E2E2E2E2E2E2E2E2E2E2E2E2E2E2E2E2E2E2E2E2E2E2E2E2E2E2E2E2E2E2E2E2E2E2E2E2E2E2E2E2E2E2E2E2E2E2E2E2E2E2E2E2E2E2E2E2E2E2E2E2E2
310
E2E2E2E2E2E2E2E2E2E2E2E2E2E2E2E2E2E2E2E2E2E2E2E2E2E2E2E2E2E2E2E2E2E2E2E2E2E2E2E2E2E2E2E2E2E2E2E2E2E2E2E2E2E2E2E2E2E2E2E2E2E2E2E2E2E2E2E2E2E2E2E2E2E2E2E2E2E2E2E2E2E2E2E2E2E2E2E2E2E2E2E2E2E2E2E2E2E2E2E2E2E2E2E2E2E2E2E2E2E2E2E2E2E2E2E2E2E2E2E2E2E2E2E2E2E2E2
310
E2E2E2E2E2E2E2E2E2E2E2E2E2E2E2E2E2E2E2E2E2E2E2E2E2E2E2E2E2E2E2E2E2E2E2E2E2E2E2E2E2E2E2E2E2E2E2E2E2E2E2E2E2E2E2E2E2E2E2E2E2E2E2E2E2E2E2E2E2E2E2E2E2E2E2E2E2E2E2E2E2E2E2E2E2E2E2E2E2E2E2E2E2E2E2E2E2E2E2E2E2E2E2E2E2E2E2E2E2E2E2E2E2E2E2E2E2E2E2E2E2E2E2E2E2E2E2
310
E2E2E2E2E2E2E2E2E2E2E2E2E2E2E2E2E2E2E2E2E2E2E2E2E2E2E2E2E2E2E2E2E2E2E2E2E2E2E2E2E2E2E2E2E2E2E2E2E2E2E2E2E2E2E2E2E2E2E2E2E2E2E2E2E2E2E2E2E2E2E2E2E2E2E2E2E2E2E2E2E2E2E2E2E2E2E2E2E2E2E2E2E2E2E2E2E2E2E2E2E2E2E2E2E2E2E2E2E2E2E2E2E2E2E2E2E2E2E2E2E2E2E2E2E2E2E2
310
E2E2E2E2E2E2E2E2E2E2E2E2E2E2E2E2E2E2E2E2E2E2E2E2E2E2E2E2E2E2E2E2E2E2E2E2E2E2E2E2E2E2E2E2E2E2E2E2E2E2E2E2E2E2E2E2E2E2E2E2E2E2E2E2E2E2E2E2E2E2E2E2E2E2E2E2E2E2E2E2E2E2E2E2E2E2E2E2E2E2E2E2E2E2E2E2E2E2E2E2E2E2E2E2E2E2E2E2E2E2E2E2E2E2E2E2E2E2E2E2E2E2E2E2E2E2E2
310
E2E2E2E2E2E2E2E2E2E2E2E2E2E2E2E2E2E2E2E2E2E2E2E2E2E2E2E2E2E2E2E2E2E2E2E2E2E2E2E2E2E2E2E2E2E2E2E2E2E2E2E2E2E2E2E2E2E2E2E2E2E2E2E2E2E2E2E2E2E2E2E2E2E2E2E2E2E2E2E2E2E2E2E2E2E2E2E2E2E2E2E2E2E2E2E2E2E2E2E2E2E2E2E2E2E2E2E2E2E2E2E2E2E2E2E2E2E2E2E2E2E2E2E2E2E2E2
310
E2E2E2E2E2E2E2E2E2E2E2E2E2E2E2E2E2E2E2E2E2E2E2E2E2E2E2E2E2E2E2E2E2E2E2E2E2E2E2E2E2E2E2E2E2E2E2E2E2E2E2E2E2E2E2E2E2E2E2E2E2E2E2E2E2E2E2E2E2E2E2E2E2E2E2E2E2E2E2E2E2E2E2E2E2E2E2E2E2E2E2E2E2E2E2E2E2E2E2E2E2E2E2E2E2E2E2E2E2E2E2E2E2E2E2E2E2E2E2E2E2E2E2E2E2E2E2
310
E2E2E2E2E2E2E2E2E2E2E2E2E2E2E2E2E2E2E2E2E2E2E2E2E2E2E2E2E2E2E2E2E2E2E2E2E2E2E2E2E2E2E2E2E2E2E2E2E2E2E2E2E2E2E2E2E2E2E2E2E2E2E2E2E2E2E2E2E2E2E2E2E2E2E2E2E2E2E2E2E2E2E2E2E2E2E2E2E2E2E2E2E2E2E2E2E2E2E2E2E2E2E2E2E2E2E2E2E2E2E2E2E2E2E2E2E2E2E2E2E2E2E2E2E2E2E2
310
E2E2E2E2E2E2E2E2E2E2E2E2E2E2E2E2E2E2E2E2E2E2E2E2E2E2E2E2E2E2E2E2E2E2E2E2E2E2E2E2E2E2E2E2E2E2E2E2E2E2E2E2E2E2E2E2E2E2E2E2E2E2E2E2E2E2E2E2E2E2E2E2E2E2E2E2E2E2E2E2E2E2E2E2E2E2E2E2E2E2E2E2E2E2E2E2E2E2E2E2E2E2E2E2E2E2E2E2E2E2E2E2E2E2E2E2E2E2E2E2E2E2E2E2E2E2E2
310
E2E2E2E2E2E2E2E2E2E2E2E2E2E2E2E2E2E2E2E2E2E2E2E2E2E2E2E2E2E2E2E2E2E2E2E2E2E2E2E2E2E2E2E2E2E2E2E2E2E2E2E2E2E2E2E2E2E2E2E2E2E2E2E2E2E2E2E2E2E2E2E2E2E2E2E2E2E2E2E2E2E2E2E2E2E2E2E2E2E2E2E2E2E2E2E2E2E2E2E2E2E2E2E2E2E2E2E2E2E2E2E2E2E2E2E2E2E2E2E2E2E2E2E2E2E2E2
310
E2E2E2E2E2E2E2E2E2E2E2E2E2E2E2E2E2E2E2E2E2E2E2E2E2E2E2E2E2E2E2E2E2E2E2E2E2E2E2E2E2E2E2E2E2E2E2E2E2E2E2E2E2E2E2E2E2E2E2E2E2E2E2E2E2E2E2E2E2E2E2E2E2E2E2E2E2E2E2E2E2E2E2E2E2E2E2E2E2E2E2E2E2E2E2E2E2E2E2E2E2E2E2E2E2E2E2E2E2E2E2E2E2E2E2E2E2E2E2E2E2E2E2E2E2E2E2
310
E2E2E2E2E2E2E2E2E2E2E2E2E2E2E2E2E2E2E2E2E2E2E2E2E2E2E2E2E2E2E2E2E2E2E2E2E2E2E2E2E2E2E2E2E2E2E2E2E2E2E2E2E2E2E2E2E2E2E2E2E2E2E2E2E2E2E2E2E2E2E2E2E2E2E2E2E2E2E2E2E2E2E2E2E2E2E2E2E2E2E2E2E2E2E2E2E2E2E2E2E2E2E2E2E2E2E2E2E2E2E2E2E2E2E2E2E2E2E2E2E2E2E2E2E2E2E2
310
E2E2E2E2E2E2E2E2E2E2E2E2E2E2E2E2E2E2E2E2E2E2E2E2E2E2E2E2E2E2E2E2E2E2E2E2E2E2E2E2E2E2E2E2E2E2E2E2E2E2E2E2E2E2E2E2E2E2E2E2E2E2E2E2E2E2E2E2E2E2E2E2E2E2E2E2E2E2E2E2E2E2E2E2E2E2E2E2E2E2E2E2E2E2E2E2E2E2E2E2E2E2E2E2E2E2E2E2E2E2E2E2E2E2E2E2E2E2E2E2E2E2E2E2E2E2E2
310
E2E2E2E2E2E2E2E2E2E2E2E2E2E2E2E2E2E2E2E2E2E2E2E2E2E2E2E2E2E2E2E2E2E2E2E2E2E2E2E2E2E2E2E2E2E2E2E2E2E2E2E2E2E2E2E2E2E2E2E2E2E2E2E2E2E2E2E2E2E2E2E2E2E2E2E2E2E2E2E2E2E2E2E2E2E2E2E2E2E2E2E2E2E2E2E2E2E2E2E2E2E2E2E2E2E2E2E2E2E2E2E2E2E2E2E2E2E2E2E2E2E2E2E2E2E2E2
310
E2E2E2E2E2E2E2E2E2E2E2E2E2E2E2E2E2E2E2E2E2E2E2E2E2E2E2E2E2E2E2E2E2E2E2E2E2E2E2E2E2E2E2E2E2E2E2E2E2E2E2E2E2E2E2E2E2E2E2E2E2E2E2E2E2E2E2E2E2E2E2E2E2E2E2E2E2E2E2E2E2E2E2E2E2E2E2E2E2E2E2E2E2E2E2E2E2E2E2E2E2E2E2E2E2E2E2E2E2E2E2E2E2E2E2E2E2E2E2E2E2E2E2E2E2E2E2
310
E2E2E2E2E2E2E2E2E2E2E2E2E2E2E2E2E2E2E2E2E2E2E2E2E2E2E2E2E2E2E2E2E2E2E2E2E2E2E2E2E2E2E2E2E2E2E2E2E2E2E2E2E2E2E2E2E2E2E2E2E2E2E2E2E2E2E2E2E2E2E2E2E2E2E2E2E2E2E2E2E2E2E2E2E2E2E2E2E2E2E2E2E2E2E2E2E2E2E2E2E2E2E2E2E2E2E2E2E2E2E2E2E2E2E2E2E2E2E2E2E2E2E2E2E2E2E2
310
E2E2E2E2E2E2E2E2E2E2E2E2E2E2E2E2E2E2E2E2E2E2E2E2E2E2E2E2E2E2E2E2E2E2E2E2E2E2E2E2E2E2E2E2E2E2E2E2E2E2E2E2E2E2E2E2E2E2E2E2E2E2E2E2E2E2E2E2E2E2E2E2E2E2E2E2E2E2E2E2E2E2E2E2E2E2E2E2E2E2E2E2E2E2E2E2E2E2E2E2E2E2E2E2E2E2E2E2E2E2E2E2E2E2E2E2E2E2E2E2E2E2E2E2E2E2E2
310
E2E2E2E2E2E2E2E2E2E2E2E2E2E2E2E2E2E2E2E2E2E2E2E2E2E2E2E2E2E2E2E2E2E2E2E2E2E2E2E2E2E2E2E2E2E2E2E2E2E2E2E2E2E2E2E2E2E2E2E2E2E2E2E2E2E2E2E2E2E2E2E2E2E2E2E2E2E2E2E2E2E2E2E2E2E2E2E2E2E2E2E2E2E2E2E2E2E2E2E2E2E2E2E2E2E2E2E2E2E2E2E2E2E2E2E2E2E2E2E2E2E2E2E2E2E2E2
310
E2E2E2E2E2E2E2E2E2E2E2E2E2E2E2E2E2E2E2E2E2E2E2E2E2E2E2E2E2E2E2E2E2E2E2E2E2E2E2E2E2E2E2E2E2E2E2E2E2E2E2E2E2E2E2E2E2E2E2E2E2E2E2E2E2E2E2E2E2E2E2E2E2E2E2E2E2E2E2E2E2E2E2E2E2E2E2E2E2E2E2E2E2E2E2E2E2E2E2E2E2E2E2E2E2E2E2E2E2E2E2E2E2E2E2E2E2E2E2E2E2E2E2E2E2E2E2
310
E2E2E2E2E2E2E2E2E2E2E2E2E2E2E2E2E2E2E2E2E2E2E2E2E2E2E2E2E2E2E2E2E2E2E2E2E2E2E2E2E2E2E2E2E2E2E2E2E2E2E2E2E2E2E2E2E2E2E2E2E2E2E2E2E2E2E2E2E2E2E2E2E2E2E2E2E2E2E2E2E2E2E2E2E2E2E2E2E2E2E2E2E2E2E2E2E2E2E2E2E2E2E2E2E2E2E2E2E2E2E2E2E2E2E2E2E2E2E2E2E2E2E2E2E2E2E2
310
E2E2E2E2E2E2E2E2E2E2E2E2E2E2E2E2E2E2E2E2E2E2E2E2E2E2E2E2E2E2E2E2E2E2E2E2E2E2E2E2E2E2E2E2E2E2E2E2E2E2E2E2E2E2E2E2E2E2E2E2E2E2E2E2E2E2E2E2E2E2E2E2E2E2E2E2E2E2E2E2E2E2E2E2E2E2E2E2E2E2E2E2E2E2E2E2E2E2E2E2E2E2E2E2E2E2E2E2E2E2E2E2E2E2E2E2E2E2E2E2E2E2E2E2E2E2E2
310
E2E2E2E2E2E2E2E2E2E2E2E2E2E2E2E2E2E2E2E2E2E2E2E2E2E2E2E2E2E2E2E2E2E2E2E2E2E2E2E2E2E2E2E2E2E2E2E2E2E2E2E2E2E2E2E2E2E2E2E2E2E2E2E2E2E2E2E2E2E2E2E2E2E2E2E2E2E2E2E2E2E2E2E2E2E2E2E2E2E2E2E2E2E2E2E2E2E2E2E2E2E2E2E2E2E2E2E2E2E2E2E2E2E2E2E2E2E2E2E2E2E2E2E2E2E2E2
310
E2E2E2E2E2E2E2E2E2E2E2E2E2E2E2E2E2E2E2E2E2E2E2E2E2E2E2E2E2E2E2E2E2E2E2E2E2E2E2E2E2E2E2E2E2E2E2E2E2E2E2E2E2E2E2E2E2E2E2E2E2E2E2E2E2E2E2E2E2E2E2E2E2E2E2E2E2E2E2E2E2E2E2E2E2E2E2E2E2E2E2E2E2E2E2E2E2E2E2E2E2E2E2E2E2E2E2E2E2E2E2E2E2E2E2E2E2E2E2E2E2E2E2E2E2E2E2
310
E2E2E2E2E2E2E2E2E2E2E2E2E2E2E2E2E2E2E2E2E2E2E2E2E2E2E2E2E2E2E2E2E2E2E2E2E2E2E2E2E2E2E2E2E2E2E2E2E2E2E2E2E2E2E2E2E2E2E2E2E2E2E2E2E2E2E2E2E2E2E2E2E2E2E2E2E2E2E2E2E2E2E2E2E2E2E2E2E2E2E2E2E2E2E2E2E2E2E2E2E2E2E2E2E2E2E2E2E2E2E2E2E2E2E2E2E2E2E2E2E2E2E2E2E2E2E2
310
E2E2E2E2E2E2E2E2E2E2E2E2E2E2E2E2E2E2E2E2E2E2E2E2E2E2E2E2E2E2E2E2E2E2E2E2E2E2E2E2E2E2E2E2E2E2E2E2E2E2E2E2E2E2E2E2E2E2E2E2E2E2E2E2E2E2E2E2E2E2E2E2E2E2E2E2E2E2E2E2E2E2E2E2E2E2E2E2E2E2E2E2E2E2E2E2E2E2E2E2E2E2E2E2E2E2E2E2E2E2E2E2E2E2E2E2E2E2E2E2E2E2E2E2E2E2E2
310
E2E2E2E2E2E2E2E2E2E2E2E2E2E2E2E2E2E2E2E2E2E2E2E2E2E2E2E2E2E2E2E2E2E2E2E2E2E2E2E2E2E2E2E2E2E2E2E2E2E2E2E2E2E2E2E2E2E2E2E2E2E2E2E2E2E2E2E2E2E2E2E2E2E2E2E2E2E2E2E2E2E2E2E2E2E2E2E2E2E2E2E2E2E2E2E2E2E2E2E2E2E2E2E2E2E2E2E2E2E2E2E2E2E2E2E2E2E2E2E2E2E2E2E2E2E2E2
310
E2E2E2E2E2E2E2E2E2E2E2E2E2E2E2E2E2E2E2E2E2E2E2E2E2E2E2E2E2E2E2E2E2E2E2E2E2E2E2E2E2E2E2E2E2E2E2E2E2E2E2E2E2E2E2E2E2E2E2E2E2E2E2E2E2E2E2E2E2E2E2E2E2E2E2E2E2E2E2E2E2E2E2E2E2E2E2E2E2E2E2E2E2E2E2E2E2E2E2E2E2E2E2E2E2E2E2E2E2E2E2E2E2E2E2E2E2E2E2E2E2E2E2E2E2E2E2
310
E2E2E2E2E2E2E2E2E2E2E2E2E2E2E2E2E2E2E2E2E2E2E2E2E2E2E2E2E2E2E2E2E2E2E2E2E2E2E2E2E2E2E2E2E2E2E2E2E2E2E2E2E2E2E2E2E2E2E2E2E2E2E2E2E2E2E2E2E2E2E2E2E2E2E2E2E2E2E2E2E2E2E2E2E2E2E2E2E2E2E2E2E2E2E2E2E2E2E2E2E2E2E2E2E2E2E2E2E2E2E2E2E2E2E2E2E2E2E2E2E2E2E2E2E2E2E2
310
E2E2E2E2E2E2E2E2E2E2E2E2E2E2E2E2E2E2E2E2E2E2E2E2E2E2E2E2E2E2E2E2E2E2E2E2E2E2E2E2E2E2E2E2E2E2E2E2E2E2E2E2E2E2E2E2E2E2E2E2E2E2E2E2E2E2E2E2E2E2E2E2E2E2E2E2E2E2E2E2E2E2E2E2E2E2E2E2E2E2E2E2E2E2E2E2E2E2E2E2E2E2E2E2E2E2E2E2E2E2E2E2E2E2E2E2E2E2E2E2E2E2E2E2E2E2E2
310
E2E2E2E2E2E2E2E2E2E2E2E2E2E2E2E2E2E2E2E2E2E2E2E2E2E2E2E2E2E2E2E2E2E2E2E2E2E2E2E2E2E2E2E2E2E2E2E2E2E2E2E2E2E2E2E2E2E2E2E2E2E2E2E2E2E2E2E2E2E2E2E2E2E2E2E2E2E2E2E2E2E2E2E2E2E2E2E2E2E2E2E2E2E2E2E2E2E2E2E2E2E2E2E2E2E2E2E2E2E2E2E2E2E2E2E2E2E2E2E2E2E2E2E2E2E2E2
310
E2E2E2E2E2E2E2E2E2E2E2E2E2E2E2E2E2E2E2E2E2E2E2E2E2E2E2E2E2E2E2E2E2E2E2E2E2E2E2E2E2E2E2E2E2E2E2E2E2E2E2E2E2E2E2E2E2E2E2E2E2E2E2E2E2E2E2E2E2E2E2E2E2E2E2E2E2E2E2E2E2E2E2E2E2E2E2E2E2E2E2E2E2E2E2E2E2E2E2E2E2E2E2E2E2E2E2E2E2E2E2E2E2E2E2E2E2E2E2E2E2E2E2E2E2E2E2
310
E2E2E2E2E2E2E2E2E2E2E2E2E2E2E2E2E2E2E2E2E2E2E2E2E2E2E2E2E2E2E2E2E2E2E2E2E2E2E2E2E2E2E2E2E2E2E2E2E2E2E2E2E2E2E2E2E2E2E2E2E2E2E2E2E2E2E2E2E2E2E2E2E2E2E2E2E2E2E2E2E2E2E2E2E2E2E2E2E2E2E2E2E2E2E2E2E2E2E2E2E2E2E2E2E2E2E2E2E2E2E2E2E2E2E2E2E2E2E2E2E2E2E2E2E2E2E2
310
E2E2E2E2E2E2E2E2E2E2E2E2E2E2E2E2E2E2E2E2E2E2E2E2E2E2E2E2E2E2E2E2E2E2E2E2E2E2E2E2E2E2E2E2E2E2E2E2E2E2E2E2E2E2E2E2E2E2E2E2E2E2E2E2E2E2E2E2E2E2E2E2E2E2E2E2E2E2E2E2E2E2E2E2E2E2E2E2E2E2E2E2E2E2E2E2E2E2E2E2E2E2E2E2E2E2E2E2E2E2E2E2E2E2E2E2E2E2E2E2E2E2E2E2E2E2E2
310
E2E2E2E2E2E2E2E2E2E2E2E2E2E2E2E2E2E2E2E2E2E2E2E2E2E2E2E2E2E2E2E2E2E2E2E2E2E2E2E2E2E2E2E2E2E2E2E2E2E2E2E2E2E2E2E2E2E2E2E2E2E2E2E2E2E2E2E2E2E2E2E2E2E2E2E2E2E2E2E2E2E2E2E2E2E2E2E2E2E2E2E2E2E2E2E2E2E2E2E2E2E2E2E2E2E2E2E2E2E2E2E2E2E2E2E2E2E2E2E2E2E2E2E2E2E2E2
310
E2E2E2E2E2E2E2E2E2E2E2E2E2E2E2E2E2E2E2E2E2E2E2E2E2E2E2E2E2E2E2E2E2E2E2E2E2E2E2E2E2E2E2E2E2E2E2E2E2E2E2E2E2E2E2E2E2E2E2E2E2E2E2E2E2E2E2E2E2E2E2E2E2E2E2E2E2E2E2E2E2E2E2E2E2E2E2E2E2E2E2E2E2E2E2E2E2E2E2E2E2E2E2E2E2E2E2E2E2E2E2E2E2E2E2E2E2E2E2E2E2E2E2E2E2E2E2
310
E2E2E2E2E2E2E2E2E2E2E2E2E2E2E2E2E2E2E2E2E2E2E2E2E2E2E2E2E2E2E2E2E2E2E2E2E2E2E2E2E2E2E2E2E2E2E2E2E2E2E2E2E2E2E2E2E2E2E2E2E2E2E2E2E2E2E2E2E2E2E2E2E2E2E2E2E2E2E2E2E2E2E2E2E2E2E2E2E2E2E2E2E2E2E2E2E2E2E2E2E2E2E2E2E2E2E2E2E2E2E2E2E2E2E2E2E2E2E2E2E2E2E2E2E2E2E2
310
E2E2E2E2E2E2E2E2E2E2E2E2E2E2E2E2E2E2E2E2E2E2E2E2E2E2E2E2E2E2E2E2E2E2E2E2E2E2E2E2E2E2E2E2E2E2E2E2E2E2E2E2E2E2E2E2E2E2E2E2E2E2E2E2E2E2E2E2E2E2E2E2E2E2E2E2E2E2E2E2E2E2E2E2E2E2E2E2E2E2E2E2E2E2E2E2E2E2E2E2E2E2E2E2E2E2E2E2E2E2E2E2E2E2E2E2E2E2E2E2E2E2E2E2E2E2E2
310
E2E2E2E2E2E2E2E2E2E2E2E2E2E2E2E2E2E2E2E2E2E2E2E2E2E2E2E2E2E2E2E2E2E2E2E2E2E2E2E2E2E2E2E2E2E2E2E2E2E2E2E2E2E2E2E2E2E2E2E2E2E2E2E2E2E2E2E2E2E2E2E2E2E2E2E2E2E2E2E2E2E2E2E2E2E2E2E2E2E2E2E2E2E2E2E2E2E2E2E2E2E2E2E2E2E2E2E2E2E2E2E2E2E2E2E2E2E2E2E2E2E2E2E2E2E2E2
310
E2E2E2E2E2E2E2E2E2E2E2E2E2E2E2E2E2E2E2E2E2E2E2E2E2E2E2E2E2E2E2E2E2E2E2E2E2E2E2E2E2E2E2E2E2E2E2E2E2E2E2E2E2E2E2E2E2E2E2E2E2E2E2E2E2E2E2E2E2E2E2E2E2E2E2E2E2E2E2E2E2E2E2E2E2E2E2E2E2E2E2E2E2E2E2E2E2E2E2E2E2E2E2E2E2E2E2E2E2E2E2E2E2E2E2E2E2E2E2E2E2E2E2E2E2E2E2
310
E2E2E2E2E2E2E2E2E2E2E2E2E2E2E2E2E2E2E2E2E2E2E2E2E2E2E2E2E2E2E2E2E2E2E2E2E2E2E2E2E2E2E2E2E2E2E2E2E2E2E2E2E2E2E2E2E2E2E2E2E2E2E2E2E2E2E2E2E2E2E2E2E2E2E2E2E2E2E2E2E2E2E2E2E2E2E2E2E2E2E2E2E2E2E2E2E2E2E2E2E2E2E2E2E2E2E2E2E2E2E2E2E2E2E2E2E2E2E2E2E2E2E2E2E2E2E2
310
E2E2E2E2E2E2E2E2E2E2E2E2E2E2E2E2E2E2E2E2E2E2E2E2E2E2E2E2E2E2E2E2E2E2E2E2E2E2E2E2E2E2E2E2E2E2E2E2E2E2E2E2E2E2E2E2E2E2E2E2E2E2E2E2E2E2E2E2E2E2E2E2E2E2E2E2E2E2E2E2E2E2E2E2E2E2E2E2E2E2E2E2E2E2E2E2E2E2E2E2E2E2E2E2E2E2E2E2E2E2E2E2E2E2E2E2E2E2E2E2E2E2E2E2E2E2E2
310
E2E2E2E2E2E2E2E2E2E2E2E2E2E2E2E2E2E2E2E2E2E2E2E2E2E2E2E2E2E2E2E2E2E2E2E2E2E2E2E2E2E2E2E2E2E2E2E2E2E2E2E2E2E2E2E2E2E2E2E2E2E2E2E2E2E2E2E2E2E2E2E2E2E2E2E2E2E2E2E2E2E2E2E2E2E2E2E2E2E2E2E2E2E2E2E2E2E2E2E2E2E2E2E2E2E2E2E2E2E2E2E2E2E2E2E2E2E2E2E2E2E2E2E2E2E2E2
310
E2E2E2E2E2E2E2E2E2E2E2E2E2E2E2E2E2E2E2E2E2E2E2E2E2E2E2E2E2E2E2E2E2E2E2E2E2E2E2E2E2E2E2E2E2E2E2E2E2E2E2E2E2E2E2E2E2E2E2E2E2E2E2E2E2E2E2E2E2E2E2E2E2E2E2E2E2E2E2E2E2E2E2E2E2E2E2E2E2E2E2E2E2E2E2E2E2E2E2E2E2E2E2E2E2E2E2E2E2E2E2E2E2E2E2E2E2E2E2E2E2E2E2E2E2E2E2
310
E2E2E2E2E2E2E2E2E2E2E2E2E2E2E2E2E2E2E2E2E2E2E2E2E2E2E2E2E2E2E2E2E2E2E2E2E2E2E2E2E2E2E2E2E2E2E2E2E2E2E2E2E2E2E2E2E2E2E2E2E2E2E2E2E2E2E2E2E2E2E2E2E2E2E2E2E2E2E2E2E2E2E2E2E2E2E2E2E2E2E2E2E2E2E2E2E2E2E2E2E2E2E2E2E2E2E2E2E2E2E2E2E2E2E2E2E2E2E2E2E2E2E2E2E2E2E2
310
E2E2E2E2E2E2E2E2E2E2E2E2E2E2E2E2E2E2E2E2E2E2E2E2E2E2E2E2E2E2E2E2E2E2E2E2E2E2E2E2E2E2E2E2E2E2E2E2E2E2E2E2E2E2E2E2E2E2E2E2E2E2E2E2E2E2E2E2E2E2E2E2E2E2E2E2E2E2E2E2E2E2E2E2E2E2E2E2E2E2E2E2E2E2E2E2E2E2E2E2E2E2E2E2E2E2E2E2E2E2E2E2E2E2E2E2E2E2E2E2E2E2E2E2E2E2E2
310
E2E2E2E2E2E2E2E2E2E2E2E2E2E2E2E2E2E2E2E2E2E2E2E2E2E2E2E2E2E2E2E2E2E2E2E2E2E2E2E2E2E2E2E2E2E2E2E2E2E2E2E2E2E2E2E2E2E2E2E2E2E2E2E2E2E2E2E2E2E2E2E2E2E2E2E2E2E2E2E2E2E2E2E2E2E2E2E2E2E2E2E2E2E2E2E2E2E2E2E2E2E2E2E2E2E2E2E2E2E2E2E2E2E2E2E2E2E2E2E2E2E2E2E2E2E2E2
310
E2E2E2E2E2E2E2E2E2E2E2E2E2E2E2E2E2E2E2E2E2E2E2E2E2E2E2E2E2E2E2E2E2E2E2E2E2E2E2E2E2E2E2E2E2E2E2E2E2E2E2E2E2E2E2E2E2E2E2E2E2E2E2E2E2E2E2E2E2E2E2E2E2E2E2E2E2E2E2E2E2E2E2E2E2E2E2E2E2E2E2E2E2E2E2E2E2E2E2E2E2E2E2E2E2E2E2E2E2E2E2E2E2E2E2E2E2E2E2E2E2E2E2E2E2E2E2
310
E2E2E2E2E2E2E2E2E2E2E2E2E2E2E2E2E2E2E2E2E2E2E2E2E2E2E2E2E2E2E2E2E2E2E2E2E2E2E2E2E2E2E2E2E2E2E2E2E2E2E2E2E2E2E2E2E2E2E2E2E2E2E2E2E2E2E2E2E2E2E2E2E2E2E2E2E2E2E2E2E2E2E2E2E2E2E2E2E2E2E2E2E2E2E2E2E2E2E2E2E2E2E2E2E2E2E2E2E2E2E2E2E2E2E2E2E2E2E2E2E2E2E2E2E2E2E2
310
E2E2E2E2E2E2E2E2E2E2E2E2E2E2E2E2E2E2E2E2E2E2E2E2E2E2E2E2E2E2E2E2E2E2E2E2E2E2E2E2E2E2E2E2E2E2E2E2E2E2E2E2E2E2E2E2E2E2E2E2E2E2E2E2E2E2E2E2E2E2E2E2E2E2E2E2E2E2E2E2E2E2E2E2E2E2E2E2E2E2E2E2E2E2E2E2E2E2E2E2E2E2E2E2E2E2E2E2E2E2E2E2E2E2E2E2E2E2E2E2E2E2E2E2E2E2E2
310
E2E2E2E2E2E2E2E2E2E2E2E2E2E2E2E2E2E2E2E2E2E2E2E2E2E2E2E2E2E2E2E2E2E2E2E2E2E2E2E2E2E2E2E2E2E2E2E2E2E2E2E2E2E2E2E2E2E2E2E2E2E2E2E2E2E2E2E2E2E2E2E2E2E2E2E2E2E2E2E2E2E2E2E2E2E2E2E2E2E2E2E2E2E2E2E2E2E2E2E2E2E2E2E2E2E2E2E2E2E2E2E2E2E2E2E2E2E2E2E2E2E2E2E2E2E2E2
310
E2E2E2E2E2E2E2E2E2E2E2E2E2E2E2E2E2E2E2E2E2E2E2E2E2E2E2E2E2E2E2E2E2E2E2E2E2E2E2E2E2E2E2E2E2E2E2E2E2E2E2E2E2E2E2E2E2E2E2E2E2E2E2E2E2E2E2E2E2E2E2E2E2E2E2E2E2E2E2E2E2E2E2E2E2E2E2E2E2E2E2E2E2E2E2E2E2E2E2E2E2E2E2E2E2E2E2E2E2E2E2E2E2E2E2E2E2E2E2E2E2E2E2E2E2E2E2
310
E2E2E2E2E2E2E2E2E2E2E2E2E2E2E2E2E2E2E2E2E2E2E2E2E2E2E2E2E2E2E2E2E2E2E2E2E2E2E2E2E2E2E2E2E2E2E2E2E2E2E2E2E2E2E2E2E2E2E2E2E2E2E2E2E2E2E2E2E2E2E2E2E2E2E2E2E2E2E2E2E2E2E2E2E2E2E2E2E2E2E2E2E2E2E2E2E2E2E2E2E2E2E2E2E2E2E2E2E2E2E2E2E2E2E2E2E2E2E2E2E2E2E2E2E2E2E2
310
E2E2E2E2E2E2E2E2E2E2E2E2E2E2E2E2E2E2E2E2E2E2E2E2E2E2E2E2E2E2E2E2E2E2E2E2E2E2E2E2E2E2E2E2E2E2E2E2E2E2E2E2E2E2E2E2E2E2E2E2E2E2E2E2E2E2E2E2E2E2E2E2E2E2E2E2E2E2E2E2E2E2E2E2E2E2E2E2E2E2E2E2E2E2E2E2E2E2E2E2E2E2E2E2E2E2E2E2E2E2E2E2E2E2E2E2E2E2E2E2E2E2E2E2E2E2E2
310
E2E2E2E2E2E2E2E2E2E2E2E2E2E2E2E2E2E2E2E2E2E2E2E2E2E2E2E2E2E2E2E2E2E2E2E2E2E2E2E2E2E2E2E2E2E2E2E2E2E2E2E2E2E2E2E2E2E2E2E2E2E2E2E2E2E2E2E2E2E2E2E2E2E2E2E2E2E2E2E2E2E2E2E2E2E2E2E2E2E2E2E2E2E2E2E2E2E2E2E2E2E2E2E2
  0
XRECORD
  5
1658
102
{ACAD_REACTORS
330
100B
102
}
330
100B
100
AcDbXrecord
280
     1
102
MATERIAL
148
0.0
149
0.0
149
0.0
 93
        0
 94
      127
282
     0
 72
     0
 77
     0
171
     0
175
     0
179
     0
273
     0
  0
XRECORD
  5
100D
102
{ACAD_REACTORS
330
100B
102
}
330
100B
100
AcDbXrecord
280
     1
270
     1
271
     1
  0
XRECORD
  5
100C
102
{ACAD_REACTORS
330
100B
102
}
330
100B
100
AcDbXrecord
280
     1
270
     1
271
     1
  0
XRECORD
  5
1010
102
{ACAD_REACTORS
330
100B
102
}
330
100B
100
AcDbXrecord
280
     1
270
     1
271
     1
  0
XRECORD
  5
100F
102
{ACAD_REACTORS
330
100B
102
}
330
100B
100
AcDbXrecord
280
     1
270
     1
271
     1
  0
XRECORD
  5
1011
102
{ACAD_REACTORS
330
100B
102
}
330
100B
100
AcDbXrecord
280
     1
270
     1
271
     1
  0
XRECORD
  5
100E
102
{ACAD_REACTORS
330
100B
102
}
330
100B
100
AcDbXrecord
280
     1
270
     1
271
     1
  0
XRECORD
  5
1657
102
{ACAD_REACTORS
330
1003
102
}
330
1003
100
AcDbXrecord
280
     1
102
MATERIAL
148
0.0
149
0.0
149
0.0
 93
        0
 94
      127
282
     0
 72
     0
 77
     0
171
     0
175
     0
179
     0
273
     0
  0
XRECORD
  5
1005
102
{ACAD_REACTORS
330
1003
102
}
330
1003
100
AcDbXrecord
280
     1
270
     1
271
     1
  0
XRECORD
  5
1004
102
{ACAD_REACTORS
330
1003
102
}
330
1003
100
AcDbXrecord
280
     1
270
     1
271
     1
  0
XRECORD
  5
1008
102
{ACAD_REACTORS
330
1003
102
}
330
1003
100
AcDbXrecord
280
     1
270
     1
271
     1
  0
XRECORD
  5
1007
102
{ACAD_REACTORS
330
1003
102
}
330
1003
100
AcDbXrecord
280
     1
270
     1
271
     1
  0
XRECORD
  5
1009
102
{ACAD_REACTORS
330
1003
102
}
330
1003
100
AcDbXrecord
280
     1
270
     1
271
     1
  0
XRECORD
  5
1006
102
{ACAD_REACTORS
330
1003
102
}
330
1003
100
AcDbXrecord
280
     1
270
     1
271
     1
  0
XRECORD
  5
1659
102
{ACAD_REACTORS
330
1013
102
}
330
1013
100
AcDbXrecord
280
     1
102
MATERIAL
148
0.0
149
0.0
149
0.0
 93
        0
 94
      127
282
     0
 72
     0
 77
     0
171
     0
175
     0
179
     0
273
     0
  0
XRECORD
  5
1015
102
{ACAD_REACTORS
330
1013
102
}
330
1013
100
AcDbXrecord
280
     1
270
     1
271
     1
  0
XRECORD
  5
1014
102
{ACAD_REACTORS
330
1013
102
}
330
1013
100
AcDbXrecord
280
     1
270
     1
271
     1
  0
XRECORD
  5
1018
102
{ACAD_REACTORS
330
1013
102
}
330
1013
100
AcDbXrecord
280
     1
270
     1
271
     1
  0
XRECORD
  5
1017
102
{ACAD_REACTORS
330
1013
102
}
330
1013
100
AcDbXrecord
280
     1
270
     1
271
     1
  0
XRECORD
  5
1019
102
{ACAD_REACTORS
330
1013
102
}
330
1013
100
AcDbXrecord
280
     1
270
     1
271
     1
  0
XRECORD
  5
1016
102
{ACAD_REACTORS
330
1013
102
}
330
1013
100
AcDbXrecord
280
     1
270
     1
271
     1
  0
CELLSTYLEMAP
  5
1650
102
{ACAD_REACTORS
330
122A
102
}
330
122A
100
AcDbCellStyleMap
 90
        3
300
CELLSTYLE
  1
TABLEFORMAT_BEGIN
 90
        5
170
     1
 91
        0
 92
    32768
 62
   257
 93
        1
300
CONTENTFORMAT
  1
CONTENTFORMAT_BEGIN
 90
        0
 91
        0
 92
      512
 93
        0
300

 40
0.0
140
1.0
 94
        5
 62
     0
340
1046
144
0.25
309
CONTENTFORMAT_END
171
     0
 94
        0
309
TABLEFORMAT_END
  1
CELLSTYLE_BEGIN
 90
        1
 91
        1
300
_TITLE
309
CELLSTYLE_END
300
CELLSTYLE
  1
TABLEFORMAT_BEGIN
 90
        5
170
     1
 91
        0
 92
        0
 62
   257
 93
        1
300
CONTENTFORMAT
  1
CONTENTFORMAT_BEGIN
 90
        0
 91
        0
 92
      512
 93
        0
300

 40
0.0
140
1.0
 94
        5
 62
     0
340
1046
144
0.18
309
CONTENTFORMAT_END
171
     0
 94
        0
309
TABLEFORMAT_END
  1
CELLSTYLE_BEGIN
 90
        2
 91
        1
300
_HEADER
309
CELLSTYLE_END
300
CELLSTYLE
  1
TABLEFORMAT_BEGIN
 90
        5
170
     1
 91
        0
 92
        0
 62
   257
 93
        1
300
CONTENTFORMAT
  1
CONTENTFORMAT_BEGIN
 90
        0
 91
        0
 92
      512
 93
        0
300

 40
0.0
140
1.0
 94
        2
 62
     0
340
1046
144
0.18
309
CONTENTFORMAT_END
171
     0
 94
        0
309
TABLEFORMAT_END
  1
CELLSTYLE_BEGIN
 90
        3
 91
        2
300
_DATA
309
CELLSTYLE_END
  0
XRECORD
  5
165A
102
{ACAD_REACTORS
330
122A
102
}
330
122A
100
AcDbXrecord
280
     1
102
ACAD_ROUNDTRIP_PRE2007_TABLESTYLE
 90
      512
 91
        0
  1

 92
      512
 93
        0
  2

 94
      512
 95
        0
  3

  0
XRECORD
  5
1602
102
{ACAD_REACTORS
330
1601
102
}
330
1601
100
AcDbXrecord
280
     1
102
RTVSPropertyOp28
 70
     1
102
RTVSPropertyOp29
 70
     1
102
RTVSPropertyOp30
 70
     1
102
RTVSPropertyOp31
 70
     1
102
RTVSPropertyOp32
 70
     1
102
RTVSPropertyOp0
 70
     1
102
RTVSPropertyOp1
 70
     1
102
RTVSPropertyOp2
 70
     1
102
RTVSPropertyOp3
 70
     1
102
RTVSPropertyOp4
 70
     1
102
RTVSPropertyOp5
 70
     1
102
RTVSPropertyOp6
 70
     1
102
RTVSPropertyOp7
 70
     1
102
RTVSPropertyOp8
 70
     1
102
RTVSPropertyOp9
 70
     1
102
RTVSPropertyOp10
 70
     1
102
RTVSPropertyOp11
 70
     1
102
RTVSPropertyOp12
 70
     1
102
RTVSPropertyOp13
 70
     1
102
RTVSPropertyOp14
 70
     1
102
RTVSPropertyOp15
 70
     1
102
RTVSPropertyOp16
 70
     1
102
RTVSPropertyOp17
 70
     1
102
RTVSPropertyOp18
 70
     1
102
RTVSPropertyOp19
 70
     1
102
RTVSPropertyOp20
 70
     1
102
RTVSPropertyOp21
 70
     1
102
RTVSPropertyOp22
 70
     1
102
RTVSPropertyOp23
 70
     1
102
RTVSPropertyOp24
 70
     1
102
RTVSPropertyOp25
 70
     1
102
RTVSPropertyOp26
 70
     1
102
RTVSPropertyOp27
 70
     1
  0
XRECORD
  5
162E
102
{ACAD_REACTORS
330
162D
102
}
330
162D
100
AcDbXrecord
280
     1
102
RTVSPropertyOp28
 70
     1
102
RTVSPropertyOp29
 70
     1
102
RTVSPropertyOp30
 70
     1
102
RTVSPropertyOp31
 70
     1
102
RTVSPropertyOp32
 70
     1
102
RTVSPropertyOp0
 70
     1
102
RTVSPropertyOp1
 70
     1
102
RTVSPropertyOp2
 70
     1
102
RTVSPropertyOp3
 70
     1
102
RTVSPropertyOp4
 70
     1
102
RTVSPropertyOp5
 70
     1
102
RTVSPropertyOp6
 70
     1
102
RTVSPropertyOp7
 70
     1
102
RTVSPropertyOp8
 70
     1
102
RTVSPropertyOp9
 70
     1
102
RTVSPropertyOp10
 70
     1
102
RTVSPropertyOp11
 70
     1
102
RTVSPropertyOp12
 70
     1
102
RTVSPropertyOp13
 70
     1
102
RTVSPropertyOp14
 70
     1
102
RTVSPropertyOp15
 70
     1
102
RTVSPropertyOp16
 70
     1
102
RTVSPropertyOp17
 70
     1
102
RTVSPropertyOp18
 70
     1
102
RTVSPropertyOp19
 70
     1
102
RTVSPropertyOp20
 70
     1
102
RTVSPropertyOp21
 70
     1
102
RTVSPropertyOp22
 70
     1
102
RTVSPropertyOp23
 70
     1
102
RTVSPropertyOp24
 70
     1
102
RTVSPropertyOp25
 70
     1
102
RTVSPropertyOp26
 70
     1
102
RTVSPropertyOp27
 70
     1
  0
XRECORD
  5
162C
102
{ACAD_REACTORS
330
162B
102
}
330
162B
100
AcDbXrecord
280
     1
102
RTVSPropertyOp28
 70
     1
102
RTVSPropertyOp29
 70
     1
102
RTVSPropertyOp30
 70
     1
102
RTVSPropertyOp31
 70
     1
102
RTVSPropertyOp32
 70
     1
102
RTVSPropertyOp0
 70
     1
102
RTVSPropertyOp1
 70
     1
102
RTVSPropertyOp2
 70
     1
102
RTVSPropertyOp3
 70
     1
102
RTVSPropertyOp4
 70
     1
102
RTVSPropertyOp5
 70
     1
102
RTVSPropertyOp6
 70
     1
102
RTVSPropertyOp7
 70
     1
102
RTVSPropertyOp8
 70
     1
102
RTVSPropertyOp9
 70
     1
102
RTVSPropertyOp10
 70
     1
102
RTVSPropertyOp11
 70
     1
102
RTVSPropertyOp12
 70
     1
102
RTVSPropertyOp13
 70
     1
102
RTVSPropertyOp14
 70
     1
102
RTVSPropertyOp15
 70
     1
102
RTVSPropertyOp16
 70
     1
102
RTVSPropertyOp17
 70
     1
102
RTVSPropertyOp18
 70
     1
102
RTVSPropertyOp19
 70
     1
102
RTVSPropertyOp20
 70
     1
102
RTVSPropertyOp21
 70
     1
102
RTVSPropertyOp22
 70
     1
102
RTVSPropertyOp23
 70
     1
102
RTVSPropertyOp24
 70
     1
102
RTVSPropertyOp25
 70
     1
102
RTVSPropertyOp26
 70
     1
102
RTVSPropertyOp27
 70
     1
  0
XRECORD
  5
1600
102
{ACAD_REACTORS
330
15FF
102
}
330
15FF
100
AcDbXrecord
280
     1
102
RTVSPropertyOp28
 70
     1
102
RTVSPropertyOp29
 70
     1
102
RTVSPropertyOp30
 70
     1
102
RTVSPropertyOp31
 70
     1
102
RTVSPropertyOp32
 70
     1
102
RTVSPropertyOp0
 70
     1
102
RTVSPropertyOp1
 70
     1
102
RTVSPropertyOp2
 70
     1
102
RTVSPropertyOp3
 70
     1
102
RTVSPropertyOp4
 70
     1
102
RTVSPropertyOp5
 70
     1
102
RTVSPropertyOp6
 70
     1
102
RTVSPropertyOp7
 70
     1
102
RTVSPropertyOp8
 70
     1
102
RTVSPropertyOp9
 70
     1
102
RTVSPropertyOp10
 70
     1
102
RTVSPropertyOp11
 70
     1
102
RTVSPropertyOp12
 70
     1
102
RTVSPropertyOp13
 70
     1
102
RTVSPropertyOp14
 70
     1
102
RTVSPropertyOp15
 70
     1
102
RTVSPropertyOp16
 70
     1
102
RTVSPropertyOp17
 70
     1
102
RTVSPropertyOp18
 70
     1
102
RTVSPropertyOp19
 70
     1
102
RTVSPropertyOp20
 70
     1
102
RTVSPropertyOp21
 70
     1
102
RTVSPropertyOp22
 70
     1
102
RTVSPropertyOp23
 70
     1
102
RTVSPropertyOp24
 70
     1
102
RTVSPropertyOp25
 70
     1
102
RTVSPropertyOp26
 70
     1
102
RTVSPropertyOp27
 70
     1
  0
XRECORD
  5
160E
102
{ACAD_REACTORS
330
160D
102
}
330
160D
100
AcDbXrecord
280
     1
102
RTVSPropertyOp28
 70
     1
102
RTVSPropertyOp29
 70
     1
102
RTVSPropertyOp30
 70
     1
102
RTVSPropertyOp31
 70
     1
102
RTVSPropertyOp32
 70
     1
102
RTVSPropertyOp0
 70
     1
102
RTVSPropertyOp1
 70
     1
102
RTVSPropertyOp2
 70
     1
102
RTVSPropertyOp3
 70
     1
102
RTVSPropertyOp4
 70
     1
102
RTVSPropertyOp5
 70
     1
102
RTVSPropertyOp6
 70
     1
102
RTVSPropertyOp7
 70
     1
102
RTVSPropertyOp8
 70
     1
102
RTVSPropertyOp9
 70
     1
102
RTVSPropertyOp10
 70
     1
102
RTVSPropertyOp11
 70
     1
102
RTVSPropertyOp12
 70
     1
102
RTVSPropertyOp13
 70
     1
102
RTVSPropertyOp14
 70
     1
102
RTVSPropertyOp15
 70
     1
102
RTVSPropertyOp16
 70
     1
102
RTVSPropertyOp17
 70
     1
102
RTVSPropertyOp18
 70
     1
102
RTVSPropertyOp19
 70
     1
102
RTVSPropertyOp20
 70
     1
102
RTVSPropertyOp21
 70
     1
102
RTVSPropertyOp22
 70
     1
102
RTVSPropertyOp23
 70
     1
102
RTVSPropertyOp24
 70
     1
102
RTVSPropertyOp25
 70
     1
102
RTVSPropertyOp26
 70
     1
102
RTVSPropertyOp27
 70
     1
  0
XRECORD
  5
1616
102
{ACAD_REACTORS
330
1615
102
}
330
1615
100
AcDbXrecord
280
     1
102
RTVSPropertyOp28
 70
     1
102
RTVSPropertyOp29
 70
     1
102
RTVSPropertyOp30
 70
     1
102
RTVSPropertyOp31
 70
     1
102
RTVSPropertyOp32
 70
     1
102
RTVSPropertyOp0
 70
     1
102
RTVSPropertyOp1
 70
     1
102
RTVSPropertyOp2
 70
     1
102
RTVSPropertyOp3
 70
     1
102
RTVSPropertyOp4
 70
     1
102
RTVSPropertyOp5
 70
     1
102
RTVSPropertyOp6
 70
     1
102
RTVSPropertyOp7
 70
     1
102
RTVSPropertyOp8
 70
     1
102
RTVSPropertyOp9
 70
     1
102
RTVSPropertyOp10
 70
     1
102
RTVSPropertyOp11
 70
     1
102
RTVSPropertyOp12
 70
     1
102
RTVSPropertyOp13
 70
     1
102
RTVSPropertyOp14
 70
     1
102
RTVSPropertyOp15
 70
     1
102
RTVSPropertyOp16
 70
     1
102
RTVSPropertyOp17
 70
     1
102
RTVSPropertyOp18
 70
     1
102
RTVSPropertyOp19
 70
     1
102
RTVSPropertyOp20
 70
     1
102
RTVSPropertyOp21
 70
     1
102
RTVSPropertyOp22
 70
     1
102
RTVSPropertyOp23
 70
     1
102
RTVSPropertyOp24
 70
     1
102
RTVSPropertyOp25
 70
     1
102
RTVSPropertyOp26
 70
     1
102
RTVSPropertyOp27
 70
     1
  0
XRECORD
  5
1608
102
{ACAD_REACTORS
330
1607
102
}
330
1607
100
AcDbXrecord
280
     1
102
RTVSPropertyOp28
 70
     1
102
RTVSPropertyOp29
 70
     1
102
RTVSPropertyOp30
 70
     1
102
RTVSPropertyOp31
 70
     1
102
RTVSPropertyOp32
 70
     1
102
RTVSPropertyOp0
 70
     1
102
RTVSPropertyOp1
 70
     1
102
RTVSPropertyOp2
 70
     1
102
RTVSPropertyOp3
 70
     1
102
RTVSPropertyOp4
 70
     1
102
RTVSPropertyOp5
 70
     1
102
RTVSPropertyOp6
 70
     1
102
RTVSPropertyOp7
 70
     1
102
RTVSPropertyOp8
 70
     1
102
RTVSPropertyOp9
 70
     1
102
RTVSPropertyOp10
 70
     1
102
RTVSPropertyOp11
 70
     1
102
RTVSPropertyOp12
 70
     1
102
RTVSPropertyOp13
 70
     1
102
RTVSPropertyOp14
 70
     1
102
RTVSPropertyOp15
 70
     1
102
RTVSPropertyOp16
 70
     1
102
RTVSPropertyOp17
 70
     1
102
RTVSPropertyOp18
 70
     1
102
RTVSPropertyOp19
 70
     1
102
RTVSPropertyOp20
 70
     1
102
RTVSPropertyOp21
 70
     1
102
RTVSPropertyOp22
 70
     1
102
RTVSPropertyOp23
 70
     1
102
RTVSPropertyOp24
 70
     1
102
RTVSPropertyOp25
 70
     1
102
RTVSPropertyOp26
 70
     1
102
RTVSPropertyOp27
 70
     1
  0
XRECORD
  5
160C
102
{ACAD_REACTORS
330
160B
102
}
330
160B
100
AcDbXrecord
280
     1
102
RTVSPropertyOp28
 70
     1
102
RTVSPropertyOp29
 70
     1
102
RTVSPropertyOp30
 70
     1
102
RTVSPropertyOp31
 70
     1
102
RTVSPropertyOp32
 70
     1
102
RTVSPropertyOp0
 70
     1
102
RTVSPropertyOp1
 70
     1
102
RTVSPropertyOp2
 70
     1
102
RTVSPropertyOp3
 70
     1
102
RTVSPropertyOp4
 70
     1
102
RTVSPropertyOp5
 70
     1
102
RTVSPropertyOp6
 70
     1
102
RTVSPropertyOp7
 70
     1
102
RTVSPropertyOp8
 70
     1
102
RTVSPropertyOp9
 70
     1
102
RTVSPropertyOp10
 70
     1
102
RTVSPropertyOp11
 70
     1
102
RTVSPropertyOp12
 70
     1
102
RTVSPropertyOp13
 70
     1
102
RTVSPropertyOp14
 70
     1
102
RTVSPropertyOp15
 70
     1
102
RTVSPropertyOp16
 70
     1
102
RTVSPropertyOp17
 70
     1
102
RTVSPropertyOp18
 70
     1
102
RTVSPropertyOp19
 70
     1
102
RTVSPropertyOp20
 70
     1
102
RTVSPropertyOp21
 70
     1
102
RTVSPropertyOp22
 70
     1
102
RTVSPropertyOp23
 70
     1
102
RTVSPropertyOp24
 70
     1
102
RTVSPropertyOp25
 70
     1
102
RTVSPropertyOp26
 70
     1
102
RTVSPropertyOp27
 70
     1
  0
XRECORD
  5
1626
102
{ACAD_REACTORS
330
1625
102
}
330
1625
100
AcDbXrecord
280
     1
102
RTVSPropertyOp28
 70
     1
102
RTVSPropertyOp29
 70
     1
102
RTVSPropertyOp30
 70
     1
102
RTVSPropertyOp31
 70
     1
102
RTVSPropertyOp32
 70
     1
102
RTVSPropertyOp0
 70
     0
102
RTVSPropertyOp1
 70
     0
102
RTVSPropertyOp2
 70
     0
102
RTVSPropertyOp3
 70
     0
102
RTVSPropertyOp4
 70
     0
102
RTVSPropertyOp5
 70
     0
102
RTVSPropertyOp6
 70
     0
102
RTVSPropertyOp7
 70
     0
102
RTVSPropertyOp8
 70
     0
102
RTVSPropertyOp9
 70
     0
102
RTVSPropertyOp10
 70
     0
102
RTVSPropertyOp11
 70
     0
102
RTVSPropertyOp12
 70
     0
102
RTVSPropertyOp13
 70
     0
102
RTVSPropertyOp14
 70
     2
102
RTVSPropertyOp15
 70
     0
102
RTVSPropertyOp16
 70
     0
102
RTVSPropertyOp17
 70
     0
102
RTVSPropertyOp18
 70
     0
102
RTVSPropertyOp19
 70
     0
102
RTVSPropertyOp20
 70
     0
102
RTVSPropertyOp21
 70
     0
102
RTVSPropertyOp22
 70
     0
102
RTVSPropertyOp23
 70
     0
102
RTVSPropertyOp24
 70
     0
102
RTVSPropertyOp25
 70
     0
102
RTVSPropertyOp26
 70
     0
102
RTVSPropertyOp27
 70
     0
  0
XRECORD
  5
1614
102
{ACAD_REACTORS
330
1613
102
}
330
1613
100
AcDbXrecord
280
     1
102
RTVSPropertyOp28
 70
     1
102
RTVSPropertyOp29
 70
     1
102
RTVSPropertyOp30
 70
     1
102
RTVSPropertyOp31
 70
     1
102
RTVSPropertyOp32
 70
     1
102
RTVSPropertyOp0
 70
     1
102
RTVSPropertyOp1
 70
     1
102
RTVSPropertyOp2
 70
     1
102
RTVSPropertyOp3
 70
     1
102
RTVSPropertyOp4
 70
     1
102
RTVSPropertyOp5
 70
     1
102
RTVSPropertyOp6
 70
     1
102
RTVSPropertyOp7
 70
     1
102
RTVSPropertyOp8
 70
     1
102
RTVSPropertyOp9
 70
     1
102
RTVSPropertyOp10
 70
     1
102
RTVSPropertyOp11
 70
     1
102
RTVSPropertyOp12
 70
     1
102
RTVSPropertyOp13
 70
     1
102
RTVSPropertyOp14
 70
     1
102
RTVSPropertyOp15
 70
     1
102
RTVSPropertyOp16
 70
     1
102
RTVSPropertyOp17
 70
     1
102
RTVSPropertyOp18
 70
     1
102
RTVSPropertyOp19
 70
     1
102
RTVSPropertyOp20
 70
     1
102
RTVSPropertyOp21
 70
     1
102
RTVSPropertyOp22
 70
     1
102
RTVSPropertyOp23
 70
     1
102
RTVSPropertyOp24
 70
     1
102
RTVSPropertyOp25
 70
     1
102
RTVSPropertyOp26
 70
     1
102
RTVSPropertyOp27
 70
     1
  0
XRECORD
  5
15F8
102
{ACAD_REACTORS
330
15F7
102
}
330
15F7
100
AcDbXrecord
280
     1
102
RTVSPropertyOp28
 70
     1
102
RTVSPropertyOp29
 70
     1
102
RTVSPropertyOp30
 70
     1
102
RTVSPropertyOp31
 70
     1
102
RTVSPropertyOp32
 70
     1
102
RTVSPropertyOp0
 70
     1
102
RTVSPropertyOp1
 70
     1
102
RTVSPropertyOp2
 70
     1
102
RTVSPropertyOp3
 70
     1
102
RTVSPropertyOp4
 70
     1
102
RTVSPropertyOp5
 70
     1
102
RTVSPropertyOp6
 70
     1
102
RTVSPropertyOp7
 70
     1
102
RTVSPropertyOp8
 70
     1
102
RTVSPropertyOp9
 70
     1
102
RTVSPropertyOp10
 70
     1
102
RTVSPropertyOp11
 70
     1
102
RTVSPropertyOp12
 70
     1
102
RTVSPropertyOp13
 70
     1
102
RTVSPropertyOp14
 70
     1
102
RTVSPropertyOp15
 70
     1
102
RTVSPropertyOp16
 70
     1
102
RTVSPropertyOp17
 70
     1
102
RTVSPropertyOp18
 70
     1
102
RTVSPropertyOp19
 70
     1
102
RTVSPropertyOp20
 70
     1
102
RTVSPropertyOp21
 70
     1
102
RTVSPropertyOp22
 70
     1
102
RTVSPropertyOp23
 70
     1
102
RTVSPropertyOp24
 70
     1
102
RTVSPropertyOp25
 70
     1
102
RTVSPropertyOp26
 70
     1
102
RTVSPropertyOp27
 70
     1
  0
XRECORD
  5
15FA
102
{ACAD_REACTORS
330
15F9
102
}
330
15F9
100
AcDbXrecord
280
     1
102
RTVSPropertyOp28
 70
     1
102
RTVSPropertyOp29
 70
     1
102
RTVSPropertyOp30
 70
     1
102
RTVSPropertyOp31
 70
     1
102
RTVSPropertyOp32
 70
     1
102
RTVSPropertyOp0
 70
     1
102
RTVSPropertyOp1
 70
     1
102
RTVSPropertyOp2
 70
     1
102
RTVSPropertyOp3
 70
     1
102
RTVSPropertyOp4
 70
     1
102
RTVSPropertyOp5
 70
     1
102
RTVSPropertyOp6
 70
     1
102
RTVSPropertyOp7
 70
     1
102
RTVSPropertyOp8
 70
     1
102
RTVSPropertyOp9
 70
     1
102
RTVSPropertyOp10
 70
     1
102
RTVSPropertyOp11
 70
     1
102
RTVSPropertyOp12
 70
     1
102
RTVSPropertyOp13
 70
     1
102
RTVSPropertyOp14
 70
     1
102
RTVSPropertyOp15
 70
     1
102
RTVSPropertyOp16
 70
     1
102
RTVSPropertyOp17
 70
     1
102
RTVSPropertyOp18
 70
     1
102
RTVSPropertyOp19
 70
     1
102
RTVSPropertyOp20
 70
     1
102
RTVSPropertyOp21
 70
     1
102
RTVSPropertyOp22
 70
     1
102
RTVSPropertyOp23
 70
     1
102
RTVSPropertyOp24
 70
     1
102
RTVSPropertyOp25
 70
     1
102
RTVSPropertyOp26
 70
     1
102
RTVSPropertyOp27
 70
     1
  0
XRECORD
  5
15FC
102
{ACAD_REACTORS
330
15FB
102
}
330
15FB
100
AcDbXrecord
280
     1
102
RTVSPropertyOp28
 70
     1
102
RTVSPropertyOp29
 70
     1
102
RTVSPropertyOp30
 70
     1
102
RTVSPropertyOp31
 70
     1
102
RTVSPropertyOp32
 70
     1
102
RTVSPropertyOp0
 70
     1
102
RTVSPropertyOp1
 70
     1
102
RTVSPropertyOp2
 70
     1
102
RTVSPropertyOp3
 70
     1
102
RTVSPropertyOp4
 70
     1
102
RTVSPropertyOp5
 70
     1
102
RTVSPropertyOp6
 70
     1
102
RTVSPropertyOp7
 70
     1
102
RTVSPropertyOp8
 70
     1
102
RTVSPropertyOp9
 70
     1
102
RTVSPropertyOp10
 70
     1
102
RTVSPropertyOp11
 70
     1
102
RTVSPropertyOp12
 70
     1
102
RTVSPropertyOp13
 70
     1
102
RTVSPropertyOp14
 70
     1
102
RTVSPropertyOp15
 70
     1
102
RTVSPropertyOp16
 70
     1
102
RTVSPropertyOp17
 70
     1
102
RTVSPropertyOp18
 70
     1
102
RTVSPropertyOp19
 70
     1
102
RTVSPropertyOp20
 70
     1
102
RTVSPropertyOp21
 70
     1
102
RTVSPropertyOp22
 70
     1
102
RTVSPropertyOp23
 70
     1
102
RTVSPropertyOp24
 70
     1
102
RTVSPropertyOp25
 70
     1
102
RTVSPropertyOp26
 70
     1
102
RTVSPropertyOp27
 70
     1
  0
XRECORD
  5
15FE
102
{ACAD_REACTORS
330
15FD
102
}
330
15FD
100
AcDbXrecord
280
     1
102
RTVSPropertyOp28
 70
     1
102
RTVSPropertyOp29
 70
     1
102
RTVSPropertyOp30
 70
     1
102
RTVSPropertyOp31
 70
     1
102
RTVSPropertyOp32
 70
     1
102
RTVSPropertyOp0
 70
     1
102
RTVSPropertyOp1
 70
     1
102
RTVSPropertyOp2
 70
     1
102
RTVSPropertyOp3
 70
     1
102
RTVSPropertyOp4
 70
     1
102
RTVSPropertyOp5
 70
     1
102
RTVSPropertyOp6
 70
     1
102
RTVSPropertyOp7
 70
     1
102
RTVSPropertyOp8
 70
     1
102
RTVSPropertyOp9
 70
     1
102
RTVSPropertyOp10
 70
     1
102
RTVSPropertyOp11
 70
     1
102
RTVSPropertyOp12
 70
     1
102
RTVSPropertyOp13
 70
     1
102
RTVSPropertyOp14
 70
     1
102
RTVSPropertyOp15
 70
     1
102
RTVSPropertyOp16
 70
     1
102
RTVSPropertyOp17
 70
     1
102
RTVSPropertyOp18
 70
     1
102
RTVSPropertyOp19
 70
     1
102
RTVSPropertyOp20
 70
     1
102
RTVSPropertyOp21
 70
     1
102
RTVSPropertyOp22
 70
     1
102
RTVSPropertyOp23
 70
     1
102
RTVSPropertyOp24
 70
     1
102
RTVSPropertyOp25
 70
     1
102
RTVSPropertyOp26
 70
     1
102
RTVSPropertyOp27
 70
     1
  0
XRECORD
  5
1606
102
{ACAD_REACTORS
330
1605
102
}
330
1605
100
AcDbXrecord
280
     1
102
RTVSPropertyOp28
 70
     1
102
RTVSPropertyOp29
 70
     1
102
RTVSPropertyOp30
 70
     1
102
RTVSPropertyOp31
 70
     1
102
RTVSPropertyOp32
 70
     1
102
RTVSPropertyOp0
 70
     1
102
RTVSPropertyOp1
 70
     1
102
RTVSPropertyOp2
 70
     1
102
RTVSPropertyOp3
 70
     1
102
RTVSPropertyOp4
 70
     1
102
RTVSPropertyOp5
 70
     1
102
RTVSPropertyOp6
 70
     1
102
RTVSPropertyOp7
 70
     1
102
RTVSPropertyOp8
 70
     1
102
RTVSPropertyOp9
 70
     1
102
RTVSPropertyOp10
 70
     1
102
RTVSPropertyOp11
 70
     1
102
RTVSPropertyOp12
 70
     1
102
RTVSPropertyOp13
 70
     1
102
RTVSPropertyOp14
 70
     1
102
RTVSPropertyOp15
 70
     1
102
RTVSPropertyOp16
 70
     1
102
RTVSPropertyOp17
 70
     1
102
RTVSPropertyOp18
 70
     1
102
RTVSPropertyOp19
 70
     1
102
RTVSPropertyOp20
 70
     1
102
RTVSPropertyOp21
 70
     1
102
RTVSPropertyOp22
 70
     1
102
RTVSPropertyOp23
 70
     1
102
RTVSPropertyOp24
 70
     1
102
RTVSPropertyOp25
 70
     1
102
RTVSPropertyOp26
 70
     1
102
RTVSPropertyOp27
 70
     1
  0
XRECORD
  5
1622
102
{ACAD_REACTORS
330
1621
102
}
330
1621
100
AcDbXrecord
280
     1
102
RTVSPropertyOp28
 70
     1
102
RTVSPropertyOp29
 70
     1
102
RTVSPropertyOp30
 70
     1
102
RTVSPropertyOp31
 70
     1
102
RTVSPropertyOp32
 70
     1
102
RTVSPropertyOp0
 70
     0
102
RTVSPropertyOp1
 70
     0
102
RTVSPropertyOp2
 70
     0
102
RTVSPropertyOp3
 70
     0
102
RTVSPropertyOp4
 70
     0
102
RTVSPropertyOp5
 70
     0
102
RTVSPropertyOp6
 70
     0
102
RTVSPropertyOp7
 70
     0
102
RTVSPropertyOp8
 70
     0
102
RTVSPropertyOp9
 70
     0
102
RTVSPropertyOp10
 70
     0
102
RTVSPropertyOp11
 70
     0
102
RTVSPropertyOp12
 70
     0
102
RTVSPropertyOp13
 70
     0
102
RTVSPropertyOp14
 70
     2
102
RTVSPropertyOp15
 70
     0
102
RTVSPropertyOp16
 70
     0
102
RTVSPropertyOp17
 70
     0
102
RTVSPropertyOp18
 70
     0
102
RTVSPropertyOp19
 70
     0
102
RTVSPropertyOp20
 70
     0
102
RTVSPropertyOp21
 70
     0
102
RTVSPropertyOp22
 70
     0
102
RTVSPropertyOp23
 70
     0
102
RTVSPropertyOp24
 70
     0
102
RTVSPropertyOp25
 70
     0
102
RTVSPropertyOp26
 70
     0
102
RTVSPropertyOp27
 70
     0
  0
XRECORD
  5
1612
102
{ACAD_REACTORS
330
1611
102
}
330
1611
100
AcDbXrecord
280
     1
102
RTVSPropertyOp28
 70
     1
102
RTVSPropertyOp29
 70
     1
102
RTVSPropertyOp30
 70
     1
102
RTVSPropertyOp31
 70
     1
102
RTVSPropertyOp32
 70
     1
102
RTVSPropertyOp0
 70
     1
102
RTVSPropertyOp1
 70
     1
102
RTVSPropertyOp2
 70
     1
102
RTVSPropertyOp3
 70
     1
102
RTVSPropertyOp4
 70
     1
102
RTVSPropertyOp5
 70
     1
102
RTVSPropertyOp6
 70
     1
102
RTVSPropertyOp7
 70
     1
102
RTVSPropertyOp8
 70
     1
102
RTVSPropertyOp9
 70
     1
102
RTVSPropertyOp10
 70
     1
102
RTVSPropertyOp11
 70
     1
102
RTVSPropertyOp12
 70
     1
102
RTVSPropertyOp13
 70
     1
102
RTVSPropertyOp14
 70
     1
102
RTVSPropertyOp15
 70
     1
102
RTVSPropertyOp16
 70
     1
102
RTVSPropertyOp17
 70
     1
102
RTVSPropertyOp18
 70
     1
102
RTVSPropertyOp19
 70
     1
102
RTVSPropertyOp20
 70
     1
102
RTVSPropertyOp21
 70
     1
102
RTVSPropertyOp22
 70
     1
102
RTVSPropertyOp23
 70
     1
102
RTVSPropertyOp24
 70
     1
102
RTVSPropertyOp25
 70
     1
102
RTVSPropertyOp26
 70
     1
102
RTVSPropertyOp27
 70
     1
  0
XRECORD
  5
1624
102
{ACAD_REACTORS
330
1623
102
}
330
1623
100
AcDbXrecord
280
     1
102
RTVSPropertyOp28
 70
     1
102
RTVSPropertyOp29
 70
     1
102
RTVSPropertyOp30
 70
     1
102
RTVSPropertyOp31
 70
     1
102
RTVSPropertyOp32
 70
     1
102
RTVSPropertyOp0
 70
     0
102
RTVSPropertyOp1
 70
     0
102
RTVSPropertyOp2
 70
     0
102
RTVSPropertyOp3
 70
     0
102
RTVSPropertyOp4
 70
     0
102
RTVSPropertyOp5
 70
     0
102
RTVSPropertyOp6
 70
     0
102
RTVSPropertyOp7
 70
     0
102
RTVSPropertyOp8
 70
     0
102
RTVSPropertyOp9
 70
     0
102
RTVSPropertyOp10
 70
     0
102
RTVSPropertyOp11
 70
     0
102
RTVSPropertyOp12
 70
     0
102
RTVSPropertyOp13
 70
     0
102
RTVSPropertyOp14
 70
     2
102
RTVSPropertyOp15
 70
     0
102
RTVSPropertyOp16
 70
     0
102
RTVSPropertyOp17
 70
     0
102
RTVSPropertyOp18
 70
     0
102
RTVSPropertyOp19
 70
     0
102
RTVSPropertyOp20
 70
     0
102
RTVSPropertyOp21
 70
     0
102
RTVSPropertyOp22
 70
     0
102
RTVSPropertyOp23
 70
     0
102
RTVSPropertyOp24
 70
     0
102
RTVSPropertyOp25
 70
     0
102
RTVSPropertyOp26
 70
     0
102
RTVSPropertyOp27
 70
     0
  0
XRECORD
  5
160A
102
{ACAD_REACTORS
330
1609
102
}
330
1609
100
AcDbXrecord
280
     1
102
RTVSPropertyOp28
 70
     1
102
RTVSPropertyOp29
 70
     1
102
RTVSPropertyOp30
 70
     1
102
RTVSPropertyOp31
 70
     1
102
RTVSPropertyOp32
 70
     1
102
RTVSPropertyOp0
 70
     1
102
RTVSPropertyOp1
 70
     1
102
RTVSPropertyOp2
 70
     1
102
RTVSPropertyOp3
 70
     1
102
RTVSPropertyOp4
 70
     1
102
RTVSPropertyOp5
 70
     1
102
RTVSPropertyOp6
 70
     1
102
RTVSPropertyOp7
 70
     1
102
RTVSPropertyOp8
 70
     1
102
RTVSPropertyOp9
 70
     1
102
RTVSPropertyOp10
 70
     1
102
RTVSPropertyOp11
 70
     1
102
RTVSPropertyOp12
 70
     1
102
RTVSPropertyOp13
 70
     1
102
RTVSPropertyOp14
 70
     1
102
RTVSPropertyOp15
 70
     1
102
RTVSPropertyOp16
 70
     1
102
RTVSPropertyOp17
 70
     1
102
RTVSPropertyOp18
 70
     1
102
RTVSPropertyOp19
 70
     1
102
RTVSPropertyOp20
 70
     1
102
RTVSPropertyOp21
 70
     1
102
RTVSPropertyOp22
 70
     1
102
RTVSPropertyOp23
 70
     1
102
RTVSPropertyOp24
 70
     1
102
RTVSPropertyOp25
 70
     1
102
RTVSPropertyOp26
 70
     1
102
RTVSPropertyOp27
 70
     1
  0
XRECORD
  5
1620
102
{ACAD_REACTORS
330
161F
102
}
330
161F
100
AcDbXrecord
280
     1
102
RTVSPropertyOp28
 70
     1
102
RTVSPropertyOp29
 70
     1
102
RTVSPropertyOp30
 70
     1
102
RTVSPropertyOp31
 70
     1
102
RTVSPropertyOp32
 70
     1
102
RTVSPropertyOp0
 70
     1
102
RTVSPropertyOp1
 70
     1
102
RTVSPropertyOp2
 70
     1
102
RTVSPropertyOp3
 70
     1
102
RTVSPropertyOp4
 70
     1
102
RTVSPropertyOp5
 70
     1
102
RTVSPropertyOp6
 70
     1
102
RTVSPropertyOp7
 70
     1
102
RTVSPropertyOp8
 70
     1
102
RTVSPropertyOp9
 70
     1
102
RTVSPropertyOp10
 70
     1
102
RTVSPropertyOp11
 70
     1
102
RTVSPropertyOp12
 70
     1
102
RTVSPropertyOp13
 70
     1
102
RTVSPropertyOp14
 70
     1
102
RTVSPropertyOp15
 70
     1
102
RTVSPropertyOp16
 70
     1
102
RTVSPropertyOp17
 70
     1
102
RTVSPropertyOp18
 70
     1
102
RTVSPropertyOp19
 70
     1
102
RTVSPropertyOp20
 70
     1
102
RTVSPropertyOp21
 70
     1
102
RTVSPropertyOp22
 70
     1
102
RTVSPropertyOp23
 70
     1
102
RTVSPropertyOp24
 70
     1
102
RTVSPropertyOp25
 70
     1
102
RTVSPropertyOp26
 70
     1
102
RTVSPropertyOp27
 70
     1
  0
XRECORD
  5
161E
102
{ACAD_REACTORS
330
161D
102
}
330
161D
100
AcDbXrecord
280
     1
102
RTVSPropertyOp28
 70
     1
102
RTVSPropertyOp29
 70
     1
102
RTVSPropertyOp30
 70
     1
102
RTVSPropertyOp31
 70
     1
102
RTVSPropertyOp32
 70
     1
102
RTVSPropertyOp0
 70
     1
102
RTVSPropertyOp1
 70
     1
102
RTVSPropertyOp2
 70
     1
102
RTVSPropertyOp3
 70
     1
102
RTVSPropertyOp4
 70
     1
102
RTVSPropertyOp5
 70
     1
102
RTVSPropertyOp6
 70
     1
102
RTVSPropertyOp7
 70
     1
102
RTVSPropertyOp8
 70
     1
102
RTVSPropertyOp9
 70
     1
102
RTVSPropertyOp10
 70
     1
102
RTVSPropertyOp11
 70
     1
102
RTVSPropertyOp12
 70
     1
102
RTVSPropertyOp13
 70
     1
102
RTVSPropertyOp14
 70
     1
102
RTVSPropertyOp15
 70
     1
102
RTVSPropertyOp16
 70
     1
102
RTVSPropertyOp17
 70
     1
102
RTVSPropertyOp18
 70
     1
102
RTVSPropertyOp19
 70
     1
102
RTVSPropertyOp20
 70
     1
102
RTVSPropertyOp21
 70
     1
102
RTVSPropertyOp22
 70
     1
102
RTVSPropertyOp23
 70
     1
102
RTVSPropertyOp24
 70
     1
102
RTVSPropertyOp25
 70
     1
102
RTVSPropertyOp26
 70
     1
102
RTVSPropertyOp27
 70
     1
  0
XRECORD
  5
1618
102
{ACAD_REACTORS
330
1617
102
}
330
1617
100
AcDbXrecord
280
     1
102
RTVSPropertyOp28
 70
     1
102
RTVSPropertyOp29
 70
     1
102
RTVSPropertyOp30
 70
     1
102
RTVSPropertyOp31
 70
     1
102
RTVSPropertyOp32
 70
     1
102
RTVSPropertyOp0
 70
     1
102
RTVSPropertyOp1
 70
     1
102
RTVSPropertyOp2
 70
     1
102
RTVSPropertyOp3
 70
     1
102
RTVSPropertyOp4
 70
     1
102
RTVSPropertyOp5
 70
     1
102
RTVSPropertyOp6
 70
     1
102
RTVSPropertyOp7
 70
     1
102
RTVSPropertyOp8
 70
     1
102
RTVSPropertyOp9
 70
     1
102
RTVSPropertyOp10
 70
     1
102
RTVSPropertyOp11
 70
     1
102
RTVSPropertyOp12
 70
     1
102
RTVSPropertyOp13
 70
     1
102
RTVSPropertyOp14
 70
     1
102
RTVSPropertyOp15
 70
     1
102
RTVSPropertyOp16
 70
     1
102
RTVSPropertyOp17
 70
     1
102
RTVSPropertyOp18
 70
     1
102
RTVSPropertyOp19
 70
     1
102
RTVSPropertyOp20
 70
     1
102
RTVSPropertyOp21
 70
     1
102
RTVSPropertyOp22
 70
     1
102
RTVSPropertyOp23
 70
     1
102
RTVSPropertyOp24
 70
     1
102
RTVSPropertyOp25
 70
     1
102
RTVSPropertyOp26
 70
     1
102
RTVSPropertyOp27
 70
     1
  0
XRECORD
  5
161A
102
{ACAD_REACTORS
330
1619
102
}
330
1619
100
AcDbXrecord
280
     1
102
RTVSPropertyOp28
 70
     1
102
RTVSPropertyOp29
 70
     1
102
RTVSPropertyOp30
 70
     1
102
RTVSPropertyOp31
 70
     1
102
RTVSPropertyOp32
 70
     1
102
RTVSPropertyOp0
 70
     1
102
RTVSPropertyOp1
 70
     1
102
RTVSPropertyOp2
 70
     1
102
RTVSPropertyOp3
 70
     1
102
RTVSPropertyOp4
 70
     1
102
RTVSPropertyOp5
 70
     1
102
RTVSPropertyOp6
 70
     1
102
RTVSPropertyOp7
 70
     1
102
RTVSPropertyOp8
 70
     1
102
RTVSPropertyOp9
 70
     1
102
RTVSPropertyOp10
 70
     1
102
RTVSPropertyOp11
 70
     1
102
RTVSPropertyOp12
 70
     1
102
RTVSPropertyOp13
 70
     1
102
RTVSPropertyOp14
 70
     1
102
RTVSPropertyOp15
 70
     1
102
RTVSPropertyOp16
 70
     1
102
RTVSPropertyOp17
 70
     1
102
RTVSPropertyOp18
 70
     1
102
RTVSPropertyOp19
 70
     1
102
RTVSPropertyOp20
 70
     1
102
RTVSPropertyOp21
 70
     1
102
RTVSPropertyOp22
 70
     1
102
RTVSPropertyOp23
 70
     1
102
RTVSPropertyOp24
 70
     1
102
RTVSPropertyOp25
 70
     1
102
RTVSPropertyOp26
 70
     1
102
RTVSPropertyOp27
 70
     1
  0
XRECORD
  5
1610
102
{ACAD_REACTORS
330
160F
102
}
330
160F
100
AcDbXrecord
280
     1
102
RTVSPropertyOp28
 70
     1
102
RTVSPropertyOp29
 70
     1
102
RTVSPropertyOp30
 70
     1
102
RTVSPropertyOp31
 70
     1
102
RTVSPropertyOp32
 70
     1
102
RTVSPropertyOp0
 70
     1
102
RTVSPropertyOp1
 70
     1
102
RTVSPropertyOp2
 70
     1
102
RTVSPropertyOp3
 70
     1
102
RTVSPropertyOp4
 70
     1
102
RTVSPropertyOp5
 70
     1
102
RTVSPropertyOp6
 70
     1
102
RTVSPropertyOp7
 70
     1
102
RTVSPropertyOp8
 70
     1
102
RTVSPropertyOp9
 70
     1
102
RTVSPropertyOp10
 70
     1
102
RTVSPropertyOp11
 70
     1
102
RTVSPropertyOp12
 70
     1
102
RTVSPropertyOp13
 70
     1
102
RTVSPropertyOp14
 70
     1
102
RTVSPropertyOp15
 70
     1
102
RTVSPropertyOp16
 70
     1
102
RTVSPropertyOp17
 70
     1
102
RTVSPropertyOp18
 70
     1
102
RTVSPropertyOp19
 70
     1
102
RTVSPropertyOp20
 70
     1
102
RTVSPropertyOp21
 70
     1
102
RTVSPropertyOp22
 70
     1
102
RTVSPropertyOp23
 70
     1
102
RTVSPropertyOp24
 70
     1
102
RTVSPropertyOp25
 70
     1
102
RTVSPropertyOp26
 70
     1
102
RTVSPropertyOp27
 70
     1
  0
XRECORD
  5
1604
102
{ACAD_REACTORS
330
1603
102
}
330
1603
100
AcDbXrecord
280
     1
102
RTVSPropertyOp28
 70
     1
102
RTVSPropertyOp29
 70
     1
102
RTVSPropertyOp30
 70
     1
102
RTVSPropertyOp31
 70
     1
102
RTVSPropertyOp32
 70
     1
102
RTVSPropertyOp0
 70
     1
102
RTVSPropertyOp1
 70
     1
102
RTVSPropertyOp2
 70
     1
102
RTVSPropertyOp3
 70
     1
102
RTVSPropertyOp4
 70
     1
102
RTVSPropertyOp5
 70
     1
102
RTVSPropertyOp6
 70
     1
102
RTVSPropertyOp7
 70
     1
102
RTVSPropertyOp8
 70
     1
102
RTVSPropertyOp9
 70
     1
102
RTVSPropertyOp10
 70
     1
102
RTVSPropertyOp11
 70
     1
102
RTVSPropertyOp12
 70
     1
102
RTVSPropertyOp13
 70
     1
102
RTVSPropertyOp14
 70
     1
102
RTVSPropertyOp15
 70
     1
102
RTVSPropertyOp16
 70
     1
102
RTVSPropertyOp17
 70
     1
102
RTVSPropertyOp18
 70
     1
102
RTVSPropertyOp19
 70
     1
102
RTVSPropertyOp20
 70
     1
102
RTVSPropertyOp21
 70
     1
102
RTVSPropertyOp22
 70
     1
102
RTVSPropertyOp23
 70
     1
102
RTVSPropertyOp24
 70
     1
102
RTVSPropertyOp25
 70
     1
102
RTVSPropertyOp26
 70
     1
102
RTVSPropertyOp27
 70
     1
  0
XRECORD
  5
161C
102
{ACAD_REACTORS
330
161B
102
}
330
161B
100
AcDbXrecord
280
     1
102
RTVSPropertyOp28
 70
     1
102
RTVSPropertyOp29
 70
     1
102
RTVSPropertyOp30
 70
     1
102
RTVSPropertyOp31
 70
     1
102
RTVSPropertyOp32
 70
     1
102
RTVSPropertyOp0
 70
     1
102
RTVSPropertyOp1
 70
     1
102
RTVSPropertyOp2
 70
     1
102
RTVSPropertyOp3
 70
     1
102
RTVSPropertyOp4
 70
     1
102
RTVSPropertyOp5
 70
     1
102
RTVSPropertyOp6
 70
     1
102
RTVSPropertyOp7
 70
     1
102
RTVSPropertyOp8
 70
     1
102
RTVSPropertyOp9
 70
     1
102
RTVSPropertyOp10
 70
     1
102
RTVSPropertyOp11
 70
     1
102
RTVSPropertyOp12
 70
     1
102
RTVSPropertyOp13
 70
     1
102
RTVSPropertyOp14
 70
     1
102
RTVSPropertyOp15
 70
     1
102
RTVSPropertyOp16
 70
     1
102
RTVSPropertyOp17
 70
     1
102
RTVSPropertyOp18
 70
     1
102
RTVSPropertyOp19
 70
     1
102
RTVSPropertyOp20
 70
     1
102
RTVSPropertyOp21
 70
     1
102
RTVSPropertyOp22
 70
     1
102
RTVSPropertyOp23
 70
     1
102
RTVSPropertyOp24
 70
     1
102
RTVSPropertyOp25
 70
     1
102
RTVSPropertyOp26
 70
     1
102
RTVSPropertyOp27
 70
     1
  0
ENDSEC
  0
EOF
